  0
SECTION
  2
HEADER
  9
$ACADVER
  1
AC1009
  9
$INSBASE
 10
0
 20
0
 30
0
  9
$EXTMIN
 10
0
 20
0
  9
$EXTMAX
 10
297
 20
210
  9
$LIMMIN
 10
0
 20
0
  9
$LIMMAX
 10
297
 20
210
  9
$LTSCALE
 40
1
  0
ENDSEC
  0
SECTION
  2
TABLES
  0
TABLE
  2
LTYPE
 70
     9
  0
LTYPE
  2
CONTINUOUS
 70
    64
  3
実線
 72
    65
 73
     0
 40
0.0
  0
LTYPE
  2
DASHED1
 70
    64
  3
--  --  --  --  --  --  --  --  
 72
    65
 73
     2
 40
2.5
 49
1.25
 49
-1.25
  0
LTYPE
  2
DASHED2
 70
    64
  3
----    ----    ----    ----    
 72
    65
 73
     2
 40
5.0
 49
2.5
 49
-2.5
  0
LTYPE
  2
DASHED3
 70
    64
  3
------  ------  ------  ------  
 72
    65
 73
     2
 40
5.0
 49
3.75
 49
-1.25
  0
LTYPE
  2
CENTER1
 70
    64
  3
----- - ----- - ----- - ----- - 
 72
    65
 73
     4
 40
10.0
 49
6.25
 49
-1.25
 49
1.25
 49
-1.25
  0
LTYPE
  2
CENTER2
 70
    64
  3
----------  --  ----------  --  
 72
    65
 73
     4
 40
20.0
 49
12.5
 49
-2.5
 49
2.5
 49
-2.5
  0
LTYPE
  2
PHANTOM1
 70
    64
  3
--- - - --- - - --- - - --- - - 
 72
    65
 73
     6
 40
10.0
 49
3.25
 49
-1.25
 49
1.25
 49
-1.25
 49
1.25
 49
-1.25
  0
LTYPE
  2
PHANTOM2
 70
    64
  3
--------  -  -  --------  -  -  
 72
    65
 73
     6
 40
20.0
 49
10.0
 49
-2.5
 49
1.25
 49
-2.5
 49
1.25
 49
-2.5
  0
LTYPE
  2
DOT
 70
    64
  3
-   -   -   -   -   -   -   -   
 72
    65
 73
     2
 40
2.5
 49
0.625
 49
-1.875
  0
LTYPE
  2
DUMMY
 70
    64
  3
ダミー
 72
    65
 73
     0
 40
0.0
  0
LTYPE
  2
RAND1
 70
    64
  3
ランダム線1
 72
    65
 73
     4
 40
10.0
 49
1.0
 49
-2.0
 49
3.0
 49
-4.0
  0
LTYPE
  2
RAND2
 70
    64
  3
ランダム線2
 72
    65
 73
     4
 40
14.0
 49
2.0
 49
-3.0
 49
4.0
 49
-5.0
  0
LTYPE
  2
RAND3
 70
    64
  3
ランダム線3
 72
    65
 73
     4
 40
18.0
 49
3.0
 49
-4.0
 49
5.0
 49
-6.0
  0
LTYPE
  2
RAND4
 70
    64
  3
ランダム線4
 72
    65
 73
     4
 40
22.0
 49
4.0
 49
-5.0
 49
6.0
 49
-7.0
  0
LTYPE
  2
RAND5
 70
    64
  3
ランダム線5
 72
    65
 73
     4
 40
26.0
 49
5.0
 49
-6.0
 49
7.0
 49
-8.0
  0
LTYPE
  2
LONG1
 70
    64
  3
----------  --  ----------  --  
 72
    65
 73
     4
 40
40.0
 49
32.5
 49
-2.5
 49
2.5
 49
-2.5
  0
LTYPE
  2
LONG2
 70
    64
  3
--------  -  -  --------  -  -  
 72
    65
 73
     6
 40
40.0
 49
30.0
 49
-2.5
 49
1.25
 49
-2.5
 49
1.25
 49
-2.5
  0
LTYPE
  2
LONG3
 70
    64
  3
+++++++++++++++..+++++++++++++++
 72
    65
 73
     2
 40
40.0
 49
37.5
 49
-2.5
  0
LTYPE
  2
LONG4
 70
    64
  3
+++++++++++++++..+++++++++++++++
 72
    65
 73
     2
 40
80.0
 49
75.0
 49
-5.0
  0
LTYPE
  2
LONG5
 70
    64
  3
----------  --  ----------  --  
 72
    65
 73
     4
 40
60.0
 49
37.5
 49
-7.5
 49
7.5
 49
-7.5
  0
LTYPE
  2
dashed
 70
   64
  3
-------   -------------   ------
 72
   65
 73
    2
 40
7.5
 49
6
 49
-1.5
  0
LTYPE
  2
dashed_spaced
 70
   64
  3
----        --------        ----
 72
   65
 73
    2
 40
12
 49
6
 49
-6
  0
LTYPE
  2
long_dashed_dotted
 70
   64
  3
------------- --- --------------
 72
   65
 73
    4
 40
15.25
 49
12
 49
-1.5
 49
0.25
 49
-1.5
  0
LTYPE
  2
long_dashed_double-dotted
 70
   64
  3
----------- --- --- ------------
 72
   65
 73
    6
 40
17
 49
12
 49
-1.5
 49
0.25
 49
-1.5
 49
0.25
 49
-1.5
  0
LTYPE
  2
long_dashed_triplicate-dotted
 70
   64
  3
--------- --- --- --- ----------
 72
   65
 73
    8
 40
18.75
 49
12
 49
-1.5
 49
0.25
 49
-1.5
 49
0.25
 49
-1.5
 49
0.25
 49
-1.5
  0
LTYPE
  2
dotted
 70
   64
  3
   -       -       -       -    
 72
   65
 73
    2
 40
1.75
 49
0.25
 49
-1.5
  0
LTYPE
  2
chain
 70
   64
  3
-------------- -- --------------
 72
   65
 73
    4
 40
18.5
 49
12
 49
-1.5
 49
3.5
 49
-1.5
  0
LTYPE
  2
chain_double_dash
 70
   64
  3
------------ -- -- -------------
 72
   65
 73
    6
 40
23.5
 49
12
 49
-1.5
 49
3.5
 49
-1.5
 49
3.5
 49
-1.5
  0
LTYPE
  2
dashed_dotted
 70
   64
  3
-----------     -     ----------
 72
   65
 73
    4
 40
9.25
 49
6
 49
-1.5
 49
0.25
 49
-1.5
  0
LTYPE
  2
double-dashed_dotted
 70
   64
  3
------   -----------   -   -----
 72
   65
 73
    6
 40
16.75
 49
6
 49
-1.5
 49
6
 49
-1.5
 49
0.25
 49
-1.5
  0
LTYPE
  2
dashed_double-dotted
 70
   64
  3
---------    -    -    ---------
 72
   65
 73
    6
 40
11
 49
6
 49
-1.5
 49
0.25
 49
-1.5
 49
0.25
 49
-1.5
  0
LTYPE
  2
double-dashed_double-dotted
 70
   64
  3
-----   ---------   -   -   ----
 72
   65
 73
    8
 40
18.5
 49
6
 49
-1.5
 49
6
 49
-1.5
 49
0.25
 49
-1.5
 49
0.25
 49
-1.5
  0
LTYPE
  2
dashed_triplicate-dotted
 70
   64
  3
-------    -    -    -    ------
 72
   65
 73
    8
 40
12.75
 49
6
 49
-1.5
 49
0.25
 49
-1.5
 49
0.25
 49
-1.5
 49
0.25
 49
-1.5
  0
LTYPE
  2
double-dashed_triplicate-dotted
 70
   64
  3
-----  ---------  -  -  -  -----
 72
   65
 73
   10
 40
20.25
 49
6
 49
-1.5
 49
6
 49
-1.5
 49
0.25
 49
-1.5
 49
0.25
 49
-1.5
 49
0.25
 49
-1.5
  0
LTYPE
  2
undefined
 70
   64
  3
--------------------------------
 72
   65
 73
    0
 40
0
  0
LTYPE
  2
DASHED
 70
   64
  3
----        --------        ----
 72
   65
 73
    2
 40
4
 49
2
 49
-2
  0
LTYPE
  2
DOT_18
 70
   64
  3
---           -----           --
 72
   65
 73
    2
 40
3
 49
1
 49
-2
  0
LTYPE
  2
DASHDOT
 70
   64
  3
---------    ------    ---------
 72
   65
 73
    4
 40
17
 49
10
 49
-2
 49
3
 49
-2
  0
LTYPE
  2
DIVIDE
 70
   64
  3
-----------  --  --  -----------
 72
   65
 73
    6
 40
30
 49
20
 49
-2
 49
2
 49
-2
 49
2
 49
-2
  0
LTYPE
  2
CENTER
 70
   64
  3
-------------  --  -------------
 72
   65
 73
    4
 40
13
 49
10
 49
-1
 49
1
 49
-1
  0
ENDTAB
  0
TABLE
  2
STYLE
  5
3
100
AcDbSymbolTable
 70
     1
  0
STYLE
  5
10
100
AcDbSymbolTableRecord
100
AcDbTextStyleTableRecord
  2
STANDARD
 70
     0
 40
0.0
 41
1.0
 50
0.0
 71
     0
 42
0.2
  3
txt
  4
bigfont.shx
  0
STYLE
  5
26
100
AcDbSymbolTableRecord
100
AcDbTextStyleTableRecord
  2
TATEGAKI
 70
    68
 40
0.0
 41
1.0
 50
0.0
 71
     0
 42
1.0
  3
txt
  4
bigfont.shx
  0
ENDTAB
  0
TABLE
  2
LAYER
 70
    6
  0
LAYER
  2
_0-0_BaseLayer
 70
   64
 62
    7
  6
CONTINUOUS
  0
LAYER
  2
_0-1_作画層１
 70
   64
 62
    7
  6
CONTINUOUS
  0
LAYER
  2
_0-5_基準線層１
 70
   64
 62
    7
  6
CONTINUOUS
  0
LAYER
  2
_0-7_注記層１
 70
   64
 62
    7
  6
CONTINUOUS
  0
LAYER
  2
_0-9_寸法線層１
 70
   64
 62
    7
  6
CONTINUOUS
  0
LAYER
  2
ADD_LINE
 70
   64
 62
    7
  6
CONTINUOUS
  0
ENDTAB
  0
ENDSEC
  0
SECTION
  2
BLOCKS
  0
BLOCK
  2
-001-_D1
 70
   64
 10
0
 20
0
 30
0
  0
LINE
  8
_0-9_寸法線層１
  6
CONTINUOUS
 62
    7
 10
302.5
 20
249.5
 11
302.5
 21
233.86177143234622
  0
TEXT
  8
_0-9_寸法線層１
 62
    7
 10
301.5
 20
233.86177143234622
 40
3
 41
1
 50
90
  1
5
  0
LINE
  8
_0-9_寸法線層１
  6
CONTINUOUS
 62
    7
 10
314.5
 20
245
 11
300.5
 21
245
  0
LINE
  8
_0-9_寸法線層１
  6
CONTINUOUS
 62
    7
 10
317
 20
240
 11
300.5
 21
240
  0
ENDBLK
  0
BLOCK
  2
-002-_D2
 70
   64
 10
0
 20
0
 30
0
  0
LINE
  8
_0-9_寸法線層１
  6
CONTINUOUS
 62
    7
 10
350
 20
215
 11
350
 21
155
  0
TEXT
  8
_0-9_寸法線層１
 62
    7
 10
349
 20
183.11177143234622
 40
3
 41
1
 50
90
  1
60
  0
LINE
  8
_0-9_寸法線層１
  6
CONTINUOUS
 62
    7
 10
343
 20
215
 11
352
 21
215
  0
LINE
  8
_0-9_寸法線層１
  6
CONTINUOUS
 62
    7
 10
343
 20
155
 11
352
 21
155
  0
ENDBLK
  0
BLOCK
  2
-003-_D3
 70
   64
 10
0
 20
0
 30
0
  0
LINE
  8
_0-9_寸法線層１
  6
CONTINUOUS
 62
    7
 10
44.5
 20
270
 11
120.5
 21
270
  0
TEXT
  8
_0-9_寸法線層１
 62
    7
 10
80.611771432346217
 20
271
 40
3
 41
1
 50
0
  1
76
  0
LINE
  8
_0-9_寸法線層１
  6
CONTINUOUS
 62
    7
 10
44.5
 20
254.50000000722486
 11
44.5
 21
272
  0
LINE
  8
_0-9_寸法線層１
  6
CONTINUOUS
 62
    7
 10
120.5
 20
254.49999999277537
 11
120.5
 21
272
  0
ENDBLK
  0
BLOCK
  2
-004-_D4
 70
   64
 10
0
 20
0
 30
0
  0
LINE
  8
_0-9_寸法線層１
  6
CONTINUOUS
 62
    7
 10
46.5
 20
262.5
 11
118.5
 21
262.5
  0
TEXT
  8
_0-9_寸法線層１
 62
    7
 10
80.611771432346217
 20
263.5
 40
3
 41
1
 50
0
  1
72
  0
LINE
  8
_0-9_寸法線層１
  6
CONTINUOUS
 62
    7
 10
46.5
 20
253.50000000372529
 11
46.5
 21
264.5
  0
LINE
  8
_0-9_寸法線層１
  6
CONTINUOUS
 62
    7
 10
118.5
 20
253.49999999627477
 11
118.5
 21
264.5
  0
ENDBLK
  0
BLOCK
  2
-005-_D5
 70
   64
 10
0
 20
0
 30
0
  0
LINE
  8
_0-9_寸法線層１
  6
CONTINUOUS
 62
    7
 10
137.5
 20
229
 11
137.5
 21
211
  0
TEXT
  8
_0-9_寸法線層１
 62
    7
 10
136.5
 20
218.11177143234622
 40
3
 41
1
 50
90
  1
18
  0
LINE
  8
_0-9_寸法線層１
  6
CONTINUOUS
 62
    7
 10
141.5
 20
229
 11
135.5
 21
229
  0
LINE
  8
_0-9_寸法線層１
  6
CONTINUOUS
 62
    7
 10
141.5
 20
211
 11
135.5
 21
211
  0
ENDBLK
  0
BLOCK
  2
-006-_D6
 70
   64
 10
0
 20
0
 30
0
  0
LINE
  8
_0-9_寸法線層１
  6
CONTINUOUS
 62
    7
 10
52.5
 20
107.5
 11
35
 21
107.5
  0
TEXT
  8
_0-9_寸法線層１
 62
    7
 10
40.361771432346217
 20
108.5
 40
3
 41
1
 50
0
  1
17.5
  0
LINE
  8
_0-9_寸法線層１
  6
CONTINUOUS
 62
    7
 10
52.5
 20
95.5
 11
52.5
 21
109.5
  0
LINE
  8
_0-9_寸法線層１
  6
CONTINUOUS
 62
    7
 10
35
 20
100.5
 11
35
 21
109.5
  0
ENDBLK
  0
BLOCK
  2
-007-_D7
 70
   64
 10
0
 20
0
 30
0
  0
LINE
  8
_0-9_寸法線層１
  6
CONTINUOUS
 62
    7
 10
52.5
 20
107.5
 11
112.5
 21
107.5
  0
TEXT
  8
_0-9_寸法線層１
 62
    7
 10
80.611771432346217
 20
108.5
 40
3
 41
1
 50
0
  1
60
  0
LINE
  8
_0-9_寸法線層１
  6
CONTINUOUS
 62
    7
 10
52.5
 20
95.5
 11
52.5
 21
109.5
  0
LINE
  8
_0-9_寸法線層１
  6
CONTINUOUS
 62
    7
 10
112.5
 20
95.5
 11
112.5
 21
109.5
  0
ENDBLK
  0
BLOCK
  2
-008-_D8
 70
   64
 10
0
 20
0
 30
0
  0
LINE
  8
_0-9_寸法線層１
  6
CONTINUOUS
 62
    7
 10
112.5
 20
107.5
 11
130
 21
107.5
  0
TEXT
  8
_0-9_寸法線層１
 62
    7
 10
117.86177143234622
 20
108.5
 40
3
 41
1
 50
0
  1
17.5
  0
LINE
  8
_0-9_寸法線層１
  6
CONTINUOUS
 62
    7
 10
112.5
 20
95.5
 11
112.5
 21
109.5
  0
LINE
  8
_0-9_寸法線層１
  6
CONTINUOUS
 62
    7
 10
130
 20
100.5
 11
130
 21
109.5
  0
ENDBLK
  0
BLOCK
  2
-009-_D9
 70
   64
 10
0
 20
0
 30
0
  0
LINE
  8
_0-9_寸法線層１
  6
CONTINUOUS
 62
    7
 10
35
 20
115
 11
130
 21
115
  0
TEXT
  8
_0-9_寸法線層１
 62
    7
 10
80.611771432346217
 20
116
 40
3
 41
1
 50
0
  1
95
  0
LINE
  8
_0-9_寸法線層１
  6
CONTINUOUS
 62
    7
 10
35
 20
100.5
 11
35
 21
117
  0
LINE
  8
_0-9_寸法線層１
  6
CONTINUOUS
 62
    7
 10
130
 20
100.5
 11
130
 21
117
  0
ENDBLK
  0
BLOCK
  2
-010-_D10
 70
   64
 10
0
 20
0
 30
0
  0
LINE
  8
_0-9_寸法線層１
  6
CONTINUOUS
 62
    7
 10
177.5
 20
67.5
 11
177.5
 21
16
  0
TEXT
  8
_0-9_寸法線層１
 62
    7
 10
176.5
 20
38.361771432346217
 40
3
 41
1
 50
90
  1
51.5
  0
LINE
  8
_0-9_寸法線層１
  6
CONTINUOUS
 62
    7
 10
168
 20
67.5
 11
179.5
 21
67.5
  0
LINE
  8
_0-9_寸法線層１
  6
CONTINUOUS
 62
    7
 10
168
 20
16
 11
179.5
 21
16
  0
ENDBLK
  0
BLOCK
  2
-011-_D11
 70
   64
 10
0
 20
0
 30
0
  0
LINE
  8
_0-9_寸法線層１
  6
CONTINUOUS
 62
    7
 10
37.5
 20
184
 11
37.5
 21
256
  0
TEXT
  8
_0-9_寸法線層１
 62
    7
 10
36.5
 20
218.11177143234622
 40
3
 41
1
 50
90
  1
72
  0
LINE
  8
_0-9_寸法線層１
  6
CONTINUOUS
 62
    7
 10
46
 20
184
 11
35.5
 21
184
  0
LINE
  8
_0-9_寸法線層１
  6
CONTINUOUS
 62
    7
 10
46
 20
256
 11
35.5
 21
256
  0
ENDBLK
  0
BLOCK
  2
-012-_D12
 70
   64
 10
0
 20
0
 30
0
  0
LINE
  8
_0-9_寸法線層１
  6
CONTINUOUS
 62
    7
 10
165
 20
270
 11
142
 21
270
  0
TEXT
  8
_0-9_寸法線層１
 62
    7
 10
151.61177143234622
 20
271
 40
3
 41
1
 50
0
  1
23
  0
LINE
  8
_0-9_寸法線層１
  6
CONTINUOUS
 62
    7
 10
165
 20
258
 11
165
 21
272
  0
LINE
  8
_0-9_寸法線層１
  6
CONTINUOUS
 62
    7
 10
142
 20
229.5
 11
142
 21
272
  0
ENDBLK
  0
BLOCK
  2
-013-_D13
 70
   64
 10
0
 20
0
 30
0
  0
LINE
  8
_0-9_寸法線層１
  6
CONTINUOUS
 62
    7
 10
165
 20
262.5
 11
149
 21
262.5
  0
TEXT
  8
_0-9_寸法線層１
 62
    7
 10
155.11177143234622
 20
263.5
 40
3
 41
1
 50
0
  1
16
  0
LINE
  8
_0-9_寸法線層１
  6
CONTINUOUS
 62
    7
 10
165
 20
255.50000000000003
 11
165
 21
264.5
  0
LINE
  8
_0-9_寸法線層１
  6
CONTINUOUS
 62
    7
 10
149
 20
255.50000000361243
 11
149
 21
264.5
  0
ENDBLK
  0
BLOCK
  2
-014-_D14
 70
   64
 10
0
 20
0
 30
0
  0
LINE
  8
_0-9_寸法線層１
  6
CONTINUOUS
 62
    7
 10
137.5
 20
100
 11
137.5
 21
80
  0
TEXT
  8
_0-9_寸法線層１
 62
    7
 10
136.5
 20
88.111771432346217
 40
3
 41
1
 50
90
  1
20
  0
LINE
  8
_0-9_寸法線層１
  6
CONTINUOUS
 62
    7
 10
130.5
 20
100
 11
139.5
 21
100
  0
LINE
  8
_0-9_寸法線層１
  6
CONTINUOUS
 62
    7
 10
130.5
 20
80
 11
139.5
 21
80
  0
ENDBLK
  0
BLOCK
  2
-015-_D19
 70
   64
 10
0
 20
0
 30
0
  0
LINE
  8
_0-9_寸法線層１
  6
CONTINUOUS
 62
    7
 10
325
 20
240
 11
325
 21
250
  0
TEXT
  8
_0-9_寸法線層１
 62
    7
 10
324
 20
243.11177143234622
 40
3
 41
1
 50
90
  1
10
  0
LINE
  8
_0-9_寸法線層１
  6
CONTINUOUS
 62
    7
 10
318
 20
240
 11
327
 21
240
  0
LINE
  8
_0-9_寸法線層１
  6
CONTINUOUS
 62
    7
 10
318
 20
250
 11
327
 21
250
  0
ENDBLK
  0
BLOCK
  2
-016-_D21
 70
   64
 10
0
 20
0
 30
0
  0
LINE
  8
_0-9_寸法線層１
  6
CONTINUOUS
 62
    7
 10
217.5
 20
102.5
 11
217.5
 21
82.5
  0
TEXT
  8
_0-9_寸法線層１
 62
    7
 10
216.5
 20
90.611771432346217
 40
3
 41
1
 50
90
  1
20
  0
LINE
  8
_0-9_寸法線層１
  6
CONTINUOUS
 62
    7
 10
234.5
 20
102.5
 11
215.5
 21
102.5
  0
LINE
  8
_0-9_寸法線層１
  6
CONTINUOUS
 62
    7
 10
234.5
 20
82.5
 11
215.5
 21
82.5
  0
ENDBLK
  0
BLOCK
  2
-017-_D22
 70
   64
 10
0
 20
0
 30
0
  0
LINE
  8
_0-9_寸法線層１
  6
CONTINUOUS
 62
    7
 10
222.5
 20
97.5
 11
222.5
 21
87.5
  0
TEXT
  8
_0-9_寸法線層１
 62
    7
 10
221.5
 20
90.611771432346217
 40
3
 41
1
 50
90
  1
10
  0
LINE
  8
_0-9_寸法線層１
  6
CONTINUOUS
 62
    7
 10
227.5
 20
97.5
 11
220.5
 21
97.5
  0
LINE
  8
_0-9_寸法線層１
  6
CONTINUOUS
 62
    7
 10
227.5
 20
87.5
 11
220.5
 21
87.5
  0
ENDBLK
  0
BLOCK
  2
-019-_D24
 70
   64
 10
0
 20
0
 30
0
  0
LINE
  8
_0-9_寸法線層１
  6
CONTINUOUS
 62
    7
 10
241
 20
112.5
 11
324
 21
112.5
  0
TEXT
  8
_0-9_寸法線層１
 62
    7
 10
280.61177143234625
 20
113.5
 40
3
 41
1
 50
0
  1
83
  0
LINE
  8
_0-9_寸法線層１
  6
CONTINUOUS
 62
    7
 10
241
 20
93.000000000000014
 11
241
 21
114.5
  0
LINE
  8
_0-9_寸法線層１
  6
CONTINUOUS
 62
    7
 10
324
 20
93
 11
324
 21
114.5
  0
ENDBLK
  0
ENDSEC
  0
SECTION
  2
ENTITIES
  0
TEXT
  8
_0-7_注記層１
 62
    7
 10
239.625
 20
-15.5
 40
3.5
 41
1
 50
0
  1
1/1
  0
TEXT
  8
_0-7_注記層１
 62
    7
 10
273.75
 20
-13
 40
3.5
 41
1
 50
0
  1
承認
  0
TEXT
  8
_0-7_注記層１
 62
    7
 10
212.25
 20
-26.25
 40
5
 41
1
 50
0
  1
スナオ電気株式会社
  0
LINE
  8
_0-1_作画層１
  6
CONTINUOUS
 62
    7
 10
207.25
 20
-8.75
 11
207.25
 21
-28.75
  0
LINE
  8
_0-1_作画層１
  6
CONTINUOUS
 62
    7
 10
232.25
 20
-8.75
 11
232.25
 21
-18.75
  0
LINE
  8
_0-1_作画層１
  6
CONTINUOUS
 62
    7
 10
252.25
 20
-8.75
 11
252.25
 21
-18.75
  0
LINE
  8
_0-1_作画層１
  6
CONTINUOUS
 62
    7
 10
272.25
 20
-8.75
 11
272.25
 21
-18.75
  0
LINE
  8
_0-1_作画層１
  6
CONTINUOUS
 62
    7
 10
297.25
 20
-28.75
 11
297.25
 21
-8.75
  0
LINE
  8
_0-1_作画層１
  6
CONTINUOUS
 62
    7
 10
352.25
 20
248.75
 11
-45.25
 21
248.75
  0
LINE
  8
_0-1_作画層１
  6
CONTINUOUS
 62
    7
 10
-45.25
 20
-28.75
 11
-45.25
 21
248.75
  0
LINE
  8
_0-1_作画層１
  6
CONTINUOUS
 62
    7
 10
352.25
 20
-28.75
 11
-45.25
 21
-28.75
  0
LINE
  8
_0-1_作画層１
  6
CONTINUOUS
 62
    7
 10
352.25
 20
-8.75
 11
207.25
 21
-8.75
  0
LINE
  8
_0-1_作画層１
  6
CONTINUOUS
 62
    7
 10
352.25
 20
-18.75
 11
207.25
 21
-18.75
  0
LINE
  8
_0-1_作画層１
  6
CONTINUOUS
 62
    7
 10
352.25
 20
-28.75
 11
352.25
 21
248.75
  0
TEXT
  8
_0-7_注記層１
 62
    7
 10
257
 20
-15.5
 40
3.5
 41
1
 50
0
  1
ゴトウ
  0
CIRCLE
  8
_0-1_作画層１
  6
CONTINUOUS
 62
    7
 10
201.25
 20
206.25
 40
1.75
  0
LINE
  8
_0-5_基準線層１
  6
DASHDOT
 62
    7
 10
196.5
 20
206.25
 11
206
 21
206.25
  0
LINE
  8
_0-5_基準線層１
  6
DASHDOT
 62
    7
 10
201.25000000000006
 20
211
 11
201.25
 21
201.5
  0
CIRCLE
  8
_0-1_作画層１
  6
CONTINUOUS
 62
    7
 10
253.25
 20
206.25
 40
1.75
  0
LINE
  8
_0-5_基準線層１
  6
DASHDOT
 62
    7
 10
258
 20
206.25
 11
248.5
 21
206.25
  0
LINE
  8
_0-5_基準線層１
  6
DASHDOT
 62
    7
 10
253.25
 20
211
 11
253.25
 21
201.5
  0
INSERT
  2
-001-_D1
  8
_0-9_寸法線層１
 10
-55.25
 20
-38.75
 41
1
 42
1
 50
0
  0
CIRCLE
  8
_0-1_作画層１
  6
CONTINUOUS
 62
    7
 10
-5.25
 20
241.25
 40
3.5355339059327378
  0
TEXT
  8
_0-7_注記層１
 62
    7
 10
-7
 20
237.75
 40
7
 41
1
 50
0
  1
A
  0
LINE
  8
_0-1_作画層１
  6
CENTER
 62
    7
 10
70.25
 20
181.25
 11
-15.75
 21
181.25
  0
LINE
  8
_0-1_作画層１
  6
CENTER
 62
    7
 10
27.25
 20
220.25
 11
27.25
 21
142.25
  0
LINE
  8
_0-1_作画層１
  6
CONTINUOUS
 62
    7
 10
59.25
 20
190.25
 11
59.25
 21
172.25
  0
LINE
  8
_0-1_作画層１
  6
CONTINUOUS
 62
    7
 10
63.25
 20
161.25
 11
60.549999999999997
 21
161.25
  0
LINE
  8
_0-1_作画層１
  6
CONTINUOUS
 62
    7
 10
60.549999999999997
 20
172.25
 11
60.549999999999997
 21
161.25
  0
LINE
  8
_0-1_作画層１
  6
CONTINUOUS
 62
    7
 10
63.25
 20
201.25
 11
60.549999999999997
 21
201.25
  0
LINE
  8
_0-1_作画層１
  6
CONTINUOUS
 62
    7
 10
60.549999999999997
 20
190.25
 11
60.549999999999997
 21
201.25
  0
LINE
  8
_0-1_作画層１
  6
CONTINUOUS
 62
    7
 10
-4.75
 20
190.25
 11
-4.75
 21
172.25
  0
LINE
  8
_0-1_作画層１
  6
CONTINUOUS
 62
    7
 10
-8.75
 20
161.25
 11
-6.0500000000000114
 21
161.25
  0
LINE
  8
_0-1_作画層１
  6
CONTINUOUS
 62
    7
 10
-6.0500000000000114
 20
172.25
 11
-6.0500000000000114
 21
161.25
  0
LINE
  8
_0-1_作画層１
  6
CONTINUOUS
 62
    7
 10
-8.75
 20
201.25
 11
-6.0500000000000114
 21
201.25
  0
LINE
  8
_0-1_作画層１
  6
CONTINUOUS
 62
    7
 10
-6.0500000000000114
 20
190.25
 11
-6.0500000000000114
 21
201.25
  0
LINE
  8
_0-1_作画層１
  6
CONTINUOUS
 62
    7
 10
63.25
 20
172.25
 11
59.25
 21
172.25
  0
LINE
  8
_0-1_作画層１
  6
CONTINUOUS
 62
    7
 10
63.25
 20
190.25
 11
59.25
 21
190.25
  0
LINE
  8
_0-1_作画層１
  6
CONTINUOUS
 62
    7
 10
-8.75
 20
190.25
 11
-4.75
 21
190.25
  0
LINE
  8
_0-1_作画層１
  6
CONTINUOUS
 62
    7
 10
-8.75
 20
172.25
 11
-4.75
 21
172.25
  0
LINE
  8
_0-1_作画層１
  6
CONTINUOUS
 62
    7
 10
86.75
 20
172.25
 11
86.75
 21
190.25
  0
LINE
  8
_0-1_作画層１
  6
CONTINUOUS
 62
    7
 10
93.75
 20
190.25
 11
86.75
 21
190.25
  0
LINE
  8
_0-1_作画層１
  6
CONTINUOUS
 62
    7
 10
93.75
 20
172.25
 11
86.75
 21
172.25
  0
LINE
  8
_0-1_作画層１
  6
CONTINUOUS
 62
    7
 10
109.75
 20
190.25
 11
101.75
 21
190.25
  0
LINE
  8
_0-1_作画層１
  6
CONTINUOUS
 62
    7
 10
109.75
 20
172.25
 11
109.75
 21
190.25
  0
LINE
  8
_0-1_作画層１
  6
CONTINUOUS
 62
    7
 10
109.75
 20
172.25
 11
101.75
 21
172.25
  0
LINE
  8
_0-1_作画層１
  6
CONTINUOUS
 62
    7
 10
101.75
 20
172.25
 11
101.75
 21
161.25
  0
LINE
  8
_0-1_作画層１
  6
CONTINUOUS
 62
    7
 10
101.75
 20
190.25
 11
101.75
 21
201.25
  0
LINE
  8
_0-1_作画層１
  6
CONTINUOUS
 62
    7
 10
109.75
 20
172.25
 11
101.75
 21
172.25
  0
LINE
  8
_0-1_作画層１
  6
CONTINUOUS
 62
    7
 10
109.75
 20
190.25
 11
109.75
 21
172.25
  0
LINE
  8
_0-1_作画層１
  6
CONTINUOUS
 62
    7
 10
101.75
 20
172.25
 11
101.75
 21
161.25
  0
LINE
  8
_0-1_作画層１
  6
DOT_18
 62
    7
 10
93.75
 20
161.25
 11
95.75
 21
161.25
  0
LINE
  8
_0-1_作画層１
  6
DOT_18
 62
    7
 10
93.75
 20
201.25
 11
95.75
 21
201.25
  0
LINE
  8
_0-1_作画層１
  6
DOT_18
 62
    7
 10
95.75
 20
201.25
 11
95.75
 21
161.25
  0
ARC
  8
_0-1_作画層１
  6
CONTINUOUS
 62
    7
 10
-8.75
 20
147.24999999999997
 40
1.9999999999999858
 50
179.99999999999918
 51
270.0000000000004
  0
LINE
  8
_0-1_作画層１
  6
CONTINUOUS
 62
    7
 10
-8.75
 20
145.25
 11
63.25
 21
145.25
  0
ARC
  8
_0-1_作画層１
  6
CONTINUOUS
 62
    7
 10
63.250000000000028
 20
147.24999999999997
 40
1.9999999999999716
 50
269.9999999999992
 51
0.0000000000007887
  0
ARC
  8
_0-1_作画層１
  6
CONTINUOUS
 62
    7
 10
-7.75
 20
148.25
 40
0.9999999999999856
 50
180
 51
270.0000000000008
  0
LINE
  8
_0-1_作画層１
  6
CONTINUOUS
 62
    7
 10
-7.75
 20
147.25
 11
62.25
 21
147.25
  0
ARC
  8
_0-1_作画層１
  6
CONTINUOUS
 62
    7
 10
62.250000000000014
 20
148.24999999999997
 40
0.9999999999999714
 50
269.9999999999992
 51
0.0000000000016284
  0
ARC
  8
_0-1_作画層１
  6
CONTINUOUS
 62
    7
 10
-8.75
 20
215.25000000000003
 40
1.9999999999999858
 50
89.999999999999588
 51
180.0000000000008
  0
LINE
  8
_0-1_作画層１
  6
CONTINUOUS
 62
    7
 10
-8.75
 20
217.25
 11
63.25
 21
217.25
  0
ARC
  8
_0-1_作画層１
  6
CONTINUOUS
 62
    7
 10
63.250000000000028
 20
215.25000000000003
 40
1.9999999999999716
 50
359.9999999999992
 51
90.000000000000782
  0
ARC
  8
_0-1_作画層１
  6
CONTINUOUS
 62
    7
 10
-7.75
 20
214.25
 40
1
 50
89.99999999999919
 51
180
  0
LINE
  8
_0-1_作画層１
  6
CONTINUOUS
 62
    7
 10
-7.75
 20
215.25
 11
62.25
 21
215.25
  0
ARC
  8
_0-1_作画層１
  6
CONTINUOUS
 62
    7
 10
62.250000000000014
 20
214.25000000000003
 40
0.9999999999999856
 50
359.99999999999835
 51
90.00000000000081
  0
ARC
  8
_0-1_作画層１
  6
CONTINUOUS
 62
    7
 10
108.75000000000003
 20
216.25000000000003
 40
0.9999999999999714
 50
359.99999999999835
 51
90.000000000001663
  0
LINE
  8
_0-1_作画層１
  6
CONTINUOUS
 62
    7
 10
108.75
 20
217.25
 11
94.75
 21
217.25
  0
ARC
  8
_0-1_作画層１
  6
CONTINUOUS
 62
    7
 10
94.749999999999972
 20
216.25000000000003
 40
0.9999999999999714
 50
89.99999999999838
 51
180.00000000000162
  0
ARC
  8
_0-1_作画層１
  6
CONTINUOUS
 62
    7
 10
108.75000000000003
 20
146.24999999999997
 40
0.9999999999999714
 50
269.99999999999835
 51
0.0000000000016666
  0
LINE
  8
_0-1_作画層１
  6
CONTINUOUS
 62
    7
 10
108.75
 20
145.25
 11
94.75
 21
145.25
  0
ARC
  8
_0-1_作画層１
  6
CONTINUOUS
 62
    7
 10
94.749999999999972
 20
146.24999999999997
 40
0.9999999999999714
 50
179.99999999999838
 51
270.00000000000159
  0
LINE
  8
_0-1_作画層１
  6
CONTINUOUS
 62
    7
 10
93.75
 20
146.25000000350616
 11
93.75
 21
216.25000000361243
  0
LINE
  8
_0-1_作画層１
  6
CONTINUOUS
 62
    7
 10
65.25
 20
215.24999999277537
 11
65.25
 21
147.24900828867314
  0
LINE
  8
_0-1_作画層１
  6
CONTINUOUS
 62
    7
 10
63.25
 20
214.24999999627477
 11
63.25
 21
148.24929841300687
  0
LINE
  8
_0-1_作画層１
  6
CONTINUOUS
 62
    7
 10
-8.75
 20
214.25000000372529
 11
-8.75
 21
148.25000000384546
  0
LINE
  8
_0-1_作画層１
  6
CONTINUOUS
 62
    7
 10
-10.75
 20
215.25000000722486
 11
-10.75
 21
147.25000000745055
  0
INSERT
  2
-003-_D3
  8
_0-9_寸法線層１
 10
-55.25
 20
-38.75
 41
1
 42
1
 50
0
  0
INSERT
  2
-004-_D4
  8
_0-9_寸法線層１
 10
-55.25
 20
-38.75
 41
1
 42
1
 50
0
  0
ARC
  8
_0-1_作画層１
  6
CONTINUOUS
 62
    7
 10
-8.75
 20
106.74999999999997
 40
1.9999999999999858
 50
179.99999999999918
 51
270.0000000000004
  0
LINE
  8
_0-1_作画層１
  6
CONTINUOUS
 62
    7
 10
-8.75
 20
104.75
 11
63.25
 21
104.75
  0
ARC
  8
_0-1_作画層１
  6
CONTINUOUS
 62
    7
 10
63.250000000000028
 20
106.74999999999997
 40
1.9999999999999716
 50
269.9999999999992
 51
0.0000000000007887
  0
LINE
  8
_0-1_作画層１
  6
CONTINUOUS
 62
    7
 10
-10.75
 20
127.75
 11
-10.75
 21
106.75
  0
LINE
  8
_0-1_作画層１
  6
CONTINUOUS
 62
    7
 10
-4.75
 20
127.75
 11
-10.75
 21
127.75
  0
LINE
  8
_0-1_作画層１
  6
CONTINUOUS
 62
    7
 10
-8.75
 20
125.44059892324151
 11
-8.75
 21
120.75
  0
LINE
  8
_0-1_作画層１
  6
CONTINUOUS
 62
    7
 10
-8.75
 20
125.44059892324151
 11
-4.75
 21
127.75
  0
LINE
  8
_0-1_作画層１
  6
DOT_18
 62
    7
 10
-4.75
 20
118.75
 11
-8.75
 21
118.75
  0
LINE
  8
_0-1_作画層１
  6
DOT_18
 62
    7
 10
-4.75
 20
118.75
 11
-4.75
 21
120.75
  0
LINE
  8
_0-1_作画層１
  6
CONTINUOUS
 62
    7
 10
65.250000000000028
 20
127.75
 11
65.250000000000028
 21
106.75
  0
LINE
  8
_0-1_作画層１
  6
CONTINUOUS
 62
    7
 10
59.250000000000028
 20
127.75
 11
65.250000000000028
 21
127.75
  0
LINE
  8
_0-1_作画層１
  6
CONTINUOUS
 62
    7
 10
63.250000000000028
 20
125.44059892324151
 11
63.250000000000028
 21
120.75
  0
LINE
  8
_0-1_作画層１
  6
CONTINUOUS
 62
    7
 10
63.250000000000014
 20
125.44059892324151
 11
59.250000000000028
 21
127.75
  0
LINE
  8
_0-1_作画層１
  6
CONTINUOUS
 62
    7
 10
-8.75
 20
120.75
 11
63.250000000000028
 21
120.75
  0
LINE
  8
_0-1_作画層１
  6
DOT_18
 62
    7
 10
59.250000000000028
 20
118.75
 11
63.250000000000028
 21
118.75
  0
LINE
  8
_0-1_作画層１
  6
DOT_18
 62
    7
 10
59.250000000000028
 20
118.75
 11
59.250000000000028
 21
120.75
  0
LINE
  8
_0-1_作画層１
  6
DOT_18
 62
    7
 10
-8.75
 20
118.75
 11
-8.75
 21
104.75
  0
LINE
  8
_0-1_作画層１
  6
DOT_18
 62
    7
 10
63.250000000000028
 20
118.75
 11
63.250000000000028
 21
104.75
  0
LINE
  8
_0-1_作画層１
  6
CENTER
 62
    7
 10
27.25
 20
130.25
 11
27.25
 21
96.25
  0
INSERT
  2
-005-_D5
  8
_0-9_寸法線層１
 10
-55.25
 20
-38.75
 41
1
 42
1
 50
0
  0
LINE
  8
_0-1_作画層１
  6
CENTER
 62
    7
 10
84.75
 20
181.25
 11
112.25
 21
181.25
  0
LINE
  8
_0-1_作画層１
  6
CONTINUOUS
 62
    7
 10
109.75
 20
155.25000000000003
 11
109.75
 21
146.24921030758367
  0
LINE
  8
_0-1_作画層１
  6
CONTINUOUS
 62
    7
 10
109.75
 20
155.25000000000003
 11
101.75
 21
161.25
  0
LINE
  8
_0-1_作画層１
  6
CONTINUOUS
 62
    7
 10
109.75
 20
207.25
 11
109.75
 21
216.25000000000003
  0
LINE
  8
_0-1_作画層１
  6
CONTINUOUS
 62
    7
 10
109.75
 20
207.25
 11
101.75
 21
201.25
  0
CIRCLE
  8
_0-1_作画層１
  6
CONTINUOUS
 62
    7
 10
194.75
 20
241.25
 40
3.5355339059327378
  0
TEXT
  8
_0-7_注記層１
 62
    7
 10
193
 20
237.75
 40
7
 41
1
 50
0
  1
B
  0
CIRCLE
  8
_0-1_作画層１
  6
CONTINUOUS
 62
    7
 10
-5.25
 20
86.25
 40
3.5355339059327378
  0
TEXT
  8
_0-7_注記層１
 62
    7
 10
-7
 20
82.75
 40
7
 41
1
 50
0
  1
C
  0
LINE
  8
_0-1_作画層１
  6
CONTINUOUS
 62
    7
 10
-20.25
 20
41.25
 11
74.75
 21
41.25
  0
LINE
  8
_0-1_作画層１
  6
CONTINUOUS
 62
    7
 10
74.75
 20
41.25
 11
74.75
 21
61.25
  0
LINE
  8
_0-1_作画層１
  6
CONTINUOUS
 62
    7
 10
-20.25
 20
61.25
 11
-20.25
 21
41.25
  0
LINE
  8
_0-1_作画層１
  6
CONTINUOUS
 62
    7
 10
-20.25
 20
61.25
 11
74.75
 21
61.25
  0
LINE
  8
_0-1_作画層１
  6
CENTER
 62
    7
 10
27.25
 20
36.25
 11
27.25
 21
66.25
  0
CIRCLE
  8
_0-1_作画層１
  6
CONTINUOUS
 62
    7
 10
57.249999999999943
 20
51.25
 40
1.75
  0
LINE
  8
_0-5_基準線層１
  6
DASHDOT
 62
    7
 10
57.25
 20
56
 11
57.249999999999943
 21
46.5
  0
CIRCLE
  8
_0-1_作画層１
  6
CONTINUOUS
 62
    7
 10
-2.7499999999999432
 20
51.25
 40
1.75
  0
LINE
  8
_0-5_基準線層１
  6
DASHDOT
 62
    7
 10
-2.75
 20
56
 11
-2.7499999999999432
 21
46.5
  0
INSERT
  2
-006-_D6
  8
_0-9_寸法線層１
 10
-55.25
 20
-38.75
 41
1
 42
1
 50
0
  0
INSERT
  2
-007-_D7
  8
_0-9_寸法線層１
 10
-55.25
 20
-38.75
 41
1
 42
1
 50
0
  0
INSERT
  2
-008-_D8
  8
_0-9_寸法線層１
 10
-55.25
 20
-38.75
 41
1
 42
1
 50
0
  0
INSERT
  2
-009-_D9
  8
_0-9_寸法線層１
 10
-55.25
 20
-38.75
 41
1
 42
1
 50
0
  0
LINE
  8
_0-1_作画層１
  6
CONTINUOUS
 62
    7
 10
-20.25
 20
28.75
 11
74.75
 21
28.75
  0
LINE
  8
_0-1_作画層１
  6
CONTINUOUS
 62
    7
 10
-20.25
 20
-22.75
 11
-20.25
 21
28.75
  0
LINE
  8
_0-1_作画層１
  6
CONTINUOUS
 62
    7
 10
74.75
 20
-22.75
 11
74.75
 21
28.75
  0
LINE
  8
_0-1_作画層１
  6
CONTINUOUS
 62
    7
 10
112.25
 20
-22.75
 11
112.25
 21
28.75
  0
LINE
  8
_0-1_作画層１
  6
CONTINUOUS
 62
    7
 10
92.25
 20
-22.75
 11
92.25
 21
28.75
  0
LINE
  8
_0-1_作画層１
  6
CONTINUOUS
 62
    7
 10
92.25
 20
28.75
 11
112.25
 21
28.75
  0
LINE
  8
_0-1_作画層１
  6
CONTINUOUS
 62
    7
 10
92.25
 20
-22.75
 11
112.25
 21
-22.75
  0
LINE
  8
_0-5_基準線層１
  6
DASHDOT
 62
    7
 10
102.25
 20
31
 11
102.25000000000006
 21
23.749999999999986
  0
INSERT
  2
-010-_D10
  8
_0-9_寸法線層１
 10
-55.25
 20
-38.75
 41
1
 42
1
 50
0
  0
INSERT
  2
-011-_D11
  8
_0-9_寸法線層１
 10
-55.25
 20
-38.75
 41
1
 42
1
 50
0
  0
INSERT
  2
-012-_D12
  8
_0-9_寸法線層１
 10
-55.25
 20
-38.75
 41
1
 42
1
 50
0
  0
INSERT
  2
-013-_D13
  8
_0-9_寸法線層１
 10
-55.25
 20
-38.75
 41
1
 42
1
 50
0
  0
TEXT
  8
_0-7_注記層１
 62
    7
 10
7.25
 20
84.75
 40
3
 41
1
 50
0
  1
SSC-916M
  0
INSERT
  2
-014-_D14
  8
_0-9_寸法線層１
 10
-55.25
 20
-38.75
 41
1
 42
1
 50
0
  0
CIRCLE
  8
_0-1_作画層１
  6
DOT_18
 62
    7
 10
-2.75
 20
51.25
 40
3.5999999999999996
  0
CIRCLE
  8
_0-1_作画層１
  6
DOT_18
 62
    7
 10
57.25
 20
51.25
 40
3.5999999999999996
  0
LINE
  8
_0-7_注記層１
  6
CONTINUOUS
 62
    7
 10
-2.75
 20
18.75
 11
-1.20143614920147
 21
16.055923163679253
  0
LINE
  8
_0-1_作画層１
  6
DOT_18
 62
    7
 10
193.25
 20
211.25
 11
193.25
 21
201.25
  0
LINE
  8
_0-1_作画層１
  6
DOT_18
 62
    7
 10
261.25
 20
201.25
 11
261.25
 21
211.25
  0
CIRCLE
  8
_0-1_作画層１
  6
DOT_18
 62
    7
 10
201.25
 20
206.25000000000003
 40
2.625
  0
CIRCLE
  8
_0-1_作画層１
  6
DOT_18
 62
    7
 10
253.25
 20
206.25000000000003
 40
2.625
  0
LINE
  8
_0-1_作画層１
  6
CONTINUOUS
 62
    7
 10
227.25
 20
196.25
 11
227.25
 21
216.25
  0
INSERT
  2
-015-_D19
  8
_0-9_寸法線層１
 10
-55.25
 20
-38.75
 41
1
 42
1
 50
0
  0
LINE
  8
_0-5_基準線層１
  6
DASHDOT
 62
    7
 10
57.25
 20
30.549999999999997
 11
57.250000000000043
 21
24.749999999999986
  0
LINE
  8
_0-1_作画層１
  6
CONTINUOUS
 62
    7
 10
54.049999999999997
 20
28.75
 11
60.450000000000003
 21
28.75
  0
ARC
  8
_0-1_作画層１
  6
DOT_18
 62
    7
 10
57.250000000000028
 20
28.749999999999972
 40
3.2000000000000313
 50
90.000000000000526
 51
179.99999999999949
  0
ARC
  8
_0-1_作画層１
  6
DOT_18
 62
    7
 10
57.249999999999972
 20
28.749999999999972
 40
3.2000000000000313
 50
0.0000000000005089
 51
89.999999999999503
  0
LINE
  8
_0-5_基準線層１
  6
DASHDOT
 62
    7
 10
57.25
 20
30.549999999999997
 11
57.250000000000043
 21
24.749999999999986
  0
LINE
  8
_0-1_作画層１
  6
CONTINUOUS
 62
    7
 10
-5.9499999999999886
 20
28.75
 11
0.4499999999999886
 21
28.75
  0
ARC
  8
_0-1_作画層１
  6
DOT_18
 62
    7
 10
-2.75
 20
28.749999999999986
 40
3.2000000000000171
 50
90.000000000000256
 51
179.99999999999974
  0
ARC
  8
_0-1_作画層１
  6
DOT_18
 62
    7
 10
-2.7500000000000284
 20
28.749999999999972
 40
3.2000000000000313
 50
0.0000000000005089
 51
89.999999999999602
  0
LINE
  8
_0-5_基準線層１
  6
DASHDOT
 62
    7
 10
-2.75
 20
30.549999999999997
 11
-2.7499999999999432
 21
24.749999999999986
  0
TEXT
  8
_0-7_注記層１
 62
    7
 10
207.25
 20
242.25
 40
3
 41
1
 50
0
  1
SSC-712M
  0
TEXT
  8
_0-7_注記層１
 62
    7
 10
207.25
 20
239.25
 40
3
 41
1
 50
0
  1
SSC-722M
  0
TEXT
  8
_0-7_注記層１
 62
    7
 10
282.25
 20
-16.25
 40
4
 41
1
 50
0
  1
平野
  0
TEXT
  8
_0-7_注記層１
 62
    7
 10
7.25
 20
242.25
 40
3
 41
1
 50
0
  1
ETS-703P   ST-702P
  0
TEXT
  8
_0-7_注記層１
 62
    7
 10
7.25
 20
239.25
 40
3
 41
1
 50
0
  1
SSC-502P　　　　　　ゴムパッキン付属
  0
LINE
  8
_0-9_寸法線層１
  6
CONTINUOUS
 62
    7
 10
201.25000000000006
 20
218.75
 11
253.25
 21
218.75
  0
TEXT
  8
_0-9_寸法線層１
 62
    7
 10
225.36177143234625
 20
219.75
 40
3
 41
1
 50
0
  1
52
  0
LINE
  8
_0-9_寸法線層１
  6
CONTINUOUS
 62
    7
 10
201.25000000000006
 20
211.5
 11
201.25000000000006
 21
220.75
  0
LINE
  8
_0-9_寸法線層１
  6
CONTINUOUS
 62
    7
 10
193.25000000000006
 20
211.5
 11
193.25000000000006
 21
220.75
  0
TEXT
  8
_0-9_寸法線層１
 62
    7
 10
196.36177143234625
 20
219.75
 40
3
 41
1
 50
0
  1
8
  0
LINE
  8
_0-9_寸法線層１
  6
CONTINUOUS
 62
    7
 10
253.25
 20
202
 11
253.25
 21
220.75
  0
LINE
  8
_0-9_寸法線層１
  6
CONTINUOUS
 62
    7
 10
261.25
 20
211.5
 11
261.25
 21
220.75
  0
TEXT
  8
_0-9_寸法線層１
 62
    7
 10
256.36177143234625
 20
219.75
 40
3
 41
1
 50
0
  1
8
  0
LINE
  8
_0-9_寸法線層１
  6
CONTINUOUS
 62
    7
 10
193.25000000000006
 20
218.75
 11
201.25000000000006
 21
218.75
  0
LINE
  8
_0-9_寸法線層１
  6
CONTINUOUS
 62
    7
 10
261.25
 20
218.75
 11
253.25
 21
218.75
  0
TEXT
  8
_0-9_寸法線層１
 62
    7
 10
223.36177143234625
 20
227.25
 40
3
 41
1
 50
0
  1
70.4
  0
LINE
  8
_0-1_作画層１
  6
CONTINUOUS
 62
    7
 10
192.05000000000001
 20
211.25
 11
192.05000000000001
 21
201.25
  0
LINE
  8
_0-9_寸法線層１
  6
CONTINUOUS
 62
    7
 10
192.05000000000001
 20
211.75
 11
192.05000000000001
 21
220.75
  0
LINE
  8
_0-9_寸法線層１
  6
CONTINUOUS
 62
    7
 10
192.05000000000001
 20
211.75
 11
192.05000000000001
 21
228.25
  0
LINE
  8
_0-1_作画層１
  6
CONTINUOUS
 62
    7
 10
262.44999999999999
 20
201.25
 11
262.44999999999999
 21
211.25
  0
LINE
  8
_0-9_寸法線層１
  6
CONTINUOUS
 62
    7
 10
262.44999999999999
 20
211.75
 11
262.44999999999999
 21
220.75
  0
LINE
  8
_0-9_寸法線層１
  6
CONTINUOUS
 62
    7
 10
262.44999999999999
 20
211.75
 11
262.44999999999999
 21
228.25
  0
LINE
  8
_0-1_作画層１
  6
CONTINUOUS
 62
    7
 10
262.44999999999999
 20
211.25
 11
192.05000000000001
 21
211.25
  0
LINE
  8
_0-1_作画層１
  6
CONTINUOUS
 62
    7
 10
262.44999999999999
 20
201.25
 11
192.05000000000001
 21
201.25
  0
LINE
  8
_0-9_寸法線層１
  6
CONTINUOUS
 62
    7
 10
192.05000000000001
 20
226.25
 11
262.44999999999999
 21
226.25
  0
TEXT
  8
_0-0_BaseLayer
 62
    7
 10
22.484315947514958
 20
-16.317479696568398
 40
3
 41
1
 50
0
  1
t=1.6
  0
LINE
  8
_0-1_作画層１
  6
DOT_18
 62
    7
 10
-18.650000000000006
 20
61.25
 11
-18.650000000000006
 21
41.25
  0
LINE
  8
_0-1_作画層１
  6
DOT_18
 62
    7
 10
73.150000000000006
 20
41.25
 11
73.150000000000006
 21
61.25
  0
LINE
  8
_0-1_作画層１
  6
DOT_18
 62
    7
 10
56.609999999999985
 20
22.75
 11
57.890000000000015
 21
22.75
  0
LINE
  8
_0-1_作画層１
  6
DOT_18
 62
    7
 10
55.244666666666674
 20
27.870000000000005
 11
56.609999999999985
 21
22.75
  0
LINE
  8
_0-1_作画層１
  6
DOT_18
 62
    7
 10
59.255333333333326
 20
27.870000000000005
 11
57.890000000000015
 21
22.75
  0
LINE
  8
_0-1_作画層１
  6
DOT_18
 62
    7
 10
-3.3899999999999864
 20
22.75
 11
-2.1100000000000136
 21
22.75
  0
LINE
  8
_0-1_作画層１
  6
DOT_18
 62
    7
 10
-4.6700000000000159
 20
27.550000000000011
 11
-3.3899999999999864
 21
22.75
  0
LINE
  8
_0-1_作画層１
  6
DOT_18
 62
    7
 10
-0.8300000000000125
 20
27.550000000000011
 11
-2.1100000000000136
 21
22.75
  0
LINE
  8
_0-1_作画層１
  6
CONTINUOUS
 62
    7
 10
-18.650000000000006
 20
27.150000000000006
 11
-18.650000000000006
 21
-22.75
  0
LINE
  8
_0-1_作画層１
  6
CONTINUOUS
 62
    7
 10
73.150000000000006
 20
27.150000000000006
 11
73.150000000000006
 21
-22.75
  0
LINE
  8
_0-1_作画層１
  6
CONTINUOUS
 62
    7
 10
-18.650000000000006
 20
27.150000000000006
 11
73.150000000000006
 21
27.150000000000006
  0
LINE
  8
_0-1_作画層１
  6
CONTINUOUS
 62
    7
 10
-18.650000000000006
 20
-22.75
 11
-20.25
 21
-22.75
  0
LINE
  8
_0-1_作画層１
  6
CONTINUOUS
 62
    7
 10
73.150000000000006
 20
-22.75
 11
74.75
 21
-22.75
  0
LINE
  8
_0-1_作画層１
  6
DOT_18
 62
    7
 10
92.25
 20
27.150000000000006
 11
112.25
 21
27.150000000000006
  0
TEXT
  8
_0-7_注記層１
 62
    7
 10
7.25
 20
9.75
 40
3
 41
1
 50
0
  1
M2.6×8　ﾀｯﾋﾟﾝｸﾞﾋﾞｽ（2本付属）
  0
LINE
  8
_0-0_BaseLayer
  6
CONTINUOUS
 62
    7
 10
7.25
 20
8.75
 11
51.855036574316983
 21
8.75
  0
LINE
  8
_0-0_BaseLayer
  6
CONTINUOUS
 62
    7
 10
-2.75
 20
18.75
 11
-0.0559231636792389
 21
17.20143614920147
  0
LINE
  8
_0-0_BaseLayer
  6
CONTINUOUS
 62
    7
 10
7.25
 20
8.75
 11
-2.75
 21
18.75
  0
TEXT
  8
_0-7_注記層１
 62
    7
 10
302.25
 20
-26.25
 40
5
 41
1
 50
0
  1
ATTACH-001-02
  0
TEXT
  8
_0-7_注記層１
 62
    7
 10
211
 20
-15.5
 40
3.5
 41
1
 50
0
  1
2020.04.20
  0
TEXT
  8
_0-7_注記層１
 62
    7
 10
302.25
 20
-15.5
 40
3.5
 41
1
 50
0
  1
取付け具図１
  0
TEXT
  8
_0-0_BaseLayer
 62
    7
 10
93.580052967536062
 20
110.36700307459841
 40
3
 41
1
 50
0
  1
t=2.0
  0
LINE
  8
_0-1_作画層１
  6
CONTINUOUS
 62
    7
 10
278.25
 20
121.25
 11
288.25
 21
121.25
  0
TEXT
  8
_0-0_BaseLayer
 62
    7
 10
224.56561482594543
 20
129.77460555972954
 40
3
 41
1
 50
0
  1
t=1.2
  0
LINE
  8
_0-1_作画層１
  6
CONTINUOUS
 62
    7
 10
261.25
 20
181.25
 11
193.25
 21
181.25
  0
LINE
  8
_0-7_注記層１
  6
CONTINUOUS
 62
    7
 10
202.25
 20
173.25
 11
204.94407683632073
 21
171.70143614920147
  0
LINE
  8
_0-7_注記層１
  6
CONTINUOUS
 62
    7
 10
202.25
 20
173.25
 11
203.79856385079853
 21
170.55592316367927
  0
LINE
  8
_0-1_作画層１
  6
DOT_18
 62
    7
 10
288.25
 20
181.25
 11
278.25
 21
181.25
  0
LINE
  8
_0-5_基準線層１
  6
CENTER
 62
    7
 10
201.25000000000006
 20
185.05000000000001
 11
201.25
 21
179.25
  0
LINE
  8
_0-1_作画層１
  6
DOT_18
 62
    7
 10
200.61000000000004
 20
176.84999999999999
 11
201.89000000000004
 21
176.84999999999999
  0
LINE
  8
_0-5_基準線層１
  6
DASHDOT
 62
    7
 10
201.25000000000006
 20
185.05000000000001
 11
201.25000000000011
 21
179.25
  0
LINE
  8
_0-1_作画層１
  6
DOT_18
 62
    7
 10
199.33000000000001
 20
181.65000000000001
 11
200.61000000000004
 21
176.84999999999999
  0
LINE
  8
_0-1_作画層１
  6
DOT_18
 62
    7
 10
203.17000000000002
 20
181.65000000000001
 11
201.89000000000004
 21
176.84999999999999
  0
LINE
  8
_0-5_基準線層１
  6
CENTER
 62
    7
 10
253.25
 20
185.05000000000001
 11
253.25
 21
179.25
  0
LINE
  8
_0-1_作画層１
  6
DOT_18
 62
    7
 10
252.61000000000001
 20
176.84999999999999
 11
253.88999999999999
 21
176.84999999999999
  0
LINE
  8
_0-5_基準線層１
  6
DASHDOT
 62
    7
 10
253.25
 20
185.05000000000001
 11
253.25000000000006
 21
179.25
  0
LINE
  8
_0-1_作画層１
  6
DOT_18
 62
    7
 10
251.33000000000004
 20
181.65000000000001
 11
252.61000000000001
 21
176.84999999999999
  0
LINE
  8
_0-1_作画層１
  6
DOT_18
 62
    7
 10
255.16999999999996
 20
181.65000000000001
 11
253.88999999999999
 21
176.84999999999999
  0
LINE
  8
_0-5_基準線層１
  6
CENTER
 62
    7
 10
283.25
 20
185.05000000000001
 11
283.25
 21
179.25
  0
LINE
  8
_0-5_基準線層１
  6
CENTER
 62
    7
 10
283.25
 20
185.05000000000001
 11
283.25
 21
179.25
  0
LINE
  8
_0-1_作画層１
  6
DOT_18
 62
    7
 10
282.61000000000001
 20
176.84999999999999
 11
283.88999999999999
 21
176.84999999999999
  0
LINE
  8
_0-5_基準線層１
  6
DASHDOT
 62
    7
 10
283.25
 20
185.05000000000001
 11
283.25000000000006
 21
179.25
  0
LINE
  8
_0-1_作画層１
  6
DOT_18
 62
    7
 10
281.33000000000004
 20
181.65000000000001
 11
282.61000000000001
 21
176.84999999999999
  0
LINE
  8
_0-1_作画層１
  6
DOT_18
 62
    7
 10
285.16999999999996
 20
181.65000000000001
 11
283.88999999999999
 21
176.84999999999999
  0
LINE
  8
_0-1_作画層１
  6
CONTINUOUS
 62
    7
 10
278.25
 20
182.44999999999999
 11
288.25
 21
182.44999999999999
  0
LINE
  8
_0-1_作画層１
  6
CONTINUOUS
 62
    7
 10
198.05000000000004
 20
182.44999999999999
 11
204.45000000000005
 21
182.44999999999999
  0
ARC
  8
_0-1_作画層１
  6
DOT_18
 62
    7
 10
201.25
 20
182.45000000000005
 40
3.1999999999999602
 50
89.999999999998991
 51
180.00000000000051
  0
ARC
  8
_0-1_作画層１
  6
DOT_18
 62
    7
 10
201.25000000000011
 20
182.4500000000001
 40
3.1999999999999034
 50
359.99999999999847
 51
90.000000000001023
  0
LINE
  8
_0-1_作画層１
  6
CONTINUOUS
 62
    7
 10
250.05000000000001
 20
182.44999999999999
 11
256.44999999999999
 21
182.44999999999999
  0
ARC
  8
_0-1_作画層１
  6
DOT_18
 62
    7
 10
253.24999999999994
 20
182.4500000000001
 40
3.1999999999999034
 50
89.999999999998991
 51
180.00000000000153
  0
ARC
  8
_0-1_作画層１
  6
DOT_18
 62
    7
 10
253.25000000000006
 20
182.4500000000001
 40
3.1999999999999034
 50
359.99999999999847
 51
90.000000000001023
  0
LINE
  8
_0-1_作画層１
  6
CONTINUOUS
 62
    7
 10
280.05000000000001
 20
182.44999999999999
 11
286.44999999999999
 21
182.44999999999999
  0
ARC
  8
_0-1_作画層１
  6
DOT_18
 62
    7
 10
283.24999999999994
 20
182.4500000000001
 40
3.1999999999999034
 50
89.999999999998991
 51
180.00000000000153
  0
ARC
  8
_0-1_作画層１
  6
DOT_18
 62
    7
 10
283.25000000000006
 20
182.4500000000001
 40
3.1999999999999034
 50
359.99999999999847
 51
90.000000000001023
  0
LINE
  8
_0-1_作画層１
  6
CONTINUOUS
 62
    7
 10
278.25
 20
121.25
 11
278.25
 21
182.44999999999999
  0
LINE
  8
_0-1_作画層１
  6
CONTINUOUS
 62
    7
 10
288.25
 20
121.25
 11
288.25
 21
182.44999999999999
  0
LINE
  8
_0-1_作画層１
  6
CONTINUOUS
 62
    7
 10
193.25
 20
121.25
 11
193.25
 21
181.25
  0
LINE
  8
_0-1_作画層１
  6
CONTINUOUS
 62
    7
 10
192.05000000000001
 20
121.25
 11
192.05000000000001
 21
182.44999999999999
  0
LINE
  8
_0-1_作画層１
  6
CONTINUOUS
 62
    7
 10
261.25
 20
121.25
 11
261.25
 21
181.25
  0
LINE
  8
_0-1_作画層１
  6
CONTINUOUS
 62
    7
 10
262.44999999999999
 20
121.25
 11
262.44999999999999
 21
182.44999999999999
  0
LINE
  8
_0-1_作画層１
  6
CONTINUOUS
 62
    7
 10
193.25
 20
121.25
 11
192.05000000000001
 21
121.25
  0
LINE
  8
_0-1_作画層１
  6
CONTINUOUS
 62
    7
 10
261.25
 20
121.25
 11
262.44999999999999
 21
121.25
  0
LINE
  8
_0-1_作画層１
  6
CONTINUOUS
 62
    7
 10
262.44999999999999
 20
182.44999999999999
 11
192.05000000000001
 21
182.44999999999999
  0
TEXT
  8
_0-7_注記層１
 62
    7
 10
212.25
 20
164.25
 40
3
 41
1
 50
0
  1
M2.6×8　ﾀｯﾋﾟﾝｸﾞﾋﾞｽ（2本付属）
  0
LINE
  8
_0-0_BaseLayer
  6
CONTINUOUS
 62
    7
 10
212.25
 20
163.25
 11
256.66026550213013
 21
163.25
  0
LINE
  8
_0-0_BaseLayer
  6
CONTINUOUS
 62
    7
 10
212.25
 20
163.25
 11
202.25
 21
173.25
  0
INSERT
  2
-002-_D2
  8
_0-9_寸法線層１
 10
-55.25
 20
-33.75
 41
1
 42
1
 50
0
  0
TEXT
  8
_0-7_注記層１
 62
    7
 10
207.25
 20
101.75
 40
3
 41
1
 50
0
  1
ST-100PC   ST-200PC  STB-15P
  0
TEXT
  8
_0-7_注記層１
 62
    7
 10
207.25
 20
104.75
 40
3
 41
1
 50
0
  1
ET-100PC   ET-100P   ET-200PC   ET-200P
  0
CIRCLE
  8
_0-1_作画層１
  6
CONTINUOUS
 62
    7
 10
262.25
 20
58.75
 40
2.1499999999999999
  0
CIRCLE
  8
_0-1_作画層１
  6
CONTINUOUS
 62
    7
 10
192.25
 20
58.750000000000014
 40
2.1499999999999999
  0
TEXT
  8
_0-0_BaseLayer
 62
    7
 10
310.35410960328073
 20
49.51721887819189
 40
3
 41
1
 50
0
  1
t=1.6
  0
LINE
  8
_0-5_基準線層１
  6
DASHDOT
 62
    7
 10
316.25
 20
33.049999999999997
 11
316.24999999999994
 21
27.249999999999986
  0
LINE
  8
_0-7_注記層１
  6
CONTINUOUS
 62
    7
 10
187.25
 20
21.25
 11
188.79856385079853
 21
18.555923163679267
  0
LINE
  8
_0-7_注記層１
  6
CONTINUOUS
 62
    7
 10
187.25
 20
21.25
 11
189.94407683632073
 21
19.70143614920147
  0
CIRCLE
  8
_0-1_作画層１
  6
DOT_18
 62
    7
 10
268.75
 20
58.75
 40
3.5999999999999996
  0
CIRCLE
  8
_0-1_作画層１
  6
DOT_18
 62
    7
 10
185.75
 20
58.750000000000014
 40
3.5999999999999996
  0
LINE
  8
_0-1_作画層１
  6
DOT_18
 62
    7
 10
266.83000000000004
 20
29.650000000000006
 11
268.11000000000001
 21
24.849999999999994
  0
LINE
  8
_0-1_作画層１
  6
DOT_18
 62
    7
 10
270.66999999999996
 20
29.650000000000006
 11
269.38999999999999
 21
24.849999999999994
  0
LINE
  8
_0-5_基準線層１
  6
DASHDOT
 62
    7
 10
268.75
 20
33.049999999999997
 11
268.74999999999994
 21
27.249999999999986
  0
LINE
  8
_0-1_作画層１
  6
DOT_18
 62
    7
 10
269.38999999999999
 20
24.849999999999994
 11
268.11000000000001
 21
24.849999999999994
  0
LINE
  8
_0-1_作画層１
  6
DOT_18
 62
    7
 10
187.66999999999999
 20
29.650000000000006
 11
186.39000000000001
 21
24.849999999999994
  0
LINE
  8
_0-1_作画層１
  6
DOT_18
 62
    7
 10
183.83000000000001
 20
29.650000000000006
 11
185.10999999999999
 21
24.849999999999994
  0
LINE
  8
_0-5_基準線層１
  6
DASHDOT
 62
    7
 10
185.75
 20
33.049999999999997
 11
185.75000000000006
 21
27.249999999999986
  0
LINE
  8
_0-1_作画層１
  6
DOT_18
 62
    7
 10
185.10999999999999
 20
24.849999999999994
 11
186.39000000000001
 21
24.849999999999994
  0
INSERT
  2
-019-_D24
  8
_0-9_寸法線層１
 10
-55.25
 20
-33.75
 41
1
 42
1
 50
0
  0
LINE
  8
_0-1_作画層１
  6
CENTER
 62
    7
 10
227.25
 20
43.75
 11
227.25
 21
73.75
  0
CIRCLE
  8
_0-1_作画層１
  6
CONTINUOUS
 62
    7
 10
185.75
 20
58.750000000000014
 40
2.1499999999999999
  0
CIRCLE
  8
_0-1_作画層１
  6
CONTINUOUS
 62
    7
 10
268.75
 20
58.75
 40
2.1499999999999999
  0
TEXT
  8
_0-7_注記層１
 62
    7
 10
193
 20
100.25
 40
7
 41
1
 50
0
  1
D
  0
CIRCLE
  8
_0-1_作画層１
  6
CONTINUOUS
 62
    7
 10
194.75
 20
103.75
 40
3.5355339059327378
  0
LINE
  8
_0-1_作画層１
  6
CONTINUOUS
 62
    7
 10
179.15000000000001
 20
48.75
 11
179.15000000000001
 21
68.75
  0
LINE
  8
_0-1_作画層１
  6
DOT_18
 62
    7
 10
180.75
 20
48.75
 11
180.75
 21
68.75
  0
LINE
  8
_0-1_作画層１
  6
CONTINUOUS
 62
    7
 10
275.35000000000002
 20
48.75
 11
275.35000000000002
 21
68.75
  0
LINE
  8
_0-1_作画層１
  6
DOT_18
 62
    7
 10
273.75
 20
48.75
 11
273.75
 21
68.75
  0
LINE
  8
_0-1_作画層１
  6
CONTINUOUS
 62
    7
 10
275.35000000000002
 20
68.75
 11
179.15000000000001
 21
68.75
  0
LINE
  8
_0-1_作画層１
  6
CONTINUOUS
 62
    7
 10
275.35000000000002
 20
48.75
 11
179.15000000000001
 21
48.75
  0
INSERT
  2
-017-_D22
  8
_0-9_寸法線層１
 10
-58.749999999999972
 20
-33.75
 41
1
 42
1
 50
0
  0
INSERT
  2
-016-_D21
  8
_0-9_寸法線層１
 10
-58.749999999999972
 20
-33.75
 41
1
 42
1
 50
0
  0
CIRCLE
  8
_0-1_作画層１
  6
CONTINUOUS
 62
    7
 10
280.35000000000002
 20
58.750000000000014
 40
2.6925824035672519
  0
CIRCLE
  8
_0-1_作画層１
  6
CONTINUOUS
 62
    7
 10
280.35000000000002
 20
58.750000000000014
 40
1.75
  0
TEXT
  8
_0-0_BaseLayer
 62
    7
 10
223.02499999999998
 20
85.006218715015933
 40
3
 41
1
 50
0
  1
106.2
  0
LINE
  8
_0-0_BaseLayer
  6
CONTINUOUS
 62
    7
 10
174.19999999999999
 20
84.506218715015933
 11
174.19999999999999
 21
86.506218715015933
  0
LINE
  8
_0-0_BaseLayer
  6
CONTINUOUS
 62
    7
 10
280.35000000000002
 20
84.506218715015933
 11
280.35000000000002
 21
86.506218715015933
  0
LINE
  8
_0-0_BaseLayer
  6
CONTINUOUS
 62
    7
 10
174.19999999999999
 20
84.506218715015933
 11
174.19999999999999
 21
65.250000000000014
  0
LINE
  8
_0-0_BaseLayer
  6
CONTINUOUS
 62
    7
 10
174.19999999999999
 20
84.506218715015933
 11
280.35000000000002
 21
84.506218715015933
  0
LINE
  8
_0-0_BaseLayer
  6
CONTINUOUS
 62
    7
 10
285.35000000000002
 20
63.750000000000014
 11
285.35000000000002
 21
53.750000000000014
  0
LINE
  8
_0-0_BaseLayer
  6
CONTINUOUS
 62
    7
 10
285.35000000000002
 20
63.750000000000014
 11
275.35000000000002
 21
65.250000000000014
  0
LINE
  8
_0-0_BaseLayer
  6
CONTINUOUS
 62
    7
 10
285.35000000000002
 20
53.750000000000014
 11
275.35000000000002
 21
52.250000000000014
  0
LINE
  8
_0-0_BaseLayer
  6
CONTINUOUS
 62
    7
 10
280.35000000000002
 20
84.506218715015933
 11
280.35000000000002
 21
65.250000000000014
  0
LINE
  8
_0-0_BaseLayer
  6
CONTINUOUS
 62
    7
 10
167.3349789271565
 20
58.75
 11
290.74208736896975
 21
58.75
  0
CIRCLE
  8
_0-1_作画層１
  6
CONTINUOUS
 62
    7
 10
174.15000000000001
 20
58.749999999999986
 40
2.6925824035672519
  0
CIRCLE
  8
_0-1_作画層１
  6
CONTINUOUS
 62
    7
 10
174.15000000000001
 20
58.749999999999986
 40
1.75
  0
LINE
  8
_0-0_BaseLayer
  6
CONTINUOUS
 62
    7
 10
169.15000000000001
 20
53.749999999999986
 11
169.15000000000001
 21
63.749999999999986
  0
LINE
  8
_0-0_BaseLayer
  6
CONTINUOUS
 62
    7
 10
169.15000000000001
 20
53.749999999999986
 11
179.15000000000001
 21
52.249999999999986
  0
LINE
  8
_0-0_BaseLayer
  6
CONTINUOUS
 62
    7
 10
169.15000000000001
 20
63.749999999999986
 11
179.15000000000001
 21
65.249999999999986
  0
LINE
  8
_0-0_BaseLayer
  6
CONTINUOUS
 62
    7
 10
285.35000000000002
 20
90.358624696812996
 11
285.35000000000002
 21
92.358624696812996
  0
LINE
  8
_0-0_BaseLayer
  6
CONTINUOUS
 62
    4
 10
285.35000000000002
 20
90.358624696812996
 11
285.35000000000002
 21
65.250000000000014
  0
LINE
  8
_0-0_BaseLayer
  6
CONTINUOUS
 62
    7
 10
169.15000000000001
 20
90.358624696812996
 11
169.15000000000001
 21
92.358624696812996
  0
LINE
  8
_0-0_BaseLayer
  6
CONTINUOUS
 62
    7
 10
169.15000000000001
 20
90.358624696812996
 11
169.15000000000001
 21
65.250000000000014
  0
LINE
  8
_0-0_BaseLayer
  6
CONTINUOUS
 62
    7
 10
179.15000000000001
 20
70.75
 11
179.15000000000001
 21
74.060062611462016
  0
LINE
  8
_0-0_BaseLayer
  6
CONTINUOUS
 62
    7
 10
179.15000000000001
 20
74.060062611462016
 11
179.15000000000001
 21
76.060062611462016
  0
LINE
  8
_0-0_BaseLayer
  6
CONTINUOUS
 62
    7
 10
164.15000000000001
 20
74.060062611462016
 11
179.15000000000001
 21
74.060062611462016
  0
TEXT
  8
_0-0_BaseLayer
 62
    7
 10
164.52500000000001
 20
74.560062611462016
 40
3
 41
1
 50
0
  1
10
  0
TEXT
  8
_0-0_BaseLayer
 62
    7
 10
223
 20
90.858624696812996
 40
3
 41
1
 50
0
  1
116.2
  0
LINE
  8
_0-0_BaseLayer
  6
CONTINUOUS
 62
    7
 10
169.15000000000001
 20
90.358624696812996
 11
285.35000000000002
 21
90.358624696812996
  0
LINE
  8
_0-0_BaseLayer
  6
CONTINUOUS
 62
    7
 10
285.35000000000002
 20
90.358624696812996
 11
285.35000000000002
 21
65.250000000000014
  0
LINE
  8
_0-0_BaseLayer
  6
CONTINUOUS
 62
    7
 10
179.15000000000001
 20
74.060062611462016
 11
184.15000000000001
 21
74.060062611462016
  0
LINE
  8
_0-0_BaseLayer
  6
CONTINUOUS
 62
    7
 10
270.35000000000002
 20
74.060062611462016
 11
290.35000000000002
 21
74.060062611462016
  0
LINE
  8
_0-0_BaseLayer
  6
CONTINUOUS
 62
    7
 10
275.35000000000002
 20
74.060062611462016
 11
275.35000000000002
 21
76.428744197913588
  0
LINE
  8
_0-0_BaseLayer
  6
CONTINUOUS
 62
    7
 10
275.35000000000002
 20
74.060062611462016
 11
275.35000000000002
 21
70.75
  0
TEXT
  8
_0-0_BaseLayer
 62
    7
 10
286.72500000000002
 20
74.560062611462016
 40
3
 41
1
 50
0
  1
10
  0
ARC
  8
_0-1_作画層１
  6
DOT_18
 62
    7
 10
316.25
 20
30.849999999999994
 40
3.2000000000000028
 50
90
 51
180
  0
ARC
  8
_0-1_作画層１
  6
DOT_18
 62
    7
 10
316.25
 20
30.849999999999994
 40
3.2000000000000028
 50
0
 51
90
  0
LINE
  8
_0-1_作画層１
  6
CONTINUOUS
 62
    7
 10
319.44999999999999
 20
30.849999999999994
 11
313.05000000000001
 21
30.849999999999994
  0
LINE
  8
_0-1_作画層１
  6
CONTINUOUS
 62
    7
 10
306.25
 20
30.849999999999994
 11
326.25
 21
30.849999999999994
  0
ARC
  8
_0-1_作画層１
  6
DOT_18
 62
    7
 10
268.75
 20
30.849999999999994
 40
3.2000000000000028
 50
90
 51
180
  0
ARC
  8
_0-1_作画層１
  6
DOT_18
 62
    7
 10
268.75
 20
30.849999999999994
 40
3.2000000000000028
 50
0
 51
90
  0
LINE
  8
_0-1_作画層１
  6
CONTINUOUS
 62
    7
 10
271.94999999999999
 20
30.849999999999994
 11
265.55000000000001
 21
30.849999999999994
  0
ARC
  8
_0-1_作画層１
  6
DOT_18
 62
    7
 10
185.75000000000003
 20
30.850000000000037
 40
3.1999999999999602
 50
359.9999999999992
 51
90.000000000000441
  0
ARC
  8
_0-1_作画層１
  6
DOT_18
 62
    7
 10
185.74999999999997
 20
30.850000000000037
 40
3.1999999999999602
 50
89.999999999999503
 51
180.00000000000077
  0
LINE
  8
_0-1_作画層１
  6
CONTINUOUS
 62
    7
 10
182.55000000000001
 20
30.849999999999994
 11
188.94999999999999
 21
30.849999999999994
  0
LINE
  8
_0-1_作画層１
  6
CONTINUOUS
 62
    7
 10
180.75
 20
4.25
 11
180.75
 21
29.25
  0
LINE
  8
_0-1_作画層１
  6
CONTINUOUS
 62
    7
 10
273.75
 20
4.25
 11
273.75
 21
29.25
  0
LINE
  8
_0-1_作画層１
  6
CONTINUOUS
 62
    7
 10
275.35000000000002
 20
30.849999999999994
 11
179.15000000000001
 21
30.849999999999994
  0
LINE
  8
_0-1_作画層１
  6
CONTINUOUS
 62
    7
 10
180.75
 20
29.25
 11
273.75
 21
29.25
  0
LINE
  8
_0-1_作画層１
  6
CONTINUOUS
 62
    7
 10
180.75
 20
4.25
 11
169.15000000000001
 21
4.25
  0
LINE
  8
_0-0_BaseLayer
  6
CONTINUOUS
 62
    7
 10
171.45741759643275
 20
2.5000000000000142
 11
171.45741759643275
 21
4.25
  0
LINE
  8
_0-0_BaseLayer
  6
CONTINUOUS
 62
    7
 10
176.84258240356726
 20
2.5000000000000142
 11
176.84258240356726
 21
4.25
  0
LINE
  8
_0-1_作画層１
  6
CONTINUOUS
 62
    7
 10
171.45741759643275
 20
2.5000000000000142
 11
176.84258240356726
 21
2.5000000000000142
  0
LINE
  8
_0-1_作画層１
  6
DOT_18
 62
    7
 10
172.29999999999998
 20
2.5000000000000284
 11
172.29999999999998
 21
-1.2499999999999716
  0
LINE
  8
_0-1_作画層１
  6
DOT_18
 62
    7
 10
176.09999999999999
 20
2.5000000000000284
 11
176.09999999999999
 21
-1.2499999999999716
  0
LINE
  8
_0-1_作画層１
  6
DOT_18
 62
    7
 10
172.29999999999998
 20
-1.2499999999999716
 11
176.09999999999999
 21
-1.2499999999999716
  0
ARC
  8
_0-1_作画層１
  6
DOT_18
 62
    7
 10
173.42817589576543
 20
23.178338762215049
 40
2.9999999999999645
 50
89.99999999999946
 51
180.00000000000065
  0
LINE
  8
_0-1_作画層１
  6
DOT_18
 62
    7
 10
170.42817589576546
 20
23.201954397394161
 11
170.42817589576546
 21
23.17833876221502
  0
LINE
  8
_0-1_作画層１
  6
DOT_18
 62
    7
 10
175.04218241042346
 20
26.17833876221502
 11
173.42817589576546
 21
26.17833876221502
  0
ARC
  8
_0-1_作画層１
  6
DOT_18
 62
    7
 10
175.04218241042349
 20
23.178338762215049
 40
2.9999999999999645
 50
359.99999999999932
 51
90.000000000000483
  0
LINE
  8
_0-1_作画層１
  6
DOT_18
 62
    7
 10
178.04218241042346
 20
23.201954397394161
 11
170.42817589576546
 21
23.201954397394161
  0
LINE
  8
_0-1_作画層１
  6
DOT_18
 62
    7
 10
172.29999999999998
 20
23.201954397394161
 11
172.29999999999998
 21
6.2500000000000284
  0
LINE
  8
_0-1_作画層１
  6
DOT_18
 62
    7
 10
176.09999999999999
 20
23.201954397394161
 11
176.09999999999999
 21
6.2500000000000284
  0
LINE
  8
_0-1_作画層１
  6
CONTINUOUS
 62
    7
 10
273.75
 20
4.25
 11
285.35000000000002
 21
4.25
  0
LINE
  8
_0-0_BaseLayer
  6
CONTINUOUS
 62
    7
 10
277.65741759643277
 20
2.5
 11
277.65741759643277
 21
4.25
  0
LINE
  8
_0-0_BaseLayer
  6
CONTINUOUS
 62
    7
 10
283.04258240356728
 20
2.5
 11
283.04258240356728
 21
4.25
  0
LINE
  8
_0-1_作画層１
  6
CONTINUOUS
 62
    7
 10
283.04258240356728
 20
2.5
 11
277.65741759643277
 21
2.5
  0
LINE
  8
_0-1_作画層１
  6
DOT_18
 62
    7
 10
282.25
 20
2.5
 11
282.25
 21
-1.25
  0
LINE
  8
_0-1_作画層１
  6
DOT_18
 62
    7
 10
278.45000000000005
 20
2.5
 11
278.45000000000005
 21
-1.25
  0
LINE
  8
_0-1_作画層１
  6
DOT_18
 62
    7
 10
282.25
 20
-1.25
 11
278.45000000000005
 21
-1.25
  0
LINE
  8
_0-7_注記層１
  6
CONTINUOUS
 62
    7
 10
283.35000000000002
 20
25.25
 11
285.68806132708937
 21
27.296843724071095
  0
LINE
  8
_0-7_注記層１
  6
CONTINUOUS
 62
    7
 10
283.35000000000002
 20
25.25
 11
284.34013985026206
 21
28.195458041955973
  0
LINE
  8
_0-7_注記層１
  6
CONTINUOUS
 62
    7
 10
283.35000000000002
 20
25.25
 11
288.35000000000002
 21
32.75
  0
LINE
  8
_0-7_注記層１
  6
CONTINUOUS
 62
    7
 10
288.35000000000002
 20
32.75
 11
303.35000000000002
 21
32.75
  0
ARC
  8
_0-1_作画層１
  6
DOT_18
 62
    7
 10
281.12182410423463
 20
23.178338762215034
 40
2.9999999999999645
 50
359.99999999999932
 51
90.000000000001037
  0
LINE
  8
_0-1_作画層１
  6
DOT_18
 62
    7
 10
284.12182410423452
 20
23.201954397394161
 11
284.12182410423452
 21
23.178338762214992
  0
LINE
  8
_0-1_作画層１
  6
DOT_18
 62
    7
 10
279.50781758957658
 20
26.178338762214992
 11
281.12182410423452
 21
26.178338762214992
  0
ARC
  8
_0-1_作画層１
  6
DOT_18
 62
    7
 10
279.50781758957646
 20
23.178338762215034
 40
2.9999999999999645
 50
89.99999999999892
 51
180.00000000000065
  0
LINE
  8
_0-1_作画層１
  6
DOT_18
 62
    7
 10
276.50781758957658
 20
23.201954397394161
 11
276.50781758957658
 21
23.178338762214992
  0
LINE
  8
_0-1_作画層１
  6
DOT_18
 62
    7
 10
276.50781758957658
 20
23.201954397394161
 11
284.12182410423452
 21
23.201954397394161
  0
LINE
  8
_0-0_BaseLayer
  6
CONTINUOUS
 62
    7
 10
306.25
 20
30.849999999999994
 11
306.25
 21
29.25
  0
LINE
  8
_0-0_BaseLayer
  6
CONTINUOUS
 62
    7
 10
326.25
 20
30.849999999999994
 11
326.25
 21
29.25
  0
LINE
  8
_0-1_作画層１
  6
DOT_18
 62
    7
 10
318.14999999999998
 20
2.5
 11
318.14999999999998
 21
-1.25
  0
LINE
  8
_0-1_作画層１
  6
DOT_18
 62
    7
 10
314.34999999999991
 20
2.5
 11
314.34999999999991
 21
-1.25
  0
LINE
  8
_0-1_作画層１
  6
DOT_18
 62
    7
 10
318.14999999999998
 20
-1.25
 11
314.34999999999991
 21
-1.25
  0
LINE
  8
_0-1_作画層１
  6
CONTINUOUS
 62
    7
 10
318.6960912052117
 20
2.5
 11
313.6960912052117
 21
2.5
  0
LINE
  8
_0-1_作画層１
  6
CONTINUOUS
 62
    7
 10
318.6960912052117
 20
2.5
 11
318.6960912052117
 21
4.25
  0
LINE
  8
_0-1_作画層１
  6
CONTINUOUS
 62
    7
 10
313.6960912052117
 20
2.5
 11
313.6960912052117
 21
4.25
  0
ARC
  8
_0-1_作画層１
  6
DOT_18
 62
    7
 10
317.0218241042345
 20
23.17833876221502
 40
2.9999999999999645
 50
359.99999999999932
 51
90.000000000001037
  0
LINE
  8
_0-1_作画層１
  6
DOT_18
 62
    7
 10
320.0218241042345
 20
23.201954397394147
 11
320.0218241042345
 21
23.178338762214992
  0
LINE
  8
_0-1_作画層１
  6
DOT_18
 62
    7
 10
315.40781758957644
 20
26.178338762214992
 11
317.0218241042345
 21
26.178338762214992
  0
ARC
  8
_0-1_作画層１
  6
DOT_18
 62
    7
 10
315.40781758957644
 20
23.17833876221502
 40
2.9999999999999645
 50
89.99999999999892
 51
180.00000000000065
  0
LINE
  8
_0-1_作画層１
  6
DOT_18
 62
    7
 10
312.40781758957644
 20
23.201954397394147
 11
312.40781758957644
 21
23.178338762214992
  0
LINE
  8
_0-1_作画層１
  6
DOT_18
 62
    7
 10
312.40781758957644
 20
23.201954397394147
 11
320.0218241042345
 21
23.201954397394147
  0
LINE
  8
_0-1_作画層１
  6
CONTINUOUS
 62
    7
 10
179.15000000000001
 20
5.8499999999999943
 11
169.15000000000001
 21
5.8499999999999943
  0
LINE
  8
_0-1_作画層１
  6
CONTINUOUS
 62
    7
 10
275.35000000000002
 20
5.8499999999999943
 11
285.35000000000002
 21
5.8499999999999943
  0
LINE
  8
_0-1_作画層１
  6
CONTINUOUS
 62
    7
 10
275.35000000000002
 20
5.8499999999999943
 11
275.35000000000002
 21
30.849999999999994
  0
LINE
  8
_0-1_作画層１
  6
DOT_18
 62
    7
 10
278.45000000000005
 20
23.201954397394161
 11
278.45000000000005
 21
5.8499999999999943
  0
LINE
  8
_0-1_作画層１
  6
DOT_18
 62
    7
 10
282.25
 20
23.178338762214992
 11
282.25
 21
5.8499999999999943
  0
LINE
  8
_0-0_BaseLayer
  6
CONTINUOUS
 62
    7
 10
285.35000000000002
 20
4.25
 11
285.35000000000002
 21
5.8499999999999943
  0
LINE
  8
_0-0_BaseLayer
  6
CONTINUOUS
 62
    7
 10
169.15000000000001
 20
5.8499999999999943
 11
169.15000000000001
 21
4.25
  0
TEXT
  8
_0-7_注記層１
 62
    7
 10
197.25
 20
12.25
 40
3
 41
1
 50
0
  1
M3×8　ﾀｯﾋﾟﾝｸﾞﾋﾞｽ（2本付属）
  0
LINE
  8
_0-0_BaseLayer
  6
CONTINUOUS
 62
    7
 10
197.25
 20
11.25
 11
238.89537647882412
 21
11.25
  0
LINE
  8
_0-0_BaseLayer
  6
CONTINUOUS
 62
    7
 10
197.25
 20
11.25
 11
187.25
 21
21.25
  0
LINE
  8
_0-1_作画層１
  6
CONTINUOUS
 62
    7
 10
179.15000000000001
 20
5.8499999999999943
 11
179.15000000000001
 21
30.849999999999994
  0
TEXT
  8
_0-7_注記層１
 62
    7
 10
288.85000000000002
 20
28.75
 40
3
 41
1
 50
0
  1
（2本付属）
  0
LINE
  8
_0-1_作画層１
  6
DOT_18
 62
    7
 10
314.34999999999991
 20
23.178338762214992
 11
314.34999999999991
 21
5.8499999999999943
  0
LINE
  8
_0-1_作画層１
  6
DOT_18
 62
    7
 10
318.14999999999998
 20
23.201954397394147
 11
318.14999999999998
 21
5.8499999999999943
  0
LINE
  8
_0-0_BaseLayer
  6
CONTINUOUS
 62
    7
 10
309.82142857142856
 20
5.8499999999999943
 11
309.82142857142856
 21
4.25
  0
LINE
  8
_0-0_BaseLayer
  6
CONTINUOUS
 62
    7
 10
322.67857142857139
 20
5.8499999999999943
 11
322.67857142857139
 21
4.25
  0
LINE
  8
_0-0_BaseLayer
  6
CONTINUOUS
 62
    7
 10
309.82142857142856
 20
5.8499999999999943
 11
322.67857142857139
 21
5.8499999999999943
  0
LINE
  8
_0-0_BaseLayer
  6
CONTINUOUS
 62
    7
 10
309.82142857142856
 20
4.25
 11
322.67857142857139
 21
4.25
  0
LINE
  8
_0-0_BaseLayer
  6
CONTINUOUS
 62
    7
 10
-1.512563132923475
 20
50.012563132923539
 11
4.0144642155020449
 21
44.485535784498026
  0
LINE
  8
_0-0_BaseLayer
  6
CONTINUOUS
 62
    7
 10
202.38338473516717
 20
204.91660619392096
 11
213.03635968101298
 21
194.26363124807514
  0
LINE
  8
_0-0_BaseLayer
  6
CONTINUOUS
 62
    7
 10
213.03635968101298
 20
194.26363124807514
 11
224.28419887677745
 21
194.26363124807514
  0
TEXT
  8
_0-9_寸法線層１
 62
    7
 10
213.03635968101298
 20
194.26363124807514
 40
3
 41
1
 50
0
  1
2-φ3.5
  0
LINE
  8
_0-0_BaseLayer
  6
CONTINUOUS
 62
    7
 10
4.0144642155020449
 20
44.485535784498026
 11
15.820249806888881
 21
44.485535784498026
  0
TEXT
  8
_0-9_寸法線層１
 62
    7
 10
4.0144642155020449
 20
44.485535784498026
 40
3
 41
1
 50
0
  1
2-φ3.5
  0
TEXT
  8
_0-9_寸法線層１
 62
    7
 10
201.01888426032733
 20
43.481115739672688
 40
3
 41
1
 50
0
  1
4-φ4.3
  0
LINE
  8
_0-0_BaseLayer
  6
CONTINUOUS
 62
    7
 10
201.01888426032733
 20
43.481115739672688
 11
214.10421772181294
 21
43.481115739672688
  0
LINE
  8
_0-0_BaseLayer
  6
CONTINUOUS
 62
    7
 10
187.27027957955107
 20
57.229720420448935
 11
201.01888426032733
 21
43.481115739672688
  0
LINE
  8
_0-1_作画層１
  6
DOT_18
 62
    7
 10
306.25
 20
29.25
 11
326.25
 21
29.25
  0
LINE
  8
_0-0_BaseLayer
  6
CONTINUOUS
 62
    7
 10
309.82142857142856
 20
5.8499999999999943
 11
306.25
 21
29.25
  0
LINE
  8
_0-0_BaseLayer
  6
CONTINUOUS
 62
    7
 10
322.67857142857139
 20
5.8499999999999943
 11
326.25
 21
29.25
  0
LINE
  8
_0-0_BaseLayer
  6
CONTINUOUS
 62
    7
 10
279.11256313292358
 20
57.512563132923546
 11
263.08449046741032
 21
41.484490467410325
  0
TEXT
  8
_0-0_BaseLayer
 62
    7
 10
244.08449046741032
 20
41.484490467410325
 40
3
 41
1
 50
0
  1
2-M3.5×0.6
  0
LINE
  8
_0-0_BaseLayer
  6
CONTINUOUS
 62
    7
 10
263.08449046741032
 20
41.484490467410325
 11
243.50790041383127
 21
41.484490467410325
  0
LINE
  8
_0-0_BaseLayer
  6
CONTINUOUS
 62
    7
 10
265.55000000000001
 20
4.25
 11
263.55000000000001
 21
4.25
  0
LINE
  8
_0-0_BaseLayer
  6
CONTINUOUS
 62
    7
 10
265.55000000000001
 20
4.25
 11
265.55000000000001
 21
29.25
  0
LINE
  8
_0-0_BaseLayer
  6
CONTINUOUS
 62
    7
 10
265.55000000000001
 20
4.25
 11
271.75
 21
4.25
  0
TEXT
  8
_0-0_BaseLayer
 62
    7
 10
265.05000000000001
 20
14.75
 40
3
 41
1
 50
90
  1
25
  0
LINE
  8
_0-0_BaseLayer
  6
CONTINUOUS
 62
    7
 10
180.75
 20
-1.2499999999999716
 11
273.75
 21
-1.2499999999999716
  0
LINE
  8
_0-0_BaseLayer
  6
CONTINUOUS
 62
    7
 10
273.75
 20
2.5000000000000142
 11
273.75
 21
-3.0819730331137549
  0
LINE
  8
_0-0_BaseLayer
  6
CONTINUOUS
 62
    7
 10
180.75
 20
2.5000000000000142
 11
180.75
 21
-3.2499999999999716
  0
TEXT
  8
_0-0_BaseLayer
 62
    7
 10
225.625
 20
-0.7499999999999715
 40
3
 41
1
 50
0
  1
93
  0
TEXT
  8
_0-7_注記層１
 62
    7
 10
290.85000000000002
 20
33.75
 40
3
 41
1
 50
0
  1
M3.5×25
  0
ENDSEC
  0
EOF
