  0
SECTION
  2
HEADER
  9
$ACADVER
  1
AC1009
  9
$INSBASE
 10
0
 20
0
 30
0
  9
$EXTMIN
 10
0
 20
0
  9
$EXTMAX
 10
297
 20
210
  9
$LIMMIN
 10
0
 20
0
  9
$LIMMAX
 10
297
 20
210
  9
$LTSCALE
 40
1
  0
ENDSEC
  0
SECTION
  2
TABLES
  0
TABLE
  2
LTYPE
 70
     9
  0
LTYPE
  2
CONTINUOUS
 70
    64
  3
実線
 72
    65
 73
     0
 40
0.0
  0
LTYPE
  2
DASHED1
 70
    64
  3
--  --  --  --  --  --  --  --  
 72
    65
 73
     2
 40
2.5
 49
1.25
 49
-1.25
  0
LTYPE
  2
DASHED2
 70
    64
  3
----    ----    ----    ----    
 72
    65
 73
     2
 40
5.0
 49
2.5
 49
-2.5
  0
LTYPE
  2
DASHED3
 70
    64
  3
------  ------  ------  ------  
 72
    65
 73
     2
 40
5.0
 49
3.75
 49
-1.25
  0
LTYPE
  2
CENTER1
 70
    64
  3
----- - ----- - ----- - ----- - 
 72
    65
 73
     4
 40
10.0
 49
6.25
 49
-1.25
 49
1.25
 49
-1.25
  0
LTYPE
  2
CENTER2
 70
    64
  3
----------  --  ----------  --  
 72
    65
 73
     4
 40
20.0
 49
12.5
 49
-2.5
 49
2.5
 49
-2.5
  0
LTYPE
  2
PHANTOM1
 70
    64
  3
--- - - --- - - --- - - --- - - 
 72
    65
 73
     6
 40
10.0
 49
3.25
 49
-1.25
 49
1.25
 49
-1.25
 49
1.25
 49
-1.25
  0
LTYPE
  2
PHANTOM2
 70
    64
  3
--------  -  -  --------  -  -  
 72
    65
 73
     6
 40
20.0
 49
10.0
 49
-2.5
 49
1.25
 49
-2.5
 49
1.25
 49
-2.5
  0
LTYPE
  2
DOT
 70
    64
  3
-   -   -   -   -   -   -   -   
 72
    65
 73
     2
 40
2.5
 49
0.625
 49
-1.875
  0
LTYPE
  2
DUMMY
 70
    64
  3
ダミー
 72
    65
 73
     0
 40
0.0
  0
LTYPE
  2
RAND1
 70
    64
  3
ランダム線1
 72
    65
 73
     4
 40
10.0
 49
1.0
 49
-2.0
 49
3.0
 49
-4.0
  0
LTYPE
  2
RAND2
 70
    64
  3
ランダム線2
 72
    65
 73
     4
 40
14.0
 49
2.0
 49
-3.0
 49
4.0
 49
-5.0
  0
LTYPE
  2
RAND3
 70
    64
  3
ランダム線3
 72
    65
 73
     4
 40
18.0
 49
3.0
 49
-4.0
 49
5.0
 49
-6.0
  0
LTYPE
  2
RAND4
 70
    64
  3
ランダム線4
 72
    65
 73
     4
 40
22.0
 49
4.0
 49
-5.0
 49
6.0
 49
-7.0
  0
LTYPE
  2
RAND5
 70
    64
  3
ランダム線5
 72
    65
 73
     4
 40
26.0
 49
5.0
 49
-6.0
 49
7.0
 49
-8.0
  0
LTYPE
  2
LONG1
 70
    64
  3
----------  --  ----------  --  
 72
    65
 73
     4
 40
40.0
 49
32.5
 49
-2.5
 49
2.5
 49
-2.5
  0
LTYPE
  2
LONG2
 70
    64
  3
--------  -  -  --------  -  -  
 72
    65
 73
     6
 40
40.0
 49
30.0
 49
-2.5
 49
1.25
 49
-2.5
 49
1.25
 49
-2.5
  0
LTYPE
  2
LONG3
 70
    64
  3
+++++++++++++++..+++++++++++++++
 72
    65
 73
     2
 40
40.0
 49
37.5
 49
-2.5
  0
LTYPE
  2
LONG4
 70
    64
  3
+++++++++++++++..+++++++++++++++
 72
    65
 73
     2
 40
80.0
 49
75.0
 49
-5.0
  0
LTYPE
  2
LONG5
 70
    64
  3
----------  --  ----------  --  
 72
    65
 73
     4
 40
60.0
 49
37.5
 49
-7.5
 49
7.5
 49
-7.5
  0
LTYPE
  2
dashed
 70
   64
  3
-------   -------------   ------
 72
   65
 73
    2
 40
7.5
 49
6
 49
-1.5
  0
LTYPE
  2
dashed_spaced
 70
   64
  3
----        --------        ----
 72
   65
 73
    2
 40
12
 49
6
 49
-6
  0
LTYPE
  2
long_dashed_dotted
 70
   64
  3
------------- --- --------------
 72
   65
 73
    4
 40
15.25
 49
12
 49
-1.5
 49
0.25
 49
-1.5
  0
LTYPE
  2
long_dashed_double-dotted
 70
   64
  3
----------- --- --- ------------
 72
   65
 73
    6
 40
17
 49
12
 49
-1.5
 49
0.25
 49
-1.5
 49
0.25
 49
-1.5
  0
LTYPE
  2
long_dashed_triplicate-dotted
 70
   64
  3
--------- --- --- --- ----------
 72
   65
 73
    8
 40
18.75
 49
12
 49
-1.5
 49
0.25
 49
-1.5
 49
0.25
 49
-1.5
 49
0.25
 49
-1.5
  0
LTYPE
  2
dotted
 70
   64
  3
   -       -       -       -    
 72
   65
 73
    2
 40
1.75
 49
0.25
 49
-1.5
  0
LTYPE
  2
chain
 70
   64
  3
-------------- -- --------------
 72
   65
 73
    4
 40
18.5
 49
12
 49
-1.5
 49
3.5
 49
-1.5
  0
LTYPE
  2
chain_double_dash
 70
   64
  3
------------ -- -- -------------
 72
   65
 73
    6
 40
23.5
 49
12
 49
-1.5
 49
3.5
 49
-1.5
 49
3.5
 49
-1.5
  0
LTYPE
  2
dashed_dotted
 70
   64
  3
-----------     -     ----------
 72
   65
 73
    4
 40
9.25
 49
6
 49
-1.5
 49
0.25
 49
-1.5
  0
LTYPE
  2
double-dashed_dotted
 70
   64
  3
------   -----------   -   -----
 72
   65
 73
    6
 40
16.75
 49
6
 49
-1.5
 49
6
 49
-1.5
 49
0.25
 49
-1.5
  0
LTYPE
  2
dashed_double-dotted
 70
   64
  3
---------    -    -    ---------
 72
   65
 73
    6
 40
11
 49
6
 49
-1.5
 49
0.25
 49
-1.5
 49
0.25
 49
-1.5
  0
LTYPE
  2
double-dashed_double-dotted
 70
   64
  3
-----   ---------   -   -   ----
 72
   65
 73
    8
 40
18.5
 49
6
 49
-1.5
 49
6
 49
-1.5
 49
0.25
 49
-1.5
 49
0.25
 49
-1.5
  0
LTYPE
  2
dashed_triplicate-dotted
 70
   64
  3
-------    -    -    -    ------
 72
   65
 73
    8
 40
12.75
 49
6
 49
-1.5
 49
0.25
 49
-1.5
 49
0.25
 49
-1.5
 49
0.25
 49
-1.5
  0
LTYPE
  2
double-dashed_triplicate-dotted
 70
   64
  3
-----  ---------  -  -  -  -----
 72
   65
 73
   10
 40
20.25
 49
6
 49
-1.5
 49
6
 49
-1.5
 49
0.25
 49
-1.5
 49
0.25
 49
-1.5
 49
0.25
 49
-1.5
  0
LTYPE
  2
undefined
 70
   64
  3
--------------------------------
 72
   65
 73
    0
 40
0
  0
LTYPE
  2
DASHED
 70
   64
  3
----        --------        ----
 72
   65
 73
    2
 40
4
 49
2
 49
-2
  0
LTYPE
  2
DOT_18
 70
   64
  3
---           -----           --
 72
   65
 73
    2
 40
3
 49
1
 49
-2
  0
LTYPE
  2
DASHDOT
 70
   64
  3
---------    ------    ---------
 72
   65
 73
    4
 40
17
 49
10
 49
-2
 49
3
 49
-2
  0
LTYPE
  2
DIVIDE
 70
   64
  3
-----------  --  --  -----------
 72
   65
 73
    6
 40
30
 49
20
 49
-2
 49
2
 49
-2
 49
2
 49
-2
  0
LTYPE
  2
CENTER
 70
   64
  3
-------------  --  -------------
 72
   65
 73
    4
 40
13
 49
10
 49
-1
 49
1
 49
-1
  0
ENDTAB
  0
TABLE
  2
STYLE
  5
3
100
AcDbSymbolTable
 70
     1
  0
STYLE
  5
10
100
AcDbSymbolTableRecord
100
AcDbTextStyleTableRecord
  2
STANDARD
 70
     0
 40
0.0
 41
1.0
 50
0.0
 71
     0
 42
0.2
  3
txt
  4
bigfont.shx
  0
STYLE
  5
26
100
AcDbSymbolTableRecord
100
AcDbTextStyleTableRecord
  2
TATEGAKI
 70
    68
 40
0.0
 41
1.0
 50
0.0
 71
     0
 42
1.0
  3
txt
  4
bigfont.shx
  0
ENDTAB
  0
TABLE
  2
LAYER
 70
    5
  0
LAYER
  2
_0-1_作画層１
 70
   64
 62
    7
  6
CONTINUOUS
  0
LAYER
  2
_0-7_注記層１
 70
   64
 62
    7
  6
CONTINUOUS
  0
LAYER
  2
_0-9_寸法線層１
 70
   64
 62
    7
  6
CONTINUOUS
  0
LAYER
  2
_0-d_0_1
 70
   64
 62
    7
  6
CONTINUOUS
  0
LAYER
  2
ADD_LINE
 70
   64
 62
    7
  6
CONTINUOUS
  0
ENDTAB
  0
ENDSEC
  0
SECTION
  2
BLOCKS
  0
BLOCK
  2
-000-_D0
 70
   64
 10
0
 20
0
 30
0
  0
LINE
  8
_0-9_寸法線層１
  6
CONTINUOUS
 62
    7
 10
149.49997329711914
 20
272.11797638436485
 11
177.49996614456177
 21
272.11797638436485
  0
TEXT
  8
_0-9_寸法線層１
 62
    7
 10
161.61174115318667
 20
273.11797638436485
 40
3
 41
1
 50
0
  1
28
  0
LINE
  8
_0-9_寸法線層１
  6
CONTINUOUS
 62
    7
 10
149.49997329711914
 20
263.83771514892578
 11
149.49997329711914
 21
274.11797638436485
  0
LINE
  8
_0-9_寸法線層１
  6
CONTINUOUS
 62
    7
 10
177.49996614456177
 20
266.49996948242187
 11
177.49996614456177
 21
274.11797638436485
  0
ENDBLK
  0
BLOCK
  2
-001-_D1
 70
   64
 10
0
 20
0
 30
0
  0
LINE
  8
_0-9_寸法線層１
  6
CONTINUOUS
 62
    7
 10
177.49996614456177
 20
272.11797638436485
 11
219.50000381469727
 21
272.11797638436485
  0
TEXT
  8
_0-9_寸法線層１
 62
    7
 10
196.61175641197573
 20
273.11797638436485
 40
3
 41
1
 50
0
  1
42
  0
LINE
  8
_0-9_寸法線層１
  6
CONTINUOUS
 62
    7
 10
177.49996614456177
 20
266.49996948242187
 11
177.49996614456177
 21
274.11797638436485
  0
LINE
  8
_0-9_寸法線層１
  6
CONTINUOUS
 62
    7
 10
219.50000381469727
 20
258.49999237060547
 11
219.50000381469727
 21
274.11797638436485
  0
ENDBLK
  0
BLOCK
  2
-002-_D2
 70
   64
 10
0
 20
0
 30
0
  0
LINE
  8
_0-9_寸法線層１
  6
CONTINUOUS
 62
    7
 10
149.49997329711914
 20
277.11797638436485
 11
219.50000381469727
 21
277.11797638436485
  0
TEXT
  8
_0-9_寸法線層１
 62
    7
 10
182.61175998825442
 20
278.11797638436485
 40
3
 41
1
 50
0
  1
70
  0
LINE
  8
_0-9_寸法線層１
  6
CONTINUOUS
 62
    7
 10
149.49997329711914
 20
263.83771514892578
 11
149.49997329711914
 21
279.11797638436485
  0
LINE
  8
_0-9_寸法線層１
  6
CONTINUOUS
 62
    7
 10
219.50000381469727
 20
258.49999237060547
 11
219.50000381469727
 21
279.11797638436485
  0
ENDBLK
  0
BLOCK
  2
-003-_D3
 70
   64
 10
0
 20
0
 30
0
  0
LINE
  8
_0-9_寸法線層１
  6
CONTINUOUS
 62
    7
 10
317.5
 20
61.249988555908203
 11
317.5
 21
129.75000381469727
  0
TEXT
  8
_0-9_寸法線層１
 62
    7
 10
316.5
 20
92.861767617648951
 40
3
 41
1
 50
90
  1
137
  0
LINE
  8
_0-9_寸法線層１
  6
CONTINUOUS
 62
    7
 10
306.24999618530273
 20
61.249988555908203
 11
319.5
 21
61.249988555908203
  0
LINE
  8
_0-9_寸法線層１
  6
CONTINUOUS
 62
    7
 10
306.24999618530273
 20
129.75000381469727
 11
319.5
 21
129.75000381469727
  0
ENDBLK
  0
BLOCK
  2
-004-_D4
 70
   64
 10
0
 20
0
 30
0
  0
LINE
  8
_0-9_寸法線層１
  6
CONTINUOUS
 62
    7
 10
252.5
 20
65.500006468987479
 11
252.5
 21
125.49999061107285
  0
TEXT
  8
_0-9_寸法線層１
 62
    7
 10
251.5
 20
92.861769972376379
 40
3
 41
1
 50
90
  1
120
  0
LINE
  8
_0-9_寸法線層１
  6
CONTINUOUS
 62
    7
 10
266.25000320475573
 20
65.500006468987479
 11
250.5
 21
65.500006468987479
  0
LINE
  8
_0-9_寸法線層１
  6
CONTINUOUS
 62
    7
 10
286.78781285702519
 20
125.49999061107285
 11
250.5
 21
125.49999061107285
  0
ENDBLK
  0
BLOCK
  2
-005-_D5
 70
   64
 10
0
 20
0
 30
0
  0
TEXT
  8
_0-9_寸法線層１
 62
    7
 10
289.76800757691149
 20
120.49694273344436
 40
3
 41
1
 50
-28.482074978254666
  1
φ7
  0
LINE
  8
_0-9_寸法線層１
  6
CONTINUOUS
 62
    7
 10
285.52601780197301
 20
121.66073722655533
 11
293.92895204279745
 21
117.10171946353245
  0
ENDBLK
  0
BLOCK
  2
-006-_D6
 70
   64
 10
0
 20
0
 30
0
  0
LINE
  8
_0-9_寸法線層１
  6
CONTINUOUS
 62
    7
 10
25.000000000000014
 20
102.5
 11
121
 21
102.5
  0
TEXT
  8
_0-9_寸法線層１
 62
    7
 10
71.111771432346217
 20
103.5
 40
3
 41
1
 50
0
  1
96
  0
LINE
  8
_0-9_寸法線層１
  6
CONTINUOUS
 62
    7
 10
25.000000000000014
 20
124.5
 11
25.000000000000014
 21
100.5
  0
LINE
  8
_0-9_寸法線層１
  6
CONTINUOUS
 62
    7
 10
121
 20
124.5
 11
121
 21
100.5
  0
ENDBLK
  0
BLOCK
  2
-007-_D7
 70
   64
 10
0
 20
0
 30
0
  0
LINE
  8
_0-9_寸法線層１
  6
CONTINUOUS
 62
    7
 10
17.5
 20
267
 11
17.5
 21
125
  0
TEXT
  8
_0-9_寸法線層１
 62
    7
 10
16.5
 20
193.36177143234622
 40
3
 41
1
 50
90
  1
142
  0
LINE
  8
_0-9_寸法線層１
  6
CONTINUOUS
 62
    7
 10
24.500000000000014
 20
267
 11
15.5
 21
267
  0
LINE
  8
_0-9_寸法線層１
  6
CONTINUOUS
 62
    7
 10
24.500000000000014
 20
125
 11
15.5
 21
125
  0
ENDBLK
  0
BLOCK
  2
-008-_D8
 70
   64
 10
0
 20
0
 30
0
  0
LINE
  8
_0-9_寸法線層１
  6
CONTINUOUS
 62
    7
 10
17.5
 20
125
 11
17.5
 21
111.99321985009966
  0
TEXT
  8
_0-9_寸法線層１
 62
    7
 10
16.5
 20
115.10838135739604
 40
3
 41
1
 50
90
  1
(13)
  0
LINE
  8
_0-9_寸法線層１
  6
CONTINUOUS
 62
    7
 10
27.5
 20
125
 11
15.5
 21
125
  0
LINE
  8
_0-9_寸法線層１
  6
CONTINUOUS
 62
    7
 10
47.917815765136403
 20
111.99321985009966
 11
15.5
 21
111.99321985009966
  0
ENDBLK
  0
BLOCK
  2
-009-_D9
 70
   64
 10
0
 20
0
 30
0
  0
LINE
  8
_0-9_寸法線層１
  6
CONTINUOUS
 62
    7
 10
261.24999809265137
 20
42.5
 11
306.74999809265137
 21
42.5
  0
TEXT
  8
_0-9_寸法線層１
 62
    7
 10
282.11176952499761
 20
43.5
 40
3
 41
1
 50
0
  1
91
  0
LINE
  8
_0-9_寸法線層１
  6
CONTINUOUS
 62
    7
 10
261.24999809265137
 20
62.999980926513672
 11
261.24999809265137
 21
40.5
  0
LINE
  8
_0-9_寸法線層１
  6
CONTINUOUS
 62
    7
 10
306.74999809265137
 20
62.999980926513672
 11
306.74999809265137
 21
40.5
  0
ENDBLK
  0
BLOCK
  2
-010-_D10
 70
   64
 10
0
 20
0
 30
0
  0
LINE
  8
_0-9_寸法線層１
  6
CONTINUOUS
 62
    7
 10
264.25000320475573
 20
47.5
 11
303.75000320475573
 21
47.5
  0
TEXT
  8
_0-9_寸法線層１
 62
    7
 10
282.11177463710197
 20
48.5
 40
3
 41
1
 50
0
  1
79
  0
LINE
  8
_0-9_寸法線層１
  6
CONTINUOUS
 62
    7
 10
264.25000320475573
 20
67.500006468987479
 11
264.25000320475573
 21
45.5
  0
LINE
  8
_0-9_寸法線層１
  6
CONTINUOUS
 62
    7
 10
303.75000320475573
 20
67.500006468987479
 11
303.75000320475573
 21
45.5
  0
ENDBLK
  0
ENDSEC
  0
SECTION
  2
ENTITIES
  0
TEXT
  8
_0-7_注記層１
 62
    7
 10
302.25
 20
-26.25
 40
5
 41
1
 50
0
  1
ET-100S-001-03
  0
TEXT
  8
_0-7_注記層１
 62
    7
 10
209.75
 20
219.5
 40
3.5
 41
1
 50
0
  1
型　　 　番
  0
TEXT
  8
_0-7_注記層１
 62
    7
 10
209.75
 20
209.5
 40
3.5
 41
1
 50
0
  1
許容電圧変動範囲
  0
TEXT
  8
_0-7_注記層１
 62
    7
 10
209.75
 20
204.5
 40
3.5
 41
1
 50
0
  1
周　　波　　数
  0
TEXT
  8
_0-7_注記層１
 62
    7
 10
209.75
 20
199.5
 40
3.5
 41
1
 50
0
  1
停　電　補　償
  0
TEXT
  8
_0-7_注記層１
 62
    7
 10
209.75
 20
214.5
 40
3.5
 41
1
 50
0
  1
電  源  電  圧
  0
TEXT
  8
_0-7_注記層１
 62
    7
 10
207.25
 20
228.75
 40
5
 41
1
 50
0
  1
規　格
  0
LINE
  8
_0-1_作画層１
  6
CONTINUOUS
 62
    7
 10
204.75
 20
228.75
 11
224.75
 21
228.75
  0
TEXT
  8
_0-7_注記層１
 62
    7
 10
239.625
 20
-15.5
 40
3.5
 41
1
 50
0
  1
1/1
  0
TEXT
  8
_0-7_注記層１
 62
    7
 10
273.75
 20
-13
 40
3.5
 41
1
 50
0
  1
承認
  0
TEXT
  8
_0-7_注記層１
 62
    7
 10
212.25
 20
-26.25
 40
5
 41
1
 50
0
  1
スナオ電気株式会社
  0
LINE
  8
_0-1_作画層１
  6
CONTINUOUS
 62
    7
 10
207.25
 20
-8.75
 11
207.25
 21
-28.75
  0
LINE
  8
_0-1_作画層１
  6
CONTINUOUS
 62
    7
 10
232.25
 20
-8.75
 11
232.25
 21
-18.75
  0
LINE
  8
_0-1_作画層１
  6
CONTINUOUS
 62
    7
 10
252.25
 20
-8.75
 11
252.25
 21
-18.75
  0
LINE
  8
_0-1_作画層１
  6
CONTINUOUS
 62
    7
 10
272.25
 20
-8.75
 11
272.25
 21
-18.75
  0
LINE
  8
_0-1_作画層１
  6
CONTINUOUS
 62
    7
 10
297.25
 20
-28.75
 11
297.25
 21
-8.75
  0
LINE
  8
_0-1_作画層１
  6
CONTINUOUS
 62
    7
 10
352.25
 20
248.75
 11
-45.25
 21
248.75
  0
LINE
  8
_0-1_作画層１
  6
CONTINUOUS
 62
    7
 10
-45.25
 20
-28.75
 11
-45.25
 21
248.75
  0
LINE
  8
_0-1_作画層１
  6
CONTINUOUS
 62
    7
 10
352.25
 20
-28.75
 11
-45.25
 21
-28.75
  0
LINE
  8
_0-1_作画層１
  6
CONTINUOUS
 62
    7
 10
352.25
 20
-8.75
 11
207.25
 21
-8.75
  0
LINE
  8
_0-1_作画層１
  6
CONTINUOUS
 62
    7
 10
352.25
 20
-18.75
 11
207.25
 21
-18.75
  0
LINE
  8
_0-1_作画層１
  6
CONTINUOUS
 62
    7
 10
352.25
 20
-28.75
 11
352.25
 21
248.75
  0
TEXT
  8
_0-7_注記層１
 62
    7
 10
302.25
 20
-15.5
 40
3.5
 41
1
 50
0
  1
カレンダータイマー
  0
TEXT
  8
_0-7_注記層１
 62
    7
 10
257
 20
-15.5
 40
3.5
 41
1
 50
0
  1
ゴトウ
  0
TEXT
  8
_0-7_注記層１
 62
    7
 10
209.75
 20
194.5
 40
3.5
 41
1
 50
0
  1
使 用 周 囲 温 度
  0
TEXT
  8
_0-7_注記層１
 62
    7
 10
209.75
 20
189.5
 40
3.5
 41
1
 50
0
  1
使 用 周 囲 湿 度
  0
TEXT
  8
_0-7_注記層１
 62
    7
 10
209.75
 20
184.5
 40
3.5
 41
1
 50
0
  1
接　点　定　格
  0
TEXT
  8
_0-7_注記層１
 62
    7
 10
209.75
 20
179.5
 40
3.5
 41
1
 50
0
  1
出　　　　　力
  0
TEXT
  8
_0-7_注記層１
 62
    7
 10
209.75
 20
174.5
 40
3.5
 41
1
 50
0
  1
設　定　回　数
  0
TEXT
  8
_0-7_注記層１
 62
    7
 10
209.75
 20
169.5
 40
3.5
 41
1
 50
0
  1
最 小 設 定 時 間
  0
TEXT
  8
_0-7_注記層１
 62
    7
 10
209.75
 20
164.5
 40
3.5
 41
1
 50
0
  1
時　間　精　度
  0
TEXT
  8
_0-7_注記層１
 62
    7
 10
209.75
 20
159.5
 40
3.5
 41
1
 50
0
  1
消　費　電　力　
  0
TEXT
  8
_0-7_注記層１
 62
    7
 10
209.75
 20
154.5
 40
3.5
 41
1
 50
0
  1
重　　　  　量
  0
TEXT
  8
_0-7_注記層１
 62
    7
 10
209.75
 20
149.5
 40
3.5
 41
1
 50
0
  1
外　形　寸　法
  0
TEXT
  8
_0-7_注記層１
 62
    7
 10
244.75
 20
194.5
 40
3.5
 41
1
 50
0
  1
-10℃～50℃
  0
TEXT
  8
_0-7_注記層１
 62
    7
 10
244.75
 20
179.5
 40
3.5
 41
1
 50
0
  1
接点出力（1a）
  0
TEXT
  8
_0-7_注記層１
 62
    7
 10
244.75
 20
219.5
 40
3.5
 41
1
 50
0
  1
ET-100S
  0
TEXT
  8
_0-7_注記層１
 62
    7
 10
244.75
 20
199.5
 40
3.5
 41
1
 50
0
  1
なし
  0
TEXT
  8
_0-7_注記層１
 62
    7
 10
244.75
 20
184.5
 40
3.5
 41
1
 50
0
  1
抵抗負荷　AC250V  7A
  0
TEXT
  8
_0-7_注記層１
 62
    7
 10
244.75
 20
169.5
 40
3.5
 41
1
 50
0
  1
15分
  0
TEXT
  8
_0-7_注記層１
 62
    7
 10
244.75
 20
164.5
 40
3.5
 41
1
 50
0
  1
電源周波数に同期
  0
TEXT
  8
_0-7_注記層１
 62
    7
 10
244.75
 20
159.5
 40
3.5
 41
1
 50
0
  1
約3VA
  0
TEXT
  8
_0-7_注記層１
 62
    7
 10
244.75
 20
154.5
 40
3.5
 41
1
 50
0
  1
520g
  0
TEXT
  8
_0-7_注記層１
 62
    7
 10
209.75
 20
144.5
 40
3.5
 41
1
 50
0
  1
付　　属　　品
  0
LINE
  8
_0-1_作画層１
  6
CONTINUOUS
 62
    7
 10
207.25
 20
140
 11
207.25
 21
223.75
  0
LINE
  8
_0-1_作画層１
  6
CONTINUOUS
 62
    7
 10
242.25
 20
140
 11
242.25
 21
223.75
  0
LINE
  8
_0-1_作画層１
  6
CONTINUOUS
 62
    7
 10
319.75
 20
140
 11
319.75
 21
223.75
  0
LINE
  8
_0-1_作画層１
  6
CONTINUOUS
 62
    7
 10
319.75
 20
223.75
 11
207.25
 21
223.75
  0
LINE
  8
_0-1_作画層１
  6
CONTINUOUS
 62
    7
 10
319.75
 20
218.75
 11
207.25
 21
218.75
  0
LINE
  8
_0-1_作画層１
  6
CONTINUOUS
 62
    7
 10
319.75
 20
213.75
 11
207.25
 21
213.75
  0
LINE
  8
_0-1_作画層１
  6
CONTINUOUS
 62
    7
 10
319.75
 20
208.75
 11
207.25
 21
208.75
  0
LINE
  8
_0-1_作画層１
  6
CONTINUOUS
 62
    7
 10
319.75
 20
203.75
 11
207.25
 21
203.75
  0
LINE
  8
_0-1_作画層１
  6
CONTINUOUS
 62
    7
 10
319.75
 20
198.75
 11
207.25
 21
198.75
  0
LINE
  8
_0-1_作画層１
  6
CONTINUOUS
 62
    7
 10
319.75
 20
193.75
 11
207.25
 21
193.75
  0
LINE
  8
_0-1_作画層１
  6
CONTINUOUS
 62
    7
 10
319.75
 20
193.75
 11
207.25
 21
193.75
  0
LINE
  8
_0-1_作画層１
  6
CONTINUOUS
 62
    7
 10
319.75
 20
188.75
 11
207.25
 21
188.75
  0
LINE
  8
_0-1_作画層１
  6
CONTINUOUS
 62
    7
 10
319.75
 20
183.75
 11
207.25
 21
183.75
  0
LINE
  8
_0-1_作画層１
  6
CONTINUOUS
 62
    7
 10
319.75
 20
178.75
 11
207.25
 21
178.75
  0
LINE
  8
_0-1_作画層１
  6
CONTINUOUS
 62
    7
 10
319.75
 20
173.75
 11
207.25
 21
173.75
  0
LINE
  8
_0-1_作画層１
  6
CONTINUOUS
 62
    7
 10
319.75
 20
168.75
 11
207.25
 21
168.75
  0
LINE
  8
_0-1_作画層１
  6
CONTINUOUS
 62
    7
 10
319.75
 20
163.75
 11
207.25
 21
163.75
  0
LINE
  8
_0-1_作画層１
  6
CONTINUOUS
 62
    7
 10
319.75
 20
158.75
 11
207.25
 21
158.75
  0
LINE
  8
_0-1_作画層１
  6
CONTINUOUS
 62
    7
 10
319.75
 20
153.75
 11
207.25
 21
153.75
  0
LINE
  8
_0-1_作画層１
  6
CONTINUOUS
 62
    7
 10
319.75
 20
148.75
 11
207.25
 21
148.75
  0
LINE
  8
_0-1_作画層１
  6
CONTINUOUS
 62
    7
 10
319.75
 20
140
 11
207.25
 21
140
  0
TEXT
  8
_0-7_注記層１
 62
    7
 10
-17.75
 20
233.75
 40
5
 41
1
 50
0
  1
外形寸法
  0
LINE
  8
_0-1_作画層１
  6
CONTINUOUS
 62
    7
 10
-20.25
 20
233.75
 11
4.75
 21
233.75
  0
ARC
  8
_0-1_作画層１
  6
CONTINUOUS
 62
    7
 10
-27.25
 20
225.25
 40
3
 50
89.99999999999946
 51
180
  0
LINE
  8
_0-1_作画層１
  6
CONTINUOUS
 62
    7
 10
-27.25
 20
228.25
 11
62.749999999999986
 21
228.25
  0
ARC
  8
_0-1_作画層１
  6
CONTINUOUS
 62
    7
 10
62.75
 20
225.25
 40
3
 50
0
 51
90.000000000000284
  0
LINE
  8
_0-1_作画層１
  6
CONTINUOUS
 62
    7
 10
65.75
 20
225.25
 11
65.749999999999986
 21
89.25
  0
ARC
  8
_0-1_作画層１
  6
CONTINUOUS
 62
    7
 10
62.750000000000014
 20
89.249999999999972
 40
2.9999999999999716
 50
269.99999999999943
 51
0.0000000000005852
  0
ARC
  8
_0-1_作画層１
  6
CONTINUOUS
 62
    7
 10
-27.25
 20
225.25508260033854
 40
1
 50
89.999999999999588
 51
180
  0
LINE
  8
_0-1_作画層１
  6
CONTINUOUS
 62
    7
 10
-27.25
 20
226.25508260033854
 11
62.75
 21
226.25508260033854
  0
ARC
  8
_0-1_作画層１
  6
CONTINUOUS
 62
    7
 10
62.750000000000014
 20
225.25508260033854
 40
0.9999999999999853
 50
0
 51
90.00000000000081
  0
LINE
  8
_0-1_作画層１
  6
CONTINUOUS
 62
    7
 10
63.75
 20
225.25508260033854
 11
63.749999999999986
 21
90.14442719099992
  0
ARC
  8
_0-1_作画層１
  6
CONTINUOUS
 62
    7
 10
62.75
 20
90.144427190999892
 40
0.9999999999999853
 50
269.9999999999992
 51
0.0000000000016284
  0
ARC
  8
_0-1_作画層１
  6
CONTINUOUS
 62
    7
 10
-25.75
 20
223.75
 40
1
 50
89.999999999999588
 51
180
  0
LINE
  8
_0-1_作画層１
  6
CONTINUOUS
 62
    7
 10
-25.75
 20
224.75
 11
61.249999999999986
 21
224.75
  0
ARC
  8
_0-1_作画層１
  6
CONTINUOUS
 62
    7
 10
61.25
 20
223.75
 40
1
 50
0
 51
90.00000000000081
  0
LINE
  8
_0-d_0_1
  6
CONTINUOUS
 62
    7
 10
115.24999237060547
 20
227.24996948242187
 11
122.24996614456177
 21
227.24996948242187
  0
LINE
  8
_0-d_0_1
  6
CONTINUOUS
 62
    7
 10
115.24999237060547
 20
227.24996948242187
 11
115.24999237060547
 21
85.249988555908203
  0
LINE
  8
_0-d_0_1
  6
CONTINUOUS
 62
    7
 10
122.24996614456177
 20
227.24996948242187
 11
122.24996614456177
 21
85.249988555908203
  0
LINE
  8
_0-d_0_1
  6
CONTINUOUS
 62
    7
 10
115.24999237060547
 20
85.249988555908203
 11
122.24996614456177
 21
85.249988555908203
  0
LINE
  8
_0-d_0_1
  6
CONTINUOUS
 62
    7
 10
115.24999237060547
 20
85.249996185302734
 11
122.24996614456177
 21
85.249996185302734
  0
LINE
  8
_0-d_0_1
  6
CONTINUOUS
 62
    7
 10
164.25000381469727
 20
99.749973297119141
 11
164.25000381469727
 21
90.749988555908203
  0
LINE
  8
_0-d_0_1
  6
CONTINUOUS
 62
    7
 10
122.24996614456177
 20
87.149990081787109
 11
162.25
 21
87.549991607666016
  0
LINE
  8
_0-d_0_1
  6
CONTINUOUS
 62
    7
 10
162.25
 20
99.749973297119141
 11
164.25000381469727
 21
99.749973297119141
  0
LINE
  8
_0-d_0_1
  6
CONTINUOUS
 62
    7
 10
162.25
 20
90.749988555908203
 11
164.25000381469727
 21
90.749988555908203
  0
LINE
  8
_0-d_0_1
  6
CONTINUOUS
 62
    7
 10
164.25000381469727
 20
219.24999237060547
 11
164.25000381469727
 21
203.24996566772458
  0
LINE
  8
_0-d_0_1
  6
CONTINUOUS
 62
    7
 10
122.24996614456177
 20
225.34997940063477
 11
162.25
 21
224.94999313354492
  0
LINE
  8
_0-d_0_1
  6
CONTINUOUS
 62
    7
 10
162.25
 20
224.94999313354492
 11
162.25
 21
87.549991607666016
  0
LINE
  8
_0-d_0_1
  6
CONTINUOUS
 62
    7
 10
162.25
 20
219.24999237060547
 11
164.25000381469727
 21
219.24999237060547
  0
LINE
  8
_0-d_0_1
  6
CONTINUOUS
 62
    7
 10
162.25
 20
203.24996566772458
 11
164.25000381469727
 21
203.24996566772458
  0
LINE
  8
_0-d_0_1
  6
CONTINUOUS
 62
    7
 10
163.25
 20
159.24999427795413
 11
163.25
 21
155.2499809265137
  0
LINE
  8
_0-d_0_1
  6
CONTINUOUS
 62
    7
 10
162.25
 20
155.2499809265137
 11
163.25
 21
155.2499809265137
  0
LINE
  8
_0-d_0_1
  6
CONTINUOUS
 62
    7
 10
162.25
 20
159.24999427795413
 11
163.25
 21
159.24999427795413
  0
LINE
  8
_0-d_0_1
  6
CONTINUOUS
 62
    7
 10
115.24999237060547
 20
228.25
 11
115.24999237060547
 21
86.249973297119141
  0
LINE
  8
_0-d_0_1
  6
CONTINUOUS
 62
    7
 10
113.24998569488525
 20
228.25
 11
115.24999237060547
 21
228.25
  0
LINE
  8
_0-d_0_1
  6
CONTINUOUS
 62
    7
 10
115.24999237060547
 20
86.249973297119141
 11
113.24998569488525
 21
86.249973297119141
  0
LINE
  8
_0-d_0_1
  6
CONTINUOUS
 62
    7
 10
113.24998569488525
 20
228.25
 11
113.24998569488525
 21
86.249973297119141
  0
LINE
  8
_0-d_0_1
  6
CONTINUOUS
 62
    7
 10
113.24998569488525
 20
226.24999237060547
 11
94.249973297119141
 21
224.58771514892578
  0
LINE
  8
_0-d_0_1
  6
CONTINUOUS
 62
    7
 10
113.24998569488525
 20
88.249980926513672
 11
105.24998378753662
 21
88.949916839599609
  0
LINE
  8
_0-d_0_1
  6
CONTINUOUS
 62
    7
 10
94.249973297119141
 20
132.7499809265137
 11
94.249973297119141
 21
224.58771514892578
  0
LINE
  8
_0-d_0_1
  6
CONTINUOUS
 62
    7
 10
105.24998378753662
 20
124.24997711181643
 11
105.24998378753662
 21
88.949916839599609
  0
LINE
  8
_0-d_0_1
  6
CONTINUOUS
 62
    7
 10
94.249998092651367
 20
132.7499809265137
 11
100.01185607910156
 21
131.20608139038089
  0
LINE
  8
_0-d_0_1
  6
CONTINUOUS
 62
    7
 10
115.2499676266234
 20
142.74996566772464
 11
115.2499676266234
 21
212.74999618530273
  0
LINE
  8
_0-d_0_1
  6
CONTINUOUS
 62
    7
 10
97.249982833862305
 20
169.24997806549075
 11
103.24997806549072
 21
168.74997615814212
  0
LINE
  8
_0-d_0_1
  6
CONTINUOUS
 62
    7
 10
97.249982833862305
 20
186.24998378753659
 11
103.24997806549072
 21
186.749960899353
  0
LINE
  8
_0-d_0_1
  6
CONTINUOUS
 62
    7
 10
101.74997234344482
 20
204.24999427795407
 11
100.74996948242187
 21
186.54164123535153
  0
LINE
  8
_0-d_0_1
  6
CONTINUOUS
 62
    7
 10
101.74997234344482
 20
204.24999427795407
 11
101.74997234344482
 21
186.62497901916501
  0
LINE
  8
_0-d_0_1
  6
CONTINUOUS
 62
    7
 10
101.74997234344482
 20
204.24999427795407
 11
103.24997806549072
 21
204.24999427795407
  0
LINE
  8
_0-d_0_1
  6
CONTINUOUS
 62
    7
 10
103.24997806549072
 20
181.49998092651364
 11
105.24998378753662
 21
181.49998092651364
  0
LINE
  8
_0-d_0_1
  6
CONTINUOUS
 62
    7
 10
103.24997806549072
 20
173.99998092651364
 11
105.24998378753662
 21
173.99998092651364
  0
LINE
  8
_0-d_0_1
  6
CONTINUOUS
 62
    7
 10
103.24997806549072
 20
204.24999427795407
 11
103.24997806549072
 21
168.74997615814212
  0
LINE
  8
_0-d_0_1
  6
CONTINUOUS
 62
    7
 10
105.24995899200439
 20
178.74998426437375
 11
113.7499874830246
 21
178.74998426437375
  0
LINE
  8
_0-d_0_1
  6
CONTINUOUS
 62
    7
 10
97.249982833862305
 20
186.23291110992429
 11
97.249982833862305
 21
169.24997806549075
  0
ARC
  8
_0-d_0_1
  6
CONTINUOUS
 62
    7
 10
98.258652737850866
 20
124.42617627745267
 40
6.9999999999998632
 50
356.81216430664011
 51
76.243179321289816
  0
LINE
  8
_0-d_0_1
  6
CONTINUOUS
 62
    7
 10
96.249982833862305
 20
170.2499809265137
 11
97.249982833862305
 21
170.2499809265137
  0
LINE
  8
_0-d_0_1
  6
CONTINUOUS
 62
    7
 10
96.249982833862305
 20
185.24998092651364
 11
97.249982833862305
 21
185.24998092651364
  0
LINE
  8
_0-d_0_1
  6
CONTINUOUS
 62
    7
 10
96.249982833862305
 20
185.24998092651364
 11
96.249982833862305
 21
170.2499809265137
  0
LINE
  8
_0-d_0_1
  6
CONTINUOUS
 62
    7
 10
-12.156517079586592
 20
176.38359192246804
 11
-19.138084462399092
 21
175.83115986222634
  0
LINE
  8
_0-d_0_1
  6
CONTINUOUS
 62
    7
 10
-19.203479817623702
 20
176.82901779050241
 11
-12.209543278927413
 21
177.19258156651864
  0
LINE
  8
_0-d_0_1
  6
CONTINUOUS
 62
    7
 10
-11.937719395870772
 20
174.43267849320779
 11
-18.868194630856124
 21
173.42481211060891
  0
LINE
  8
_0-d_0_1
  6
CONTINUOUS
 62
    7
 10
-18.998714497799483
 20
174.41625717515359
 11
-12.043535283321944
 21
175.236471446699
  0
LINE
  8
_0-d_0_1
  6
CONTINUOUS
 62
    7
 10
-11.591783574337569
 20
172.50025156373391
 11
-18.441505482906905
 21
171.04126337403665
  0
LINE
  8
_0-d_0_1
  6
CONTINUOUS
 62
    7
 10
-18.636596730465499
 20
172.02205255860696
 11
-11.749952367062178
 21
173.29540041322122
  0
LINE
  8
_0-d_0_1
  6
CONTINUOUS
 62
    7
 10
-11.120206883663741
 20
170.59458616608987
 11
-17.859844258541671
 21
168.690732749647
  0
LINE
  8
_0-d_0_1
  6
CONTINUOUS
 62
    7
 10
-18.11866002392253
 20
169.6566579663218
 11
-11.33003812145671
 21
171.37769726151834
  0
LINE
  8
_0-d_0_1
  6
CONTINUOUS
 62
    7
 10
-10.525011113400069
 20
168.72384718293557
 11
-17.125694325680342
 21
166.38327196473489
  0
LINE
  8
_0-d_0_1
  6
CONTINUOUS
 62
    7
 10
-17.447132161373702
 20
167.33020380372415
 11
-10.785602620358077
 21
169.49155119294534
  0
LINE
  8
_0-d_0_1
  6
CONTINUOUS
 62
    7
 10
-9.8087235004850299
 20
166.89603689545999
 11
-16.242198994869796
 21
164.12877634400735
  0
LINE
  8
_0-d_0_1
  6
CONTINUOUS
 62
    7
 10
-16.624877980465499
 20
165.05265501374612
 11
-10.118982365841475
 21
167.64505365723977
  0
LINE
  8
_0-d_0_1
  6
CONTINUOUS
 62
    7
 10
-8.9744320423551471
 20
165.11898783082376
 11
-15.21314244579753
 21
161.93688753480325
  0
LINE
  8
_0-d_0_1
  6
CONTINUOUS
 62
    7
 10
-15.655437520260421
 20
162.83375814790139
 11
-9.3330097706266315
 21
165.84611585969338
  0
LINE
  8
_0-d_0_1
  6
CONTINUOUS
 62
    7
 10
-14.542934468502608
 20
160.68301370973001
 11
-8.4310646564908893
 21
164.10242536897073
  0
LINE
  8
_0-d_0_1
  6
CONTINUOUS
 62
    7
 10
4.8461141078523724
 20
151.66699198121438
 11
1.8337563960603802
 21
145.34456423158059
  0
LINE
  8
_0-d_0_1
  6
CONTINUOUS
 62
    7
 10
0.9368857829622356
 20
145.78685930604348
 11
4.1189860789827435
 21
152.02556970948586
  0
LINE
  8
_0-d_0_1
  6
CONTINUOUS
 62
    7
 10
6.6450519053987591
 20
150.88101938599954
 11
4.0526532619051068
 21
144.37512377137551
  0
LINE
  8
_0-d_0_1
  6
CONTINUOUS
 62
    7
 10
3.1287745921663372
 20
144.75780275697122
 11
5.896035143618974
 21
151.19127825135598
  0
LINE
  8
_0-d_0_1
  6
CONTINUOUS
 62
    7
 10
8.4915494411043255
 20
150.21439913148293
 11
6.3302020518831341
 21
143.55286959046731
  0
LINE
  8
_0-d_0_1
  6
CONTINUOUS
 62
    7
 10
5.3832702128938763
 20
143.87430742616067
 11
7.7238454310945599
 21
150.47499063844094
  0
LINE
  8
_0-d_0_1
  6
CONTINUOUS
 62
    7
 10
10.377695509677324
 20
149.6699636303843
 11
8.6566562144807904
 21
142.88134172791848
  0
LINE
  8
_0-d_0_1
  6
CONTINUOUS
 62
    7
 10
7.6907309978059857
 20
143.14015749329934
 11
9.5945844142488568
 21
149.87979486817727
  0
LINE
  8
_0-d_0_1
  6
CONTINUOUS
 62
    7
 10
12.295398661380204
 20
149.25004938477883
 11
11.022050806765947
 21
142.36339739198098
  0
LINE
  8
_0-d_0_1
  6
CONTINUOUS
 62
    7
 10
10.041261622195634
 20
142.55849626893411
 11
11.5002498118929
 21
149.40821817750344
  0
LINE
  8
_0-d_0_1
  6
CONTINUOUS
 62
    7
 10
14.236469694857988
 20
148.95646646851907
 11
13.416255423312577
 21
142.00128725404153
  0
LINE
  8
_0-d_0_1
  6
CONTINUOUS
 62
    7
 10
12.4248103587679
 20
142.13180712098489
 11
13.432676741366777
 21
149.06228235597024
  0
LINE
  8
_0-d_0_1
  6
CONTINUOUS
 62
    7
 10
16.192579814677629
 20
148.7904584729136
 11
15.829016038661393
 21
141.79652193421731
  0
LINE
  8
_0-d_0_1
  6
CONTINUOUS
 62
    7
 10
14.831158110385331
 20
141.86191728944192
 11
15.383590170627031
 21
148.84348467225442
  0
LINE
  8
_0-d_0_1
  6
CONTINUOUS
 62
    7
 10
18.1553652374796
 20
148.75274256104836
 11
18.250000604873094
 21
141.75000551576028
  0
LINE
  8
_0-d_0_1
  6
CONTINUOUS
 62
    7
 10
17.249999293570909
 20
141.75000551576028
 11
17.344634660964402
 21
148.75274256104836
  0
LINE
  8
_0-d_0_1
  6
CONTINUOUS
 62
    7
 10
20.116409727816972
 20
148.84348467225442
 11
20.668841788058657
 21
141.86192873353372
  0
LINE
  8
_0-d_0_1
  6
CONTINUOUS
 62
    7
 10
19.670983859782609
 20
141.79652193421731
 11
19.307420083766374
 21
148.7904584729136
  0
LINE
  8
_0-d_0_1
  6
CONTINUOUS
 62
    7
 10
22.067323157077212
 20
149.06228235597024
 11
23.075198122744936
 21
142.13180712098489
  0
LINE
  8
_0-d_0_1
  6
CONTINUOUS
 62
    7
 10
22.083753058200259
 20
142.00128725404153
 11
21.263530203586001
 21
148.95646646851907
  0
LINE
  8
_0-d_0_1
  6
CONTINUOUS
 62
    7
 10
23.999750086551089
 20
149.40821817750344
 11
25.458746859317202
 21
142.55849626893411
  0
LINE
  8
_0-d_0_1
  6
CONTINUOUS
 62
    7
 10
24.477940508609194
 20
142.36340502137551
 11
23.204609820132632
 21
149.25004938477883
  0
LINE
  8
_0-d_0_1
  6
CONTINUOUS
 62
    7
 10
25.905424067263979
 20
149.87979486817727
 11
27.809260317569155
 21
143.14015749329934
  0
LINE
  8
_0-d_0_1
  6
CONTINUOUS
 62
    7
 10
26.843343683963198
 20
142.88134172791848
 11
25.122304388766665
 21
149.6699636303843
  0
LINE
  8
_0-d_0_1
  6
CONTINUOUS
 62
    7
 10
27.776154467349429
 20
150.47499063844094
 11
30.116729685550112
 21
143.87430742616067
  0
LINE
  8
_0-d_0_1
  6
CONTINUOUS
 62
    7
 10
29.169797846560854
 20
143.55286959046731
 11
27.008450457339663
 21
150.21439913148293
  0
LINE
  8
_0-d_0_1
  6
CONTINUOUS
 62
    7
 10
29.603964754825014
 20
151.19127825135598
 11
32.371233889346499
 21
144.75780275697122
  0
LINE
  8
_0-d_0_1
  6
CONTINUOUS
 62
    7
 10
31.447346636538882
 20
144.37512377137551
 11
28.854947993045229
 21
150.88101938599954
  0
LINE
  8
_0-d_0_1
  6
CONTINUOUS
 62
    7
 10
31.381013819461245
 20
152.02556970948586
 11
34.563114115481753
 21
145.78685930604348
  0
LINE
  8
_0-d_0_1
  6
CONTINUOUS
 62
    7
 10
33.666243502383608
 20
145.34456423158059
 11
30.653885790591616
 21
151.66699198121438
  0
LINE
  8
_0-d_0_1
  6
CONTINUOUS
 62
    7
 10
39.247903773074526
 20
157.8253705822886
 11
44.266509958987612
 21
152.94060304993997
  0
LINE
  8
_0-d_0_1
  6
CONTINUOUS
 62
    7
 10
43.559398600345034
 20
152.23350122804055
 11
38.674631067996401
 21
157.25209787721047
  0
LINE
  8
_0-d_0_1
  6
CONTINUOUS
 62
    7
 10
40.570419260745425
 20
159.27620485658059
 11
45.897752711062807
 21
154.73012712830911
  0
LINE
  8
_0-d_0_1
  6
CONTINUOUS
 62
    7
 10
45.23839182544269
 20
153.97829225892434
 11
40.035852381472964
 21
158.66666963929543
  0
LINE
  8
_0-d_0_1
  6
CONTINUOUS
 62
    7
 10
41.795192667727846
 20
160.81042269105325
 11
47.408452936892886
 21
156.62250307435403
  0
LINE
  8
_0-d_0_1
  6
CONTINUOUS
 62
    7
 10
46.79969782519855
 20
155.8291547619761
 11
41.301658579593081
 21
160.16723039979348
  0
LINE
  8
_0-d_0_1
  6
CONTINUOUS
 62
    7
 10
42.917013117556948
 20
162.42146471375833
 11
48.792158076053042
 21
158.60964372987161
  0
LINE
  8
_0-d_0_1
  6
CONTINUOUS
 62
    7
 10
48.236595103030581
 20
157.77817133302102
 11
42.466590830569643
 21
161.74737146729836
  0
LINE
  8
_0-d_0_1
  6
CONTINUOUS
 62
    7
 10
43.931064554934878
 20
164.10242536897073
 11
50.042934366946596
 21
160.68301370973001
  0
LINE
  8
_0-d_0_1
  6
CONTINUOUS
 62
    7
 10
49.542941996341128
 20
159.81699159974465
 11
43.525699564700503
 21
163.40031984681497
  0
LINE
  8
_0-d_0_1
  6
CONTINUOUS
 62
    7
 10
44.83300966907062
 20
165.84611585969338
 11
51.155425974612612
 21
162.83375814790139
  0
LINE
  8
_0-d_0_1
  6
CONTINUOUS
 62
    7
 10
50.713142344241518
 20
161.93688753480325
 11
44.474431940799136
 21
165.11898783082376
  0
LINE
  8
_0-d_0_1
  6
CONTINUOUS
 62
    7
 10
45.618982264285464
 20
167.64505365723977
 11
52.124877878909487
 21
165.05265501374612
  0
LINE
  8
_0-d_0_1
  6
CONTINUOUS
 62
    7
 10
51.742206522708315
 20
164.12877634400735
 11
45.308732935672182
 21
166.89603689545999
  0
LINE
  8
_0-d_0_1
  6
CONTINUOUS
 62
    7
 10
46.285602518802065
 20
169.49155119294534
 11
52.947120615725893
 21
167.33020380372415
  0
LINE
  8
_0-d_0_1
  6
CONTINUOUS
 62
    7
 10
52.625694224124331
 20
166.38327196473489
 11
46.025011011844057
 21
168.72384718293557
  0
LINE
  8
_0-d_0_1
  6
CONTINUOUS
 62
    7
 10
46.830038019900698
 20
171.37769726151834
 11
53.618659922366518
 21
169.6566579663218
  0
LINE
  8
_0-d_0_1
  6
CONTINUOUS
 62
    7
 10
53.359836527591128
 20
168.690732749647
 11
46.620206782107729
 21
170.59458616608987
  0
LINE
  8
_0-d_0_1
  6
CONTINUOUS
 62
    7
 10
47.249961802249331
 20
173.29540041322122
 11
54.136604258304018
 21
172.02205255860696
  0
LINE
  8
_0-d_0_1
  6
CONTINUOUS
 62
    7
 10
53.941505381350893
 20
171.04126337403665
 11
47.091783472781557
 21
172.50025156373391
  0
LINE
  8
_0-d_0_1
  6
CONTINUOUS
 62
    7
 10
47.543535181765932
 20
175.236471446699
 11
54.498714396243471
 21
174.41625717515359
  0
LINE
  8
_0-d_0_1
  6
CONTINUOUS
 62
    7
 10
54.368202158694643
 20
173.42481211060891
 11
47.437709757571596
 21
174.43267849320779
  0
LINE
  8
_0-d_0_1
  6
CONTINUOUS
 62
    7
 10
47.709550806765932
 20
177.19258156651864
 11
54.703487345462221
 21
176.82901779050241
  0
LINE
  8
_0-d_0_1
  6
CONTINUOUS
 62
    7
 10
54.638084360843081
 20
175.83115986222634
 11
47.656516978030581
 21
176.38359192246804
  0
LINE
  8
_0-d_0_1
  6
CONTINUOUS
 62
    7
 10
47.747259089236636
 20
179.15536698932061
 11
54.749996134524721
 21
179.25000235671411
  0
LINE
  8
_0-d_0_1
  6
CONTINUOUS
 62
    7
 10
54.749996134524721
 20
178.25000104541192
 11
47.747259089236636
 21
178.34463641280541
  0
LINE
  8
_0-d_0_1
  6
CONTINUOUS
 62
    7
 10
47.656516978030581
 20
181.11641147965798
 11
54.638084360843081
 21
181.66884353989968
  0
LINE
  8
_0-d_0_1
  6
CONTINUOUS
 62
    7
 10
54.703487345462221
 20
180.67098561162362
 11
47.709550806765932
 21
180.30742183560739
  0
LINE
  8
_0-d_0_1
  6
CONTINUOUS
 62
    7
 10
47.437709757571596
 20
183.06732490891824
 11
54.368202158694643
 21
184.07519129151711
  0
LINE
  8
_0-d_0_1
  6
CONTINUOUS
 62
    7
 10
54.498714396243471
 20
183.08374622697244
 11
47.543535181765932
 21
182.26353195542703
  0
LINE
  8
_0-d_0_1
  6
CONTINUOUS
 62
    7
 10
47.091783472781557
 20
184.99975183839211
 11
53.941505381350893
 21
186.45874002808938
  0
LINE
  8
_0-d_0_1
  6
CONTINUOUS
 62
    7
 10
54.136604258304018
 20
185.47795084351907
 11
47.249961802249331
 21
184.20460298890481
  0
LINE
  8
_0-d_0_1
  6
CONTINUOUS
 62
    7
 10
46.620206782107729
 20
186.90541723603616
 11
53.359836527591128
 21
188.80927065247903
  0
LINE
  8
_0-d_0_1
  6
CONTINUOUS
 62
    7
 10
53.618659922366518
 20
187.84334543580422
 11
46.830038019900698
 21
186.12230614060769
  0
LINE
  8
_0-d_0_1
  6
CONTINUOUS
 62
    7
 10
46.025011011844057
 20
188.77615621919045
 11
52.625694224124331
 21
191.11673143739114
  0
LINE
  8
_0-d_0_1
  6
CONTINUOUS
 62
    7
 10
52.947120615725893
 20
190.16979959840188
 11
46.285602518802065
 21
188.00845220918069
  0
LINE
  8
_0-d_0_1
  6
CONTINUOUS
 62
    7
 10
45.308732935672182
 20
190.60396650666604
 11
51.742206522708315
 21
193.37122705811868
  0
LINE
  8
_0-d_0_1
  6
CONTINUOUS
 62
    7
 10
52.124877878909487
 20
192.44734838837991
 11
45.618982264285464
 21
189.85494974488626
  0
LINE
  8
_0-d_0_1
  6
CONTINUOUS
 62
    7
 10
44.474431940799136
 20
192.38101557130227
 11
50.713142344241518
 21
195.56311586732278
  0
LINE
  8
_0-d_0_1
  6
CONTINUOUS
 62
    7
 10
51.155425974612612
 20
194.66624525422463
 11
44.83300966907062
 21
191.65388754243264
  0
LINE
  8
_0-d_0_1
  6
CONTINUOUS
 62
    7
 10
43.525699564700503
 20
194.09968355531106
 11
49.542941996341128
 21
197.68301180238137
  0
LINE
  8
_0-d_0_1
  6
CONTINUOUS
 62
    7
 10
50.042934366946596
 20
196.81698969239602
 11
43.931064554934878
 21
193.3975780331553
  0
LINE
  8
_0-d_0_1
  6
CONTINUOUS
 62
    7
 10
42.466590830569643
 20
195.75263193482766
 11
48.236595103030581
 21
199.72183206910501
  0
LINE
  8
_0-d_0_1
  6
CONTINUOUS
 62
    7
 10
48.792158076053042
 20
198.89035967225442
 11
42.917013117556948
 21
195.0785386883677
  0
LINE
  8
_0-d_0_1
  6
CONTINUOUS
 62
    7
 10
41.301658579593081
 20
197.33277300233254
 11
46.79969782519855
 21
201.67085626954446
  0
LINE
  8
_0-d_0_1
  6
CONTINUOUS
 62
    7
 10
47.408452936892886
 20
200.877500327772
 11
41.795192667727846
 21
196.68958071107278
  0
LINE
  8
_0-d_0_1
  6
CONTINUOUS
 62
    7
 10
40.035852381472964
 20
198.83333376283059
 11
45.23839182544269
 21
203.52171114320168
  0
LINE
  8
_0-d_0_1
  6
CONTINUOUS
 62
    7
 10
45.897752711062807
 20
202.76987627381692
 11
40.570419260745425
 21
198.22379854554543
  0
LINE
  8
_0-d_0_1
  6
CONTINUOUS
 62
    7
 10
38.674631067996401
 20
200.24790552491555
 11
43.559398600345034
 21
205.26649454469094
  0
LINE
  8
_0-d_0_1
  6
CONTINUOUS
 62
    7
 10
44.266509958987612
 20
204.55940035218606
 11
39.247903773074526
 21
199.67463281983743
  0
LINE
  8
_0-d_0_1
  6
CONTINUOUS
 62
    7
 10
37.223806330447573
 20
201.57042101258645
 11
41.769874521975893
 21
206.89775446290383
  0
LINE
  8
_0-d_0_1
  6
CONTINUOUS
 62
    7
 10
42.521709391360659
 20
206.23839357728372
 11
37.833332010989565
 21
201.03586176270852
  0
LINE
  8
_0-d_0_1
  6
CONTINUOUS
 62
    7
 10
35.689569422488589
 20
202.79519441956887
 11
39.877498575930971
 21
208.40845468873391
  0
LINE
  8
_0-d_0_1
  6
CONTINUOUS
 62
    7
 10
40.670854517703432
 20
207.79968050355325
 11
36.332761713748354
 21
202.30166033143411
  0
LINE
  8
_0-d_0_1
  6
CONTINUOUS
 62
    7
 10
34.078536936526675
 20
203.91701486939797
 11
37.890357920413393
 21
209.79215982789407
  0
LINE
  8
_0-d_0_1
  6
CONTINUOUS
 62
    7
 10
38.721839854007143
 20
209.23657778138528
 11
34.752630182986636
 21
203.46659258241067
  0
LINE
  8
_0-d_0_1
  6
CONTINUOUS
 62
    7
 10
32.397567698245425
 20
204.9310663067759
 11
35.816987940554995
 21
211.04293611878762
  0
LINE
  8
_0-d_0_1
  6
CONTINUOUS
 62
    7
 10
36.683010050540346
 20
210.54294374818215
 11
33.099691340213198
 21
204.52570131654153
  0
LINE
  8
_0-d_0_1
  6
CONTINUOUS
 62
    7
 10
30.653885790591616
 20
205.83301142091165
 11
33.666243502383608
 21
212.15544679993997
  0
LINE
  8
_0-d_0_1
  6
CONTINUOUS
 62
    7
 10
34.563114115481753
 20
211.71314409608254
 11
31.381013819461245
 21
205.47443369264016
  0
LINE
  8
_0-d_0_1
  6
CONTINUOUS
 62
    7
 10
28.854947993045229
 20
206.61898401612649
 11
31.447346636538882
 21
213.12487963075051
  0
LINE
  8
_0-d_0_1
  6
CONTINUOUS
 62
    7
 10
32.371233889346499
 20
212.74220827454934
 11
29.603964754825014
 21
206.30873468751321
  0
LINE
  8
_0-d_0_1
  6
CONTINUOUS
 62
    7
 10
27.008450457339663
 20
207.28560427064309
 11
29.169797846560854
 21
213.94712236756692
  0
LINE
  8
_0-d_0_1
  6
CONTINUOUS
 62
    7
 10
30.116729685550112
 20
213.62569597596536
 11
27.776154467349429
 21
207.02501276368508
  0
LINE
  8
_0-d_0_1
  6
CONTINUOUS
 62
    7
 10
25.122304388766665
 20
207.83003977174172
 11
26.843343683963198
 21
214.61866167420754
  0
LINE
  8
_0-d_0_1
  6
CONTINUOUS
 62
    7
 10
27.809260317569155
 20
214.35983827943215
 11
25.905424067263979
 21
207.62020853394876
  0
LINE
  8
_0-d_0_1
  6
CONTINUOUS
 62
    7
 10
23.204609820132632
 20
208.24996355409036
 11
24.477940508609194
 21
215.13660601014504
  0
LINE
  8
_0-d_0_1
  6
CONTINUOUS
 62
    7
 10
25.458746859317202
 20
214.94150713319192
 11
23.999750086551089
 21
208.09178522462258
  0
LINE
  8
_0-d_0_1
  6
CONTINUOUS
 62
    7
 10
21.263530203586001
 20
208.54353693360696
 11
22.083753058200259
 21
215.4987161480845
  0
LINE
  8
_0-d_0_1
  6
CONTINUOUS
 62
    7
 10
23.075198122744936
 20
215.36820391053567
 11
22.067323157077212
 21
208.43771150941262
  0
LINE
  8
_0-d_0_1
  6
CONTINUOUS
 62
    7
 10
19.307420083766374
 20
208.70955255860696
 11
19.670983859782609
 21
215.70348909730325
  0
LINE
  8
_0-d_0_1
  6
CONTINUOUS
 62
    7
 10
20.668841788058657
 20
215.63808611268411
 11
20.116409727816972
 21
208.65651872987161
  0
LINE
  8
_0-d_0_1
  6
CONTINUOUS
 62
    7
 10
17.344634660964402
 20
208.74726084107766
 11
17.249999293570909
 21
215.74999788636575
  0
LINE
  8
_0-d_0_1
  6
CONTINUOUS
 62
    7
 10
18.250000604873094
 20
215.74999788636575
 11
18.1553652374796
 21
208.74726084107766
  0
LINE
  8
_0-d_0_1
  6
CONTINUOUS
 62
    7
 10
15.383590170627031
 20
208.65651872987161
 11
14.831149527316484
 21
215.63808611268411
  0
LINE
  8
_0-d_0_1
  6
CONTINUOUS
 62
    7
 10
15.829016038661393
 20
215.70348909730325
 11
16.192579814677629
 21
208.70955255860696
  0
LINE
  8
_0-d_0_1
  6
CONTINUOUS
 62
    7
 10
13.432676741366777
 20
208.43771150941262
 11
12.4248103587679
 21
215.36820391053567
  0
LINE
  8
_0-d_0_1
  6
CONTINUOUS
 62
    7
 10
13.416255423312577
 20
215.4987161480845
 11
14.236469694857988
 21
208.54353693360696
  0
LINE
  8
_0-d_0_1
  6
CONTINUOUS
 62
    7
 10
11.5002498118929
 20
208.09178522462258
 11
10.041261622195634
 21
214.94150713319192
  0
LINE
  8
_0-d_0_1
  6
CONTINUOUS
 62
    7
 10
11.022050806765947
 20
215.13660601014504
 11
12.295398661380204
 21
208.24996355409036
  0
LINE
  8
_0-d_0_1
  6
CONTINUOUS
 62
    7
 10
9.5945844142488568
 20
207.62020853394876
 11
7.6907309978059857
 21
214.35983827943215
  0
LINE
  8
_0-d_0_1
  6
CONTINUOUS
 62
    7
 10
8.6566562144807904
 20
214.61866167420754
 11
10.377695509677324
 21
207.83003977174172
  0
LINE
  8
_0-d_0_1
  6
CONTINUOUS
 62
    7
 10
7.7238454310945599
 20
207.02501276368508
 11
5.3832702128938763
 21
213.62569597596536
  0
LINE
  8
_0-d_0_1
  6
CONTINUOUS
 62
    7
 10
6.3302020518831341
 20
213.94712236756692
 11
8.4915494411043255
 21
207.28560427064309
  0
LINE
  8
_0-d_0_1
  6
CONTINUOUS
 62
    7
 10
5.896035143618974
 20
206.30871752137551
 11
3.1287745921663372
 21
212.74220827454934
  0
LINE
  8
_0-d_0_1
  6
CONTINUOUS
 62
    7
 10
4.0526532619051068
 20
213.12487963075051
 11
6.6450519053987591
 21
206.61898401612649
  0
LINE
  8
_0-d_0_1
  6
CONTINUOUS
 62
    7
 10
4.1189860789827435
 20
205.47443369264016
 11
0.9368857829622356
 21
211.71314409608254
  0
LINE
  8
_0-d_0_1
  6
CONTINUOUS
 62
    7
 10
1.8337563960603802
 20
212.15544679993997
 11
4.8461141078523724
 21
205.83301142091165
  0
LINE
  8
_0-d_0_1
  6
CONTINUOUS
 62
    7
 10
2.4003180949739544
 20
204.52570131654153
 11
-1.1830101520963581
 21
210.54294374818215
  0
LINE
  8
_0-d_0_1
  6
CONTINUOUS
 62
    7
 10
-0.3169880421110065
 20
211.04293611878762
 11
3.1024236171297161
 21
204.9310663067759
  0
LINE
  8
_0-d_0_1
  6
CONTINUOUS
 62
    7
 10
0.7473697154573528
 20
203.46659258241067
 11
-3.2218304188199909
 21
209.23657778138528
  0
LINE
  8
_0-d_0_1
  6
CONTINUOUS
 62
    7
 10
-2.3903580219694049
 20
209.79215982789407
 11
1.4214629619173138
 21
203.91701486939797
  0
LINE
  8
_0-d_0_1
  6
CONTINUOUS
 62
    7
 10
-0.8327713520475299
 20
202.30166033143411
 11
-5.1708469898649128
 21
207.79968050355325
  0
LINE
  8
_0-d_0_1
  6
CONTINUOUS
 62
    7
 10
-4.3774986774869831
 20
208.40845468873391
 11
-0.1895790607877643
 21
202.79519441956887
  0
LINE
  8
_0-d_0_1
  6
CONTINUOUS
 62
    7
 10
-2.3333321125455768
 20
201.03586176270852
 11
-7.0217094929166706
 21
206.23839357728372
  0
LINE
  8
_0-d_0_1
  6
CONTINUOUS
 62
    7
 10
-6.2698746235319049
 20
206.89775446290383
 11
-1.7237968952604206
 21
201.57042101258645
  0
LINE
  8
_0-d_0_1
  6
CONTINUOUS
 62
    7
 10
-8.0593987019010456
 20
205.26649454469094
 11
-3.1746311695524128
 21
200.24790552491555
  0
LINE
  8
_0-d_0_1
  6
CONTINUOUS
 62
    7
 10
-9.3330097706266315
 20
191.65388754243264
 11
-15.655437520260421
 21
194.66624525422463
  0
LINE
  8
_0-d_0_1
  6
CONTINUOUS
 62
    7
 10
-15.21314244579753
 20
195.56311586732278
 11
-8.9744320423551471
 21
192.38100603455911
  0
LINE
  8
_0-d_0_1
  6
CONTINUOUS
 62
    7
 10
-10.118982365841475
 20
189.85494974488626
 11
-16.62488560986003
 21
192.44734838837991
  0
LINE
  8
_0-d_0_1
  6
CONTINUOUS
 62
    7
 10
-16.242198994869796
 20
193.37122705811868
 11
-9.808733037228194
 21
190.60396650666604
  0
LINE
  8
_0-d_0_1
  6
CONTINUOUS
 62
    7
 10
-10.785602620358077
 20
188.00845220918069
 11
-17.447132161373702
 21
190.16979101533303
  0
LINE
  8
_0-d_0_1
  6
CONTINUOUS
 62
    7
 10
-17.125694325680342
 20
191.11672285432229
 11
-10.525011113400069
 21
188.77615621919045
  0
LINE
  8
_0-d_0_1
  6
CONTINUOUS
 62
    7
 10
-11.33003812145671
 20
186.12230614060769
 11
-18.11866002392253
 21
187.84334543580422
  0
LINE
  8
_0-d_0_1
  6
CONTINUOUS
 62
    7
 10
-17.859844258541671
 20
188.80927065247903
 11
-11.120206883663741
 21
186.90541723603616
  0
LINE
  8
_0-d_0_1
  6
CONTINUOUS
 62
    7
 10
-11.749952367062178
 20
184.20460298890481
 11
-18.63660435986003
 21
185.47795084351907
  0
LINE
  8
_0-d_0_1
  6
CONTINUOUS
 62
    7
 10
-18.441505482906905
 20
186.45874002808938
 11
-11.591783574337569
 21
184.99975183839211
  0
LINE
  8
_0-d_0_1
  6
CONTINUOUS
 62
    7
 10
-12.043535283321944
 20
182.26353195542703
 11
-18.998714497799483
 21
183.08374622697244
  0
LINE
  8
_0-d_0_1
  6
CONTINUOUS
 62
    7
 10
-18.868194630856124
 20
184.07519129151711
 11
-11.937719395870772
 21
183.06732490891824
  0
LINE
  8
_0-d_0_1
  6
CONTINUOUS
 62
    7
 10
-12.209543278927413
 20
180.30742183560739
 11
-19.203479817623702
 21
180.67098561162362
  0
LINE
  8
_0-d_0_1
  6
CONTINUOUS
 62
    7
 10
-19.138084462399092
 20
181.66884353989968
 11
-12.156517079586592
 21
181.11641147965798
  0
ARC
  8
_0-d_0_1
  6
CONTINUOUS
 62
    7
 10
17.749999999919453
 20
178.7499999999944
 40
29.999996185222013
 50
182.97578430175511
 51
184.52421569824358
  0
ARC
  8
_0-d_0_1
  6
CONTINUOUS
 62
    7
 10
17.750000000000284
 20
178.74999999999969
 40
29.999996185303004
 50
186.72578430175713
 51
188.27421569824159
  0
ARC
  8
_0-d_0_1
  6
CONTINUOUS
 62
    7
 10
17.750000000070798
 20
178.75000000001432
 40
29.999996185374979
 50
190.47578430176017
 51
192.02421569824079
  0
ARC
  8
_0-d_0_1
  6
CONTINUOUS
 62
    7
 10
17.75000000010516
 20
178.75000000002839
 40
29.999996185411668
 50
194.22578430176102
 51
195.77421569823977
  0
ARC
  8
_0-d_0_1
  6
CONTINUOUS
 62
    7
 10
17.750000000013671
 20
178.75000000000446
 40
29.999996185317123
 50
197.97578430175781
 51
199.52421569824142
  0
ARC
  8
_0-d_0_1
  6
CONTINUOUS
 62
    7
 10
17.749999999913712
 20
178.74999999996459
 40
29.999996185209465
 50
201.72578430175599
 51
203.27421569824514
  0
ARC
  8
_0-d_0_1
  6
CONTINUOUS
 62
    7
 10
17.749999999918032
 20
178.74999999995887
 40
29.99999618521106
 50
205.4757843017542
 51
207.0242156982433
  0
ARC
  8
_0-d_0_1
  6
CONTINUOUS
 62
    7
 10
17.750000000114937
 20
178.75000000022925
 40
29.999996185559166
 50
242.97578430176111
 51
244.5242156982323
  0
ARC
  8
_0-d_0_1
  6
CONTINUOUS
 62
    7
 10
17.749999999993889
 20
178.74999999998073
 40
29.999996185282598
 50
246.72578430175392
 51
248.27421569823935
  0
ARC
  8
_0-d_0_1
  6
CONTINUOUS
 62
    7
 10
17.749999999918714
 20
178.74999999975543
 40
29.999996185045038
 50
250.47578430174804
 51
252.02421569824571
  0
ARC
  8
_0-d_0_1
  6
CONTINUOUS
 62
    7
 10
17.750000000046441
 20
178.75000000017255
 40
29.999996185481411
 50
254.22578430176202
 51
255.77421569823719
  0
ARC
  8
_0-d_0_1
  6
CONTINUOUS
 62
    7
 10
17.750000000045191
 20
178.75000000022072
 40
29.999996185528012
 50
257.97578430176122
 51
259.524215698234
  0
ARC
  8
_0-d_0_1
  6
CONTINUOUS
 62
    7
 10
17.749999999972488
 20
178.74999999978894
 40
29.999996185089906
 50
261.72578430175173
 51
263.27421569824708
  0
ARC
  8
_0-d_0_1
  6
CONTINUOUS
 62
    7
 10
17.750000000004974
 20
178.75000000006648
 40
29.999996185369376
 50
265.47578430175827
 51
267.02421569823917
  0
ARC
  8
_0-d_0_1
  6
CONTINUOUS
 62
    7
 10
17.749999999999972
 20
178.7499999999759
 40
29.999996185278633
 50
269.22578430175713
 51
270.77421569824276
  0
ARC
  8
_0-d_0_1
  6
CONTINUOUS
 62
    7
 10
17.749999999994259
 20
178.75000000007873
 40
29.999996185381647
 50
272.97578430176094
 51
274.52421569824128
  0
ARC
  8
_0-d_0_1
  6
CONTINUOUS
 62
    7
 10
17.750000000032742
 20
178.74999999974867
 40
29.999996185049291
 50
276.72578430175184
 51
278.27421569824935
  0
ARC
  8
_0-d_0_1
  6
CONTINUOUS
 62
    7
 10
17.749999999966633
 20
178.75000000016112
 40
29.999996185467253
 50
280.47578430176452
 51
282.02421569824037
  0
ARC
  8
_0-d_0_1
  6
CONTINUOUS
 62
    7
 10
17.749999999953502
 20
178.75000000017255
 40
29.999996185481411
 50
284.22578430176281
 51
285.77421569823798
  0
ARC
  8
_0-d_0_1
  6
CONTINUOUS
 62
    7
 10
17.750000000064858
 20
178.7499999998048
 40
29.99999618509705
 50
287.97578430175497
 51
289.52421569825003
  0
ARC
  8
_0-d_0_1
  6
CONTINUOUS
 62
    7
 10
17.749999999960494
 20
178.75000000009084
 40
29.999996185401763
 50
291.72578430176361
 51
293.27421569824298
  0
ARC
  8
_0-d_0_1
  6
CONTINUOUS
 62
    7
 10
17.750000000101124
 20
178.7499999997921
 40
29.999996185071556
 50
295.47578430175423
 51
297.02421569825054
  0
ARC
  8
_0-d_0_1
  6
CONTINUOUS
 62
    7
 10
17.749999999707455
 20
178.75000000029249
 40
29.999996185716391
 50
314.2257843017685
 51
315.7742156982315
  0
ARC
  8
_0-d_0_1
  6
CONTINUOUS
 62
    7
 10
17.74999999987557
 20
178.75000000011028
 40
29.999996185468973
 50
317.97578430176043
 51
319.52421569823616
  0
ARC
  8
_0-d_0_1
  6
CONTINUOUS
 62
    7
 10
17.749999999979536
 20
178.75000000001569
 40
29.999996185328509
 50
321.72578430175844
 51
323.27421569824145
  0
ARC
  8
_0-d_0_1
  6
CONTINUOUS
 62
    7
 10
17.750000000244142
 20
178.74999999983703
 40
29.999996185009213
 50
325.47578430174997
 51
327.02421569824946
  0
ARC
  8
_0-d_0_1
  6
CONTINUOUS
 62
    7
 10
17.749999999995055
 20
178.75000000000381
 40
29.999996185308913
 50
329.22578430175645
 51
330.77421569824048
  0
ARC
  8
_0-d_0_1
  6
CONTINUOUS
 62
    7
 10
17.750000000206711
 20
178.74999999989839
 40
29.999996185072394
 50
332.97578430175133
 51
334.52421569824753
  0
ARC
  8
_0-d_0_1
  6
CONTINUOUS
 62
    7
 10
17.749999999886711
 20
178.75000000004778
 40
29.999996185425672
 50
336.72578430175952
 51
338.27421569823747
  0
ARC
  8
_0-d_0_1
  6
CONTINUOUS
 62
    7
 10
17.749999999916668
 20
178.75000000002757
 40
29.99999618539049
 50
340.47578430176145
 51
342.02421569824133
  0
ARC
  8
_0-d_0_1
  6
CONTINUOUS
 62
    7
 10
17.750000000040075
 20
178.74999999998946
 40
29.999996185261306
 50
344.22578430175633
 51
345.77421569824287
  0
ARC
  8
_0-d_0_1
  6
CONTINUOUS
 62
    7
 10
17.750000000198298
 20
178.74999999995978
 40
29.999996185100397
 50
347.97578430175406
 51
349.5242156982489
  0
ARC
  8
_0-d_0_1
  6
CONTINUOUS
 62
    7
 10
17.750000000229107
 20
178.74999999997002
 40
29.999996185071673
 50
351.7257843017515
 51
353.27421569824781
  0
ARC
  8
_0-d_0_1
  6
CONTINUOUS
 62
    7
 10
17.750000000056019
 20
178.74999999999582
 40
29.999996185246555
 50
355.47578430175736
 51
357.02421569824457
  0
ARC
  8
_0-d_0_1
  6
CONTINUOUS
 62
    7
 10
17.750000000026205
 20
178.75
 40
29.99999618527653
 50
359.22578430175713
 51
0.7742156982427793
  0
ARC
  8
_0-d_0_1
  6
CONTINUOUS
 62
    7
 10
17.750000000080519
 20
178.7500000000056
 40
29.999996185222013
 50
2.9757843017551644
 51
4.524215698243613
  0
ARC
  8
_0-d_0_1
  6
CONTINUOUS
 62
    7
 10
17.749999999923091
 20
178.74999999998971
 40
29.999996185380315
 50
6.7257843017600907
 51
8.2742156982405213
  0
ARC
  8
_0-d_0_1
  6
CONTINUOUS
 62
    7
 10
17.750000000228681
 20
178.75000000004528
 40
29.999996185069612
 50
10.47578430175224
 51
12.024215698248637
  0
ARC
  8
_0-d_0_1
  6
CONTINUOUS
 62
    7
 10
17.750000000040046
 20
178.75000000001052
 40
29.999996185261327
 50
14.225784301757193
 51
15.774215698243705
  0
ARC
  8
_0-d_0_1
  6
CONTINUOUS
 62
    7
 10
17.750000000195854
 20
178.75000000006719
 40
29.999996185095675
 50
17.97578430175118
 51
19.524215698246245
  0
ARC
  8
_0-d_0_1
  6
CONTINUOUS
 62
    7
 10
17.750000000019952
 20
178.75000000000847
 40
29.999996185281034
 50
21.725784301756889
 51
23.274215698242354
  0
ARC
  8
_0-d_0_1
  6
CONTINUOUS
 62
    7
 10
17.750000000086914
 20
178.75000000004152
 40
29.999996185206424
 50
25.475784301757692
 51
27.024215698246959
  0
ARC
  8
_0-d_0_1
  6
CONTINUOUS
 62
    7
 10
17.750000000112209
 20
178.75000000006489
 40
29.999996185173092
 50
29.225784301754352
 51
30.774215698245371
  0
ARC
  8
_0-d_0_1
  6
CONTINUOUS
 62
    7
 10
17.750000000244142
 20
178.75000000016297
 40
29.999996185009202
 50
32.975784301750522
 51
34.524215698250032
  0
ARC
  8
_0-d_0_1
  6
CONTINUOUS
 62
    7
 10
17.749999999979536
 20
178.74999999998431
 40
29.999996185328509
 50
36.725784301758523
 51
38.27421569824152
  0
ARC
  8
_0-d_0_1
  6
CONTINUOUS
 62
    7
 10
17.749999999875598
 20
178.74999999988972
 40
29.999996185468962
 50
40.475784301763845
 51
42.024215698239615
  0
ARC
  8
_0-d_0_1
  6
CONTINUOUS
 62
    7
 10
17.750000000018758
 20
178.75000000001876
 40
29.999996185276181
 50
44.225784301757123
 51
45.774215698242848
  0
ARC
  8
_0-d_0_1
  6
CONTINUOUS
 62
    7
 10
17.749999999956913
 20
178.74999999995117
 40
29.999996185367856
 50
47.975784301759113
 51
49.524215698240141
  0
ARC
  8
_0-d_0_1
  6
CONTINUOUS
 62
    7
 10
17.750000000041354
 20
178.75000000005289
 40
29.999996185235592
 50
51.725784301757258
 51
53.274215698245101
  0
ARC
  8
_0-d_0_1
  6
CONTINUOUS
 62
    7
 10
17.750000000137305
 20
178.75000000020734
 40
29.999996185054076
 50
55.475784301749457
 51
57.024215698246685
  0
ARC
  8
_0-d_0_1
  6
CONTINUOUS
 62
    7
 10
17.749999999890804
 20
178.74999999980972
 40
29.999996185522111
 50
59.225784301764619
 51
60.774215698237661
  0
ARC
  8
_0-d_0_1
  6
CONTINUOUS
 62
    7
 10
17.75000000013199
 20
178.75000000027154
 40
29.999996185000843
 50
62.975784301746764
 51
64.524215698246721
  0
ARC
  8
_0-d_0_1
  6
CONTINUOUS
 62
    7
 10
17.749999999898364
 20
178.74999999975427
 40
29.999996185568637
 50
66.72578430176506
 51
68.274215698235679
  0
ARC
  8
_0-d_0_1
  6
CONTINUOUS
 62
    7
 10
17.750000000081286
 20
178.75000000024457
 40
29.999996185045038
 50
70.475784301748021
 51
72.024215698245698
  0
ARC
  8
_0-d_0_1
  6
CONTINUOUS
 62
    7
 10
17.749999999953502
 20
178.74999999982745
 40
29.999996185481411
 50
74.225784301762005
 51
75.774215698237143
  0
ARC
  8
_0-d_0_1
  6
CONTINUOUS
 62
    7
 10
17.749999999954809
 20
178.74999999977928
 40
29.999996185528012
 50
77.975784301761195
 51
79.524215698233959
  0
ARC
  8
_0-d_0_1
  6
CONTINUOUS
 62
    7
 10
17.750000000030241
 20
178.75000000023329
 40
29.999996185067509
 50
81.72578430175092
 51
83.274215698247389
  0
ARC
  8
_0-d_0_1
  6
CONTINUOUS
 62
    7
 10
17.749999999994998
 20
178.74999999993352
 40
29.999996185369376
 50
85.47578430175831
 51
87.024215698239217
  0
ARC
  8
_0-d_0_1
  6
CONTINUOUS
 62
    7
 10
17.75
 20
178.7500000000241
 40
29.999996185278633
 50
89.225784301757187
 51
90.774215698242827
  0
ARC
  8
_0-d_0_1
  6
CONTINUOUS
 62
    7
 10
17.750000000005002
 20
178.74999999993352
 40
29.999996185369376
 50
92.975784301760797
 51
94.52421569824169
  0
ARC
  8
_0-d_0_1
  6
CONTINUOUS
 62
    7
 10
17.749999999967201
 20
178.75000000025133
 40
29.999996185049291
 50
96.725784301751872
 51
98.274215698249336
  0
ARC
  8
_0-d_0_1
  6
CONTINUOUS
 62
    7
 10
17.750000000039449
 20
178.74999999980702
 40
29.999996185499693
 50
100.47578430176489
 51
102.02421569823916
  0
ARC
  8
_0-d_0_1
  6
CONTINUOUS
 62
    7
 10
17.750000000046441
 20
178.74999999982745
 40
29.999996185481411
 50
104.22578430176284
 51
105.77421569823801
  0
ARC
  8
_0-d_0_1
  6
CONTINUOUS
 62
    7
 10
17.749999999950887
 20
178.75000000014975
 40
29.999996185145154
 50
107.97578430175692
 51
109.52421569824942
  0
ARC
  8
_0-d_0_1
  6
CONTINUOUS
 62
    7
 10
17.750000000039506
 20
178.74999999990916
 40
29.999996185401763
 50
111.72578430176372
 51
113.27421569824298
  0
ARC
  8
_0-d_0_1
  6
CONTINUOUS
 62
    7
 10
17.749999999837883
 20
178.75000000033151
 40
29.999996184933753
 50
115.47578430175064
 51
117.02421569825408
  0
ARC
  8
_0-d_0_1
  6
CONTINUOUS
 62
    7
 10
17.750000000109139
 20
178.74999999980972
 40
29.999996185522111
 50
119.22578430176233
 51
120.77421569823538
  0
ARC
  8
_0-d_0_1
  6
CONTINUOUS
 62
    7
 10
17.749999999862666
 20
178.75000000020734
 40
29.999996185054076
 50
122.97578430175335
 51
124.52421569825054
  0
ARC
  8
_0-d_0_1
  6
CONTINUOUS
 62
    7
 10
17.749999999958618
 20
178.75000000005289
 40
29.999996185235585
 50
126.7257843017549
 51
128.27421569824276
  0
ARC
  8
_0-d_0_1
  6
CONTINUOUS
 62
    7
 10
17.750000000043087
 20
178.74999999995117
 40
29.999996185367856
 50
130.47578430175986
 51
132.02421569824085
  0
ARC
  8
_0-d_0_1
  6
CONTINUOUS
 62
    7
 10
17.749999999855731
 20
178.75000000007131
 40
29.999996185141832
 50
152.97578430175398
 51
154.52421569824668
  0
ARC
  8
_0-d_0_1
  6
CONTINUOUS
 62
    7
 10
17.749999999913712
 20
178.75000000003541
 40
29.999996185209465
 50
156.72578430175486
 51
158.27421569824403
  0
ARC
  8
_0-d_0_1
  6
CONTINUOUS
 62
    7
 10
17.750000000013671
 20
178.74999999999554
 40
29.999996185317123
 50
160.47578430175855
 51
162.02421569824219
  0
ARC
  8
_0-d_0_1
  6
CONTINUOUS
 62
    7
 10
17.749999999949495
 20
178.75000000001327
 40
29.999996185250524
 50
164.22578430175605
 51
165.77421569824313
  0
ARC
  8
_0-d_0_1
  6
CONTINUOUS
 62
    7
 10
17.749999999995794
 20
178.75000000000114
 40
29.9999961852984
 50
167.97578430175827
 51
169.52421569824284
  0
ARC
  8
_0-d_0_1
  6
CONTINUOUS
 62
    7
 10
17.750000000000284
 20
178.75000000000031
 40
29.999996185303004
 50
171.72578430175847
 51
173.27421569824284
  0
ARC
  8
_0-d_0_1
  6
CONTINUOUS
 62
    7
 10
17.750000000098964
 20
178.749999999994
 40
29.999996185401887
 50
175.47578430176125
 51
177.02421569824054
  0
LINE
  8
_0-d_0_1
  6
CONTINUOUS
 62
    7
 10
-8.0256996662565143
 20
163.40031984681497
 11
-14.042934468502608
 21
159.81699159974465
  0
LINE
  8
_0-d_0_1
  6
CONTINUOUS
 62
    7
 10
-6.966600468868819
 20
161.74737146729836
 11
-12.736585667843428
 21
157.77817133302102
  0
LINE
  8
_0-d_0_1
  6
CONTINUOUS
 62
    7
 10
-13.292158177609053
 20
158.60964372987161
 11
-7.4170132191129596
 21
162.42146471375833
  0
LINE
  8
_0-d_0_1
  6
CONTINUOUS
 62
    7
 10
-5.8016586811490924
 20
160.16723039979348
 11
-11.299688390011397
 21
155.8291547619761
  0
LINE
  8
_0-d_0_1
  6
CONTINUOUS
 62
    7
 10
-11.908453038448897
 20
156.62250307435403
 11
-6.2951927692838581
 21
160.81042269105325
  0
LINE
  8
_0-d_0_1
  6
CONTINUOUS
 62
    7
 10
-4.5358601124235065
 20
158.66666963929543
 11
-9.7383919269987018
 21
153.97829225892434
  0
LINE
  8
_0-d_0_1
  6
CONTINUOUS
 62
    7
 10
-10.397743275875655
 20
154.73012712830911
 11
-5.0704098255582721
 21
159.27620485658059
  0
LINE
  8
_0-d_0_1
  6
CONTINUOUS
 62
    7
 10
-3.1746311695524128
 20
157.25209787721047
 11
-8.0593987019010456
 21
152.23350122804055
  0
LINE
  8
_0-d_0_1
  6
CONTINUOUS
 62
    7
 10
-8.7665005238004596
 20
152.94060304993997
 11
-3.7479038746305378
 21
157.8253705822886
  0
LINE
  8
_0-d_0_1
  6
CONTINUOUS
 62
    7
 10
-1.7237968952604206
 20
155.92959192628274
 11
-6.2698746235319049
 21
150.60225847596536
  0
LINE
  8
_0-d_0_1
  6
CONTINUOUS
 62
    7
 10
-7.0217094929166706
 20
151.26160982484231
 11
-2.3333321125455768
 21
156.46414163941751
  0
LINE
  8
_0-d_0_1
  6
CONTINUOUS
 62
    7
 10
-0.1895790607877643
 20
154.70480898255715
 11
-4.3774986774869831
 21
149.09154871339211
  0
LINE
  8
_0-d_0_1
  6
CONTINUOUS
 62
    7
 10
-5.1708469898649128
 20
149.70031336182961
 11
-0.8327713520475299
 21
155.19834307069192
  0
LINE
  8
_0-d_0_1
  6
CONTINUOUS
 62
    7
 10
1.4214629619173138
 20
153.58298853272805
 11
-2.3903580219694049
 21
147.70784357423196
  0
LINE
  8
_0-d_0_1
  6
CONTINUOUS
 62
    7
 10
-3.2218304188199909
 20
148.26341608399758
 11
0.7473697154573528
 21
154.03340128297219
  0
LINE
  8
_0-d_0_1
  6
CONTINUOUS
 62
    7
 10
3.1024236171297161
 20
152.56893709535012
 11
-0.3169880421110065
 21
146.4570672833384
  0
LINE
  8
_0-d_0_1
  6
CONTINUOUS
 62
    7
 10
-1.1830101520963581
 20
146.9570672833384
 11
2.4003180949739544
 21
152.9743020855845
  0
LINE
  8
_0-d_0_1
  6
CONTINUOUS
 62
    7
 10
33.099691340213198
 20
152.9743020855845
 11
36.683010050540346
 21
146.9570672833384
  0
LINE
  8
_0-d_0_1
  6
CONTINUOUS
 62
    7
 10
35.816987940554995
 20
146.4570672833384
 11
32.397567698245425
 21
152.56893709535012
  0
LINE
  8
_0-d_0_1
  6
CONTINUOUS
 62
    7
 10
34.752630182986636
 20
154.03340128297219
 11
38.721839854007143
 21
148.26341608399758
  0
LINE
  8
_0-d_0_1
  6
CONTINUOUS
 62
    7
 10
37.890357920413393
 20
147.70784357423196
 11
34.078536936526675
 21
153.58298853272805
  0
LINE
  8
_0-d_0_1
  6
CONTINUOUS
 62
    7
 10
36.332761713748354
 20
155.19834307069192
 11
40.670854517703432
 21
149.70031336182961
  0
LINE
  8
_0-d_0_1
  6
CONTINUOUS
 62
    7
 10
39.877498575930971
 20
149.09154871339211
 11
35.689569422488589
 21
154.70480898255715
  0
LINE
  8
_0-d_0_1
  6
CONTINUOUS
 62
    7
 10
37.833332010989565
 20
156.46414163941751
 11
42.521709391360659
 21
151.26160982484231
  0
LINE
  8
_0-d_0_1
  6
CONTINUOUS
 62
    7
 10
41.769874521975893
 20
150.60225847596536
 11
37.223806330447573
 21
155.92959192628274
  0
LINE
  8
_0-d_0_1
  6
CONTINUOUS
 62
    7
 10
-3.7479038746305378
 20
199.67463281983743
 11
-8.7665005238004596
 21
204.55940035218606
  0
LINE
  8
_0-d_0_1
  6
CONTINUOUS
 62
    7
 10
-5.0704098255582721
 20
198.22379854554543
 11
-10.397743275875655
 21
202.76987627381692
  0
LINE
  8
_0-d_0_1
  6
CONTINUOUS
 62
    7
 10
-9.7383919269987018
 20
203.52171114320168
 11
-4.5358601124235065
 21
198.83333376283059
  0
LINE
  8
_0-d_0_1
  6
CONTINUOUS
 62
    7
 10
-6.2951927692838581
 20
196.68958071107278
 11
-11.908453038448897
 21
200.877500327772
  0
LINE
  8
_0-d_0_1
  6
CONTINUOUS
 62
    7
 10
-11.299688390011397
 20
201.67085626954446
 11
-5.8016586811490924
 21
197.33277300233254
  0
LINE
  8
_0-d_0_1
  6
CONTINUOUS
 62
    7
 10
-7.4170132191129596
 20
195.0785386883677
 11
-13.292158177609053
 21
198.89035967225442
  0
LINE
  8
_0-d_0_1
  6
CONTINUOUS
 62
    7
 10
-12.736585667843428
 20
199.72183206910501
 11
-6.966600468868819
 21
195.75263193482766
  0
LINE
  8
_0-d_0_1
  6
CONTINUOUS
 62
    7
 10
-1.2500000507779987
 20
197.75000170106301
 11
-0.2600498707242877
 21
198.73994997376809
  0
LINE
  8
_0-d_0_1
  6
CONTINUOUS
 62
    7
 10
-1.2500000507779987
 20
197.75000170106301
 11
-0.2600498707242877
 21
198.73994997376809
  0
LINE
  8
_0-d_0_1
  6
CONTINUOUS
 62
    7
 10
-1.2500000507779987
 20
197.75000170106301
 11
-2.2399483234830768
 21
196.7600515210093
  0
LINE
  8
_0-d_0_1
  6
CONTINUOUS
 62
    7
 10
-2.2500000507779987
 20
196.74999979371438
 11
9.667733141665849
 21
181.38190153474221
  0
LINE
  8
_0-d_0_1
  6
CONTINUOUS
 62
    7
 10
-0.2499981434293658
 20
198.75000170106301
 11
15.118100115542802
 21
186.83226850861917
  0
LINE
  8
_0-d_0_1
  6
CONTINUOUS
 62
    7
 10
6.1039065806917279
 20
190.96177271241555
 11
5.5055779902986615
 21
191.56010988587747
  0
LINE
  8
_0-d_0_1
  6
CONTINUOUS
 62
    7
 10
5.8210677592805951
 20
190.67893389100442
 11
6.1039065806917279
 21
190.96177271241555
  0
LINE
  8
_0-d_0_1
  6
CONTINUOUS
 62
    7
 10
5.8210677592805951
 20
190.67893389100442
 11
5.5382289378694622
 21
190.39609506959329
  0
LINE
  8
_0-d_0_1
  6
CONTINUOUS
 62
    7
 10
5.5382289378694622
 20
190.39609506959329
 11
-1.5328388721891315
 21
197.46715334290872
  0
LINE
  8
_0-d_0_1
  6
CONTINUOUS
 62
    7
 10
5.5055779902986615
 20
191.56010988587747
 11
-0.9671516926237018
 21
198.03284052247415
  0
LINE
  8
_0-d_0_1
  6
CONTINUOUS
 62
    7
 10
27.649507471804995
 20
168.85050276154885
 11
28.356600710635561
 21
168.14340093964944
  0
LINE
  8
_0-d_0_1
  6
CONTINUOUS
 62
    7
 10
7.8505010097078411
 20
168.85050276154885
 11
9.9183940379671185
 21
165.26880243653665
  0
LINE
  8
_0-d_0_1
  6
CONTINUOUS
 62
    7
 10
9.924273440127763
 20
165.2446821057261
 11
10.557132670169267
 21
165.54735353822122
  0
LINE
  8
_0-d_0_1
  6
CONTINUOUS
 62
    7
 10
25.751760432010073
 20
191.93649938935647
 11
25.057388731723208
 21
191.84970262879739
  0
LINE
  8
_0-d_0_1
  6
CONTINUOUS
 62
    7
 10
27.649507471804995
 20
188.64948347443948
 11
25.751760432010073
 21
191.93649938935647
  0
LINE
  8
_0-d_0_1
  6
CONTINUOUS
 62
    7
 10
0.2500018565706341
 20
178.75000170106301
 11
6.2500018565706341
 21
178.75000170106301
  0
LINE
  8
_0-d_0_1
  6
CONTINUOUS
 62
    7
 10
27.079123446231264
 20
167.00404051179299
 11
28.287537523990054
 21
168.21246412629495
  0
LINE
  8
_0-d_0_1
  6
CONTINUOUS
 62
    7
 10
26.500584551577944
 20
166.56692674989114
 11
28.216830202823061
 21
168.28317144746194
  0
LINE
  8
_0-d_0_1
  6
CONTINUOUS
 62
    7
 10
26.043549486880679
 20
166.25132349366555
 11
28.146104761844057
 21
168.3538883053721
  0
LINE
  8
_0-d_0_1
  6
CONTINUOUS
 62
    7
 10
25.649277636294741
 20
165.99847486848245
 11
28.075397440677065
 21
168.42459562653909
  0
LINE
  8
_0-d_0_1
  6
CONTINUOUS
 62
    7
 10
25.295215079074282
 20
165.78582743043313
 11
28.004690119510073
 21
168.49531153077493
  0
LINE
  8
_0-d_0_1
  6
CONTINUOUS
 62
    7
 10
24.969778486972231
 20
165.60181501740823
 11
27.933982798343081
 21
168.56601885194192
  0
LINE
  8
_0-d_0_1
  6
CONTINUOUS
 62
    7
 10
24.66612620044269
 20
165.43958643311868
 11
27.863274523501772
 21
168.63672712678323
  0
LINE
  8
_0-d_0_1
  6
CONTINUOUS
 62
    7
 10
24.379796454196352
 20
165.29467180604348
 11
27.79256720233478
 21
168.70744303101907
  0
LINE
  8
_0-d_0_1
  6
CONTINUOUS
 62
    7
 10
24.107675024752993
 20
165.16398313874612
 11
27.721842715030093
 21
168.77815035218606
  0
LINE
  8
_0-d_0_1
  6
CONTINUOUS
 62
    7
 10
23.847521731143374
 20
165.04525354737649
 11
27.6511353938631
 21
168.8488662564219
  0
LINE
  8
_0-d_0_1
  6
CONTINUOUS
 62
    7
 10
23.59763950992145
 20
164.93677786225686
 11
26.413079211001772
 21
167.75222662324319
  0
LINE
  8
_0-d_0_1
  6
CONTINUOUS
 62
    7
 10
23.356663653140444
 20
164.83722570771585
 11
25.852021166568179
 21
167.33259180421243
  0
LINE
  8
_0-d_0_1
  6
CONTINUOUS
 62
    7
 10
23.123544165377993
 20
164.74553850526223
 11
25.408423849826235
 21
167.03042677277932
  0
LINE
  8
_0-d_0_1
  6
CONTINUOUS
 62
    7
 10
22.897440859561343
 20
164.66086748475442
 11
25.025543162112612
 21
166.78896978730569
  0
LINE
  8
_0-d_0_1
  6
CONTINUOUS
 62
    7
 10
22.677654215579409
 20
164.58249643678079
 11
24.681541392093081
 21
166.58637503022561
  0
LINE
  8
_0-d_0_1
  6
CONTINUOUS
 62
    7
 10
22.463589617495913
 20
164.50984648103127
 11
24.365256258731264
 21
166.41150453919778
  0
LINE
  8
_0-d_0_1
  6
CONTINUOUS
 62
    7
 10
22.254721590762514
 20
164.44240263337502
 11
24.070037791018862
 21
166.25771883363137
  0
LINE
  8
_0-d_0_1
  6
CONTINUOUS
 62
    7
 10
22.050630518679995
 20
164.37973478669534
 11
23.791617342715639
 21
166.12071302766213
  0
LINE
  8
_0-d_0_1
  6
CONTINUOUS
 62
    7
 10
21.850965925937075
 20
164.32148531312356
 11
23.526949354892153
 21
165.9974782788218
  0
LINE
  8
_0-d_0_1
  6
CONTINUOUS
 62
    7
 10
21.65537876773395
 20
164.26732233399758
 11
23.273900458102602
 21
165.88584402436624
  0
LINE
  8
_0-d_0_1
  6
CONTINUOUS
 62
    7
 10
21.463597008471865
 20
164.21696451539407
 11
23.030789801364321
 21
165.78414800996194
  0
LINE
  8
_0-d_0_1
  6
CONTINUOUS
 62
    7
 10
21.275367447619814
 20
164.17015817994485
 11
22.796305128817934
 21
165.6911046826304
  0
LINE
  8
_0-d_0_1
  6
CONTINUOUS
 62
    7
 10
21.09047979999103
 20
164.12669447297463
 11
22.569484659915346
 21
165.6057079159678
  0
LINE
  8
_0-d_0_1
  6
CONTINUOUS
 62
    7
 10
20.908715435748476
 20
164.08635404939065
 11
22.34947056460895
 21
165.52710893983254
  0
LINE
  8
_0-d_0_1
  6
CONTINUOUS
 62
    7
 10
20.729916760211367
 20
164.04897955293069
 11
22.135580965762514
 21
165.45463446015725
  0
LINE
  8
_0-d_0_1
  6
CONTINUOUS
 62
    7
 10
20.5539092509798
 20
164.01439550752053
 11
21.927220293765444
 21
165.38771513337502
  0
LINE
  8
_0-d_0_1
  6
CONTINUOUS
 62
    7
 10
20.380561062579545
 20
163.98246267670999
 11
21.723951527362246
 21
165.3258531414927
  0
LINE
  8
_0-d_0_1
  6
CONTINUOUS
 62
    7
 10
20.209723898654374
 20
163.95304945344338
 11
21.525319525485415
 21
165.26864412660012
  0
LINE
  8
_0-d_0_1
  6
CONTINUOUS
 62
    7
 10
20.04128403354207
 20
163.92603281373391
 11
21.330974528079409
 21
165.21572283143411
  0
LINE
  8
_0-d_0_1
  6
CONTINUOUS
 62
    7
 10
19.875136324649247
 20
163.90130880708108
 11
21.140610167270083
 21
165.16678312653909
  0
LINE
  8
_0-d_0_1
  6
CONTINUOUS
 62
    7
 10
19.711166927104387
 20
163.87876299256692
 11
20.953955122714419
 21
165.12155130738626
  0
LINE
  8
_0-d_0_1
  6
CONTINUOUS
 62
    7
 10
19.549297281985673
 20
163.85830858582864
 11
20.770764776950259
 21
165.0797765576304
  0
LINE
  8
_0-d_0_1
  6
CONTINUOUS
 62
    7
 10
19.38943106818715
 20
163.83986643189797
 11
20.590820261721987
 21
165.04125574464211
  0
LINE
  8
_0-d_0_1
  6
CONTINUOUS
 62
    7
 10
19.231480786090287
 20
163.82334020966897
 11
20.413928934817704
 21
165.00578764314065
  0
LINE
  8
_0-d_0_1
  6
CONTINUOUS
 62
    7
 10
19.075385400538835
 20
163.80866793031106
 11
20.239916035418901
 21
164.97319868440042
  0
LINE
  8
_0-d_0_1
  6
CONTINUOUS
 62
    7
 10
18.921083399539384
 20
163.79578951234231
 11
20.068632790332231
 21
164.94333914155374
  0
LINE
  8
_0-d_0_1
  6
CONTINUOUS
 62
    7
 10
18.768496224170121
 20
163.78461817139993
 11
19.899939009433183
 21
164.91606977815042
  0
LINE
  8
_0-d_0_1
  6
CONTINUOUS
 62
    7
 10
18.617562481646928
 20
163.77510813111672
 11
19.733703681712541
 21
164.89124945039163
  0
LINE
  8
_0-d_0_1
  6
CONTINUOUS
 62
    7
 10
18.468238600974473
 20
163.76720789307961
 11
19.569813081508073
 21
164.86878183717141
  0
LINE
  8
_0-d_0_1
  6
CONTINUOUS
 62
    7
 10
18.320463189368638
 20
163.76085642213235
 11
19.408153363948259
 21
164.8485467755259
  0
LINE
  8
_0-d_0_1
  6
CONTINUOUS
 62
    7
 10
18.174192586427125
 20
163.75600031251321
 11
19.248637148623857
 21
164.8304450833262
  0
LINE
  8
_0-d_0_1
  6
CONTINUOUS
 62
    7
 10
18.029374280457887
 20
163.75260618562112
 11
19.091159412150773
 21
164.81439092988381
  0
LINE
  8
_0-d_0_1
  6
CONTINUOUS
 62
    7
 10
17.885964506750497
 20
163.75061968202004
 11
18.935641357188615
 21
164.80029657716165
  0
LINE
  8
_0-d_0_1
  6
CONTINUOUS
 62
    7
 10
17.743928306249472
 20
163.74999884004006
 11
18.782021829371843
 21
164.7880924069346
  0
LINE
  8
_0-d_0_1
  6
CONTINUOUS
 62
    7
 10
17.603221917038354
 20
163.750716003126
 11
18.630204447989854
 21
164.7776992642344
  0
LINE
  8
_0-d_0_1
  6
CONTINUOUS
 62
    7
 10
17.463819095378312
 20
163.75272825593362
 11
18.480145642047319
 21
164.76905516023049
  0
LINE
  8
_0-d_0_1
  6
CONTINUOUS
 62
    7
 10
17.325676092391404
 20
163.75600889558206
 11
18.331757852321061
 21
164.7620914303721
  0
LINE
  8
_0-d_0_1
  6
CONTINUOUS
 62
    7
 10
17.188749143367204
 20
163.76050642365823
 11
18.185006061082277
 21
164.75676325196633
  0
LINE
  8
_0-d_0_1
  6
CONTINUOUS
 62
    7
 10
17.053029546027574
 20
163.76620176667581
 11
18.03982905436078
 21
164.75300100678811
  0
LINE
  8
_0-d_0_1
  6
CONTINUOUS
 62
    7
 10
16.918473550563249
 20
163.77306917542825
 11
17.896165573482904
 21
164.75076177949319
  0
LINE
  8
_0-d_0_1
  6
CONTINUOUS
 62
    7
 10
16.785054871325883
 20
163.78107431764016
 11
17.753980637507084
 21
164.74999979371438
  0
LINE
  8
_0-d_0_1
  6
CONTINUOUS
 62
    7
 10
16.65274734187642
 20
163.79019049043069
 11
17.61323050547162
 21
164.75066545838723
  0
LINE
  8
_0-d_0_1
  6
CONTINUOUS
 62
    7
 10
16.521533319240007
 20
163.80039194459329
 11
17.473862686639222
 21
164.7527215802134
  0
LINE
  8
_0-d_0_1
  6
CONTINUOUS
 62
    7
 10
16.391377994304094
 20
163.81166056031594
 11
17.335850903277787
 21
164.75612429017434
  0
LINE
  8
_0-d_0_1
  6
CONTINUOUS
 62
    7
 10
16.262263724093827
 20
163.82396105164895
 11
17.199142703299913
 21
164.76084020966897
  0
LINE
  8
_0-d_0_1
  6
CONTINUOUS
 62
    7
 10
16.134164282565507
 20
163.83728578919778
 11
17.063711830859575
 21
164.76683309907327
  0
LINE
  8
_0-d_0_1
  6
CONTINUOUS
 62
    7
 10
16.007062265162858
 20
163.85160711640725
 11
16.929523238425645
 21
164.77406767243752
  0
LINE
  8
_0-d_0_1
  6
CONTINUOUS
 62
    7
 10
15.880940028911027
 20
163.86690023774514
 11
16.796541997676286
 21
164.78250196809182
  0
LINE
  8
_0-d_0_1
  6
CONTINUOUS
 62
    7
 10
15.755771466975602
 20
163.88315466279397
 11
16.664741822963151
 21
164.79212549561868
  0
LINE
  8
_0-d_0_1
  6
CONTINUOUS
 62
    7
 10
15.631547638659868
 20
163.90034654969583
 11
16.534105369334611
 21
164.8029039227427
  0
LINE
  8
_0-d_0_1
  6
CONTINUOUS
 62
    7
 10
15.508242556338701
 20
163.91846540803323
 11
16.404579827075395
 21
164.81480196351418
  0
LINE
  8
_0-d_0_1
  6
CONTINUOUS
 62
    7
 10
15.385838696246537
 20
163.93748453492532
 11
16.276148030047807
 21
164.82779386872659
  0
LINE
  8
_0-d_0_1
  6
CONTINUOUS
 62
    7
 10
15.264326998477372
 20
163.95738867158303
 11
16.148809739833268
 21
164.84187105531106
  0
LINE
  8
_0-d_0_1
  6
CONTINUOUS
 62
    7
 10
15.143681475406083
 20
163.97816637391458
 11
16.02250380206624
 21
164.85698870057473
  0
LINE
  8
_0-d_0_1
  6
CONTINUOUS
 62
    7
 10
15.023893543963823
 20
163.99980238313088
 11
15.897230216746721
 21
164.87313917512307
  0
LINE
  8
_0-d_0_1
  6
CONTINUOUS
 62
    7
 10
14.904953905826005
 20
164.02227762574563
 11
15.772971460109147
 21
164.89029577607522
  0
LINE
  8
_0-d_0_1
  6
CONTINUOUS
 62
    7
 10
14.786845633273515
 20
164.04559305543313
 11
15.649692723040971
 21
164.90844038361917
  0
LINE
  8
_0-d_0_1
  6
CONTINUOUS
 62
    7
 10
14.669551083331498
 20
164.06971338624368
 11
15.527393767123613
 21
164.92755678529153
  0
LINE
  8
_0-d_0_1
  6
CONTINUOUS
 62
    7
 10
14.553052374606523
 20
164.09463861817727
 11
15.406030842547807
 21
164.94761732453713
  0
LINE
  8
_0-d_0_1
  6
CONTINUOUS
 62
    7
 10
14.437349983935746
 20
164.12036016816506
 11
15.285603949313554
 21
164.96861437196145
  0
LINE
  8
_0-d_0_1
  6
CONTINUOUS
 62
    7
 10
14.322435089831743
 20
164.14685991639504
 11
15.166087099795732
 21
164.99051264161477
  0
LINE
  8
_0-d_0_1
  6
CONTINUOUS
 62
    7
 10
14.208272406344804
 20
164.17412165040383
 11
15.047471472506913
 21
165.01332071656594
  0
LINE
  8
_0-d_0_1
  6
CONTINUOUS
 62
    7
 10
14.094879576449785
 20
164.2021434628428
 11
14.929739186053666
 21
165.03701189393411
  0
LINE
  8
_0-d_0_1
  6
CONTINUOUS
 62
    7
 10
13.982221791034135
 20
164.23091867799172
 11
14.812873312716874
 21
165.06156137818704
  0
LINE
  8
_0-d_0_1
  6
CONTINUOUS
 62
    7
 10
13.870307633166703
 20
164.26041963929543
 11
14.696864554171952
 21
165.08697679871926
  0
LINE
  8
_0-d_0_1
  6
CONTINUOUS
 62
    7
 10
13.759119459872636
 20
164.29064634675393
 11
14.581687161212358
 21
165.11322286958108
  0
LINE
  8
_0-d_0_1
  6
CONTINUOUS
 62
    7
 10
13.648640105014238
 20
164.32159975404153
 11
14.467340895419511
 21
165.14029100770364
  0
LINE
  8
_0-d_0_1
  6
CONTINUOUS
 62
    7
 10
13.538877913241777
 20
164.35325220460305
 11
14.353808113818559
 21
165.16818216676126
  0
LINE
  8
_0-d_0_1
  6
CONTINUOUS
 62
    7
 10
13.42980713534871
 20
164.38560560578713
 11
14.241071411853227
 21
165.19686964387307
  0
LINE
  8
_0-d_0_1
  6
CONTINUOUS
 62
    7
 10
13.321436354403886
 20
164.41864946717629
 11
14.129131027942094
 21
165.22634390229592
  0
LINE
  8
_0-d_0_1
  6
CONTINUOUS
 62
    7
 10
13.213730284457597
 20
164.45236757630715
 11
14.01796049762288
 21
165.25659731263528
  0
LINE
  8
_0-d_0_1
  6
CONTINUOUS
 62
    7
 10
13.106706568484697
 20
164.48676756257424
 11
13.907559820895585
 21
165.28762033814797
  0
LINE
  8
_0-d_0_1
  6
CONTINUOUS
 62
    7
 10
13.000356623416337
 20
164.52183225983987
 11
13.797920176272783
 21
165.31939581269631
  0
LINE
  8
_0-d_0_1
  6
CONTINUOUS
 62
    7
 10
12.894654223208818
 20
164.5575540387095
 11
13.689024397616777
 21
165.3519237362803
  0
LINE
  8
_0-d_0_1
  6
CONTINUOUS
 62
    7
 10
12.789607474093827
 20
164.59392240876565
 11
13.58087200809041
 21
165.38518694276223
  0
LINE
  8
_0-d_0_1
  6
CONTINUOUS
 62
    7
 10
12.685199686770829
 20
164.63093832368264
 11
13.473437258487138
 21
165.41917589539895
  0
LINE
  8
_0-d_0_1
  6
CONTINUOUS
 62
    7
 10
12.581439444308671
 20
164.66860178346047
 11
13.366719671969804
 21
165.45388201112161
  0
LINE
  8
_0-d_0_1
  6
CONTINUOUS
 62
    7
 10
12.478300520663652
 20
164.70687750214944
 11
13.260719725375566
 21
165.48929670686135
  0
LINE
  8
_0-d_0_1
  6
CONTINUOUS
 62
    7
 10
12.37579102206746
 20
164.7457921826304
 11
13.155411192660722
 21
165.52541235322366
  0
LINE
  8
_0-d_0_1
  6
CONTINUOUS
 62
    7
 10
12.273902842288408
 20
164.78531912202249
 11
13.050802180056962
 21
165.56221845979104
  0
LINE
  8
_0-d_0_1
  6
CONTINUOUS
 62
    7
 10
12.17261833835164
 20
164.82545832032571
 11
12.946875521426591
 21
165.5997150265635
  0
LINE
  8
_0-d_0_1
  6
CONTINUOUS
 62
    7
 10
12.071946570163163
 20
164.86620977754006
 11
12.843622633700761
 21
165.63788584107766
  0
LINE
  8
_0-d_0_1
  6
CONTINUOUS
 62
    7
 10
11.971878000979814
 20
164.90755632752786
 11
12.74105209994832
 21
165.67673090333352
  0
LINE
  8
_0-d_0_1
  6
CONTINUOUS
 62
    7
 10
11.872395941501054
 20
164.94949797028909
 11
12.63912863421956
 21
165.71623113984475
  0
LINE
  8
_0-d_0_1
  6
CONTINUOUS
 62
    7
 10
11.773508497958574
 20
164.99203470582376
 11
12.537870833163652
 21
165.75639704102883
  0
LINE
  8
_0-d_0_1
  6
CONTINUOUS
 62
    7
 10
11.675216147189531
 20
165.03515795106301
 11
12.437268683200273
 21
165.79720953339944
  0
LINE
  8
_0-d_0_1
  6
CONTINUOUS
 62
    7
 10
11.577492663150224
 20
165.07885721558938
 11
12.33729643512288
 21
165.83866194123635
  0
LINE
  8
_0-d_0_1
  6
CONTINUOUS
 62
    7
 10
11.480346152072343
 20
165.12313536042581
 11
12.237971731906327
 21
165.88075235719094
  0
LINE
  8
_0-d_0_1
  6
CONTINUOUS
 62
    7
 10
11.383777090793046
 20
165.16798094148049
 11
12.139268347506913
 21
165.92348078126321
  0
LINE
  8
_0-d_0_1
  6
CONTINUOUS
 62
    7
 10
11.287768313174638
 20
165.21339586610208
 11
12.041194388156327
 21
165.96682241792092
  0
LINE
  8
_0-d_0_1
  6
CONTINUOUS
 62
    7
 10
11.192327925448808
 20
165.25937918061624
 11
11.94374174762288
 21
166.01079347962747
  0
LINE
  8
_0-d_0_1
  6
CONTINUOUS
 62
    7
 10
11.097447821383867
 20
165.3059146725596
 11
11.846910425906572
 21
166.05537680024514
  0
LINE
  8
_0-d_0_1
  6
CONTINUOUS
 62
    7
 10
11.00311846423665
 20
165.35300901765237
 11
11.750674196963701
 21
166.10056475037942
  0
LINE
  8
_0-d_0_1
  6
CONTINUOUS
 62
    7
 10
10.909331747775468
 20
165.40064600343118
 11
11.655050226931962
 21
166.14636400575051
  0
LINE
  8
_0-d_0_1
  6
CONTINUOUS
 62
    7
 10
10.816104838138017
 20
165.44883421296487
 11
11.560029932742509
 21
166.19275930756936
  0
LINE
  8
_0-d_0_1
  6
CONTINUOUS
 62
    7
 10
10.723411509280595
 20
165.4975650631846
 11
11.465595671420488
 21
166.23974874848733
  0
LINE
  8
_0-d_0_1
  6
CONTINUOUS
 62
    7
 10
10.631269881015214
 20
165.54683760041604
 11
11.371765085940751
 21
166.28733328217874
  0
LINE
  8
_0-d_0_1
  6
CONTINUOUS
 62
    7
 10
10.429155775790605
 20
165.48614767426858
 11
11.278511950259599
 21
166.33550432557473
  0
LINE
  8
_0-d_0_1
  6
CONTINUOUS
 62
    7
 10
10.158092924838456
 20
165.35650804871926
 11
11.185836264377031
 21
166.38425234193215
  0
LINE
  8
_0-d_0_1
  6
CONTINUOUS
 62
    7
 10
9.8705033748201458
 20
165.35175779694924
 11
11.002226301913652
 21
166.48348024720559
  0
LINE
  8
_0-d_0_1
  6
CONTINUOUS
 62
    7
 10
9.8187369792512982
 20
165.44141558045754
 11
10.911273905520829
 21
166.53395250672708
  0
LINE
  8
_0-d_0_1
  6
CONTINUOUS
 62
    7
 10
9.7669791667512982
 20
165.53107241029153
 11
10.820899435763749
 21
166.58499220246682
  0
LINE
  8
_0-d_0_1
  6
CONTINUOUS
 62
    7
 10
9.7152127711824505
 20
165.62073019379983
 11
10.731075712924394
 21
166.63659265870461
  0
LINE
  8
_0-d_0_1
  6
CONTINUOUS
 62
    7
 10
9.6634463756136029
 20
165.71037844056497
 11
10.641820856814775
 21
166.68875292176614
  0
LINE
  8
_0-d_0_1
  6
CONTINUOUS
 62
    7
 10
9.6116799800447552
 20
165.80003622407327
 11
10.553117224460038
 21
166.74147299165139
  0
LINE
  8
_0-d_0_1
  6
CONTINUOUS
 62
    7
 10
9.5599221675447552
 20
165.8897016369761
 11
10.464964339023027
 21
166.79474428529153
  0
LINE
  8
_0-d_0_1
  6
CONTINUOUS
 62
    7
 10
9.5081557719759076
 20
165.97935083741555
 11
10.377363154178056
 21
166.8485582196177
  0
LINE
  8
_0-d_0_1
  6
CONTINUOUS
 62
    7
 10
9.4563893764070599
 20
166.06900766724954
 11
10.29031271625081
 21
166.90293100709329
  0
LINE
  8
_0-d_0_1
  6
CONTINUOUS
 62
    7
 10
9.4046315639070599
 20
166.15867403382668
 11
10.203804919009599
 21
166.95784738892922
  0
LINE
  8
_0-d_0_1
  6
CONTINUOUS
 62
    7
 10
9.3528651683382122
 20
166.24832228059182
 11
10.117839762454423
 21
167.01329687470803
  0
LINE
  8
_0-d_0_1
  6
CONTINUOUS
 62
    7
 10
9.3010987727693646
 20
166.33798006410012
 11
10.032416769748124
 21
167.06929758424172
  0
LINE
  8
_0-d_0_1
  6
CONTINUOUS
 62
    7
 10
9.2493409602693646
 20
166.42764643067727
 11
9.9475273578218548
 21
167.1258323513926
  0
LINE
  8
_0-d_0_1
  6
CONTINUOUS
 62
    7
 10
9.1975745647005169
 20
166.51729467744241
 11
9.8631720035127728
 21
167.18289163941751
  0
LINE
  8
_0-d_0_1
  6
CONTINUOUS
 62
    7
 10
9.1458081691316693
 20
166.60695150727639
 11
9.7793497531465619
 21
167.24049356812844
  0
LINE
  8
_0-d_0_1
  6
CONTINUOUS
 62
    7
 10
9.0940503566316693
 20
166.69661787385354
 11
9.6960620372346966
 21
167.29862097138772
  0
LINE
  8
_0-d_0_1
  6
CONTINUOUS
 62
    7
 10
9.0422839610628216
 20
166.78626612061868
 11
9.6132983653596966
 21
167.35728052491555
  0
LINE
  8
_0-d_0_1
  6
CONTINUOUS
 62
    7
 10
8.990517565493974
 20
166.87592390412698
 11
9.5310601680330365
 21
167.41646650666604
  0
LINE
  8
_0-d_0_1
  6
CONTINUOUS
 62
    7
 10
8.938759752993974
 20
166.96558168763528
 11
9.4493464915803997
 21
167.4761684262217
  0
LINE
  8
_0-d_0_1
  6
CONTINUOUS
 62
    7
 10
8.8869933574251263
 20
167.05523851746926
 11
9.3681582896761029
 21
167.53640344972024
  0
LINE
  8
_0-d_0_1
  6
CONTINUOUS
 62
    7
 10
8.8352269618562786
 20
167.14489630097756
 11
9.2874860255769818
 21
167.59715441102395
  0
LINE
  8
_0-d_0_1
  6
CONTINUOUS
 62
    7
 10
8.7834691493562786
 20
167.23455313081155
 11
9.2073468654207318
 21
167.658430846876
  0
LINE
  8
_0-d_0_1
  6
CONTINUOUS
 62
    7
 10
8.731702753787431
 20
167.32421091431985
 11
9.1277074306062786
 21
167.72021463746438
  0
LINE
  8
_0-d_0_1
  6
CONTINUOUS
 62
    7
 10
8.6799363582185833
 20
167.41386774415383
 11
9.0485915629915326
 21
167.7825239026011
  0
LINE
  8
_0-d_0_1
  6
CONTINUOUS
 62
    7
 10
8.6281785457185833
 20
167.50352552766213
 11
8.9699925868562786
 21
167.84534815186868
  0
LINE
  8
_0-d_0_1
  6
CONTINUOUS
 62
    7
 10
8.5764121501497357
 20
167.59318235749612
 11
8.8919105022005169
 21
167.9086807095469
  0
LINE
  8
_0-d_0_1
  6
CONTINUOUS
 62
    7
 10
8.524645754580888
 20
167.68284014100442
 11
8.8143348186067669
 21
167.9725292050303
  0
LINE
  8
_0-d_0_1
  6
CONTINUOUS
 62
    7
 10
8.472887942080888
 20
167.7724969708384
 11
8.7372760264925091
 21
168.03689363831887
  0
LINE
  8
_0-d_0_1
  6
CONTINUOUS
 62
    7
 10
8.4211215465120404
 20
167.8621547543467
 11
8.6607245891145794
 21
168.10175684327493
  0
LINE
  8
_0-d_0_1
  6
CONTINUOUS
 62
    7
 10
8.3693551509431927
 20
167.95181253785501
 11
8.5846795527986615
 21
168.16713693971047
  0
LINE
  8
_0-d_0_1
  6
CONTINUOUS
 62
    7
 10
8.3175973384431927
 20
168.04147795075784
 11
8.5091514079622357
 21
168.23303202027688
  0
LINE
  8
_0-d_0_1
  6
CONTINUOUS
 62
    7
 10
8.2658309428743451
 20
168.13113573426614
 11
8.4341220347932904
 21
168.29942682618508
  0
LINE
  8
_0-d_0_1
  6
CONTINUOUS
 62
    7
 10
8.2140645473054974
 20
168.22078398103127
 11
8.3596095531038372
 21
168.36632898682961
  0
LINE
  8
_0-d_0_1
  6
CONTINUOUS
 62
    7
 10
8.1622981517366497
 20
168.31045034760842
 11
8.2856034724763958
 21
168.43374613160501
  0
LINE
  8
_0-d_0_1
  6
CONTINUOUS
 62
    7
 10
8.1105403392366497
 20
168.40010717744241
 11
8.2120961635164349
 21
168.50166300172219
  0
LINE
  8
_0-d_0_1
  6
CONTINUOUS
 62
    7
 10
8.0587739436678021
 20
168.48976496095071
 11
8.1390962092928021
 21
168.57008722657571
  0
LINE
  8
_0-d_0_1
  6
CONTINUOUS
 62
    7
 10
8.0070075480989544
 20
168.57942179078469
 11
8.0666131465486615
 21
168.63901880616555
  0
LINE
  8
_0-d_0_1
  6
CONTINUOUS
 62
    7
 10
7.9552497355989544
 20
168.66907957429299
 11
7.9946279017976849
 21
168.70845774049172
  0
LINE
  8
_0-d_0_1
  6
CONTINUOUS
 62
    7
 10
7.9034833400301068
 20
168.75873735780129
 11
7.9231423823885052
 21
168.77839544648538
  0
LINE
  8
_0-d_0_1
  6
CONTINUOUS
 62
    7
 10
7.8517169444612591
 20
168.84839418763528
 11
7.8521718471101849
 21
168.84884050721536
  0
LINE
  8
_0-d_0_1
  6
CONTINUOUS
 62
    7
 10
6.1567573039583294
 20
178.75000170106301
 11
6.2503785579256146
 21
178.84362223977456
  0
LINE
  8
_0-d_0_1
  6
CONTINUOUS
 62
    7
 10
6.0153340785554974
 20
178.75000170106301
 11
6.2524432628206341
 21
178.98711948329816
  0
LINE
  8
_0-d_0_1
  6
CONTINUOUS
 62
    7
 10
5.873909899478349
 20
178.75000170106301
 11
6.2563619105867474
 21
179.13245398039231
  0
LINE
  8
_0-d_0_1
  6
CONTINUOUS
 62
    7
 10
5.7324952571443646
 20
178.75000170106301
 11
6.2622060267976849
 21
179.27971318597207
  0
LINE
  8
_0-d_0_1
  6
CONTINUOUS
 62
    7
 10
5.5910624949983685
 20
178.75000170106301
 11
6.2700623958162396
 21
179.42900213832269
  0
LINE
  8
_0-d_0_1
  6
CONTINUOUS
 62
    7
 10
5.4496468989900677
 20
178.75000170106301
 11
6.2800187556795208
 21
179.58037325972924
  0
LINE
  8
_0-d_0_1
  6
CONTINUOUS
 62
    7
 10
5.3082322566560833
 20
178.75000170106301
 11
6.2921704738191693
 21
179.73394033545861
  0
LINE
  8
_0-d_0_1
  6
CONTINUOUS
 62
    7
 10
5.1667994945100872
 20
178.75000170106301
 11
6.3066243617586224
 21
179.88982585305581
  0
LINE
  8
_0-d_0_1
  6
CONTINUOUS
 62
    7
 10
5.0253848521761029
 20
178.75000170106301
 11
6.3235005824617474
 21
180.04811719293008
  0
LINE
  8
_0-d_0_1
  6
CONTINUOUS
 62
    7
 10
4.8839606730989544
 20
178.75000170106301
 11
6.3429221599153607
 21
180.20895448560128
  0
LINE
  8
_0-d_0_1
  6
CONTINUOUS
 62
    7
 10
4.7425374476961224
 20
178.75000170106301
 11
6.3650302379182904
 21
180.37249520654092
  0
LINE
  8
_0-d_0_1
  6
CONTINUOUS
 62
    7
 10
4.6011218516878216
 20
178.75000170106301
 11
6.3899821727327435
 21
180.53886166448007
  0
LINE
  8
_0-d_0_1
  6
CONTINUOUS
 62
    7
 10
4.4596986262849896
 20
178.75000170106301
 11
6.417951533084306
 21
180.7082640253962
  0
LINE
  8
_0-d_0_1
  6
CONTINUOUS
 62
    7
 10
4.3182744472078411
 20
178.75000170106301
 11
6.4491414516023724
 21
180.88086846703897
  0
LINE
  8
_0-d_0_1
  6
CONTINUOUS
 62
    7
 10
4.1768598048738568
 20
178.75000170106301
 11
6.4837598292879193
 21
181.05690244073281
  0
LINE
  8
_0-d_0_1
  6
CONTINUOUS
 62
    7
 10
4.0354270427278607
 20
178.75000170106301
 11
6.5220622508577435
 21
181.2366369091929
  0
LINE
  8
_0-d_0_1
  6
CONTINUOUS
 62
    7
 10
3.8940124003938763
 20
178.75000170106301
 11
6.564318606143388
 21
181.42030862206826
  0
LINE
  8
_0-d_0_1
  6
CONTINUOUS
 62
    7
 10
3.7525968043855755
 20
178.75000170106301
 11
6.6108617274812786
 21
181.60826710099587
  0
LINE
  8
_0-d_0_1
  6
CONTINUOUS
 62
    7
 10
3.6111640422395794
 20
178.75000170106301
 11
6.6620864360384076
 21
181.80092361802468
  0
LINE
  8
_0-d_0_1
  6
CONTINUOUS
 62
    7
 10
3.4697493999055951
 20
178.75000170106301
 11
6.7183932750276654
 21
181.99864557618508
  0
LINE
  8
_0-d_0_1
  6
CONTINUOUS
 62
    7
 10
3.3283252208284466
 20
178.75000170106301
 11
6.7803258388094036
 21
182.20200208062539
  0
LINE
  8
_0-d_0_1
  6
CONTINUOUS
 62
    7
 10
3.1869019954256146
 20
178.75000170106301
 11
6.8484963862947552
 21
182.41159609193215
  0
LINE
  8
_0-d_0_1
  6
CONTINUOUS
 62
    7
 10
3.0454863994173138
 20
178.75000170106301
 11
6.9236478297762005
 21
182.6281631314219
  0
LINE
  8
_0-d_0_1
  6
CONTINUOUS
 62
    7
 10
2.9040631740144818
 20
178.75000170106301
 11
7.0067090480379193
 21
182.8526561581553
  0
LINE
  8
_0-d_0_1
  6
CONTINUOUS
 62
    7
 10
2.7626389949373333
 20
178.75000170106301
 11
7.098824450259599
 21
183.08618715638528
  0
LINE
  8
_0-d_0_1
  6
CONTINUOUS
 62
    7
 10
2.621224352603349
 20
178.75000170106301
 11
7.2014827220491497
 21
183.33026007050881
  0
LINE
  8
_0-d_0_1
  6
CONTINUOUS
 62
    7
 10
2.4797915904573529
 20
178.75000170106301
 11
7.3166512935213177
 21
183.58686140412698
  0
LINE
  8
_0-d_0_1
  6
CONTINUOUS
 62
    7
 10
2.3383769481233685
 20
178.75000170106301
 11
7.4469813792757122
 21
183.85860708588967
  0
LINE
  8
_0-d_0_1
  6
CONTINUOUS
 62
    7
 10
2.4797915904573529
 20
178.75000170106301
 11
7.6777743785432904
 21
183.94798448914895
  0
LINE
  8
_0-d_0_1
  6
CONTINUOUS
 62
    7
 10
2.3383769481233685
 20
178.75000170106301
 11
7.6160077540926068
 21
184.02763298386941
  0
LINE
  8
_0-d_0_1
  6
CONTINUOUS
 62
    7
 10
2.1969613521150677
 20
178.75000170106301
 11
7.5542411296419232
 21
184.10728195542703
  0
LINE
  8
_0-d_0_1
  6
CONTINUOUS
 62
    7
 10
2.0555285899690716
 20
178.75000170106301
 11
7.4924668757967083
 21
184.18693951005349
  0
LINE
  8
_0-d_0_1
  6
CONTINUOUS
 62
    7
 10
1.9141139476350872
 20
178.75000170106301
 11
7.4307002513460247
 21
184.26658800477395
  0
LINE
  8
_0-d_0_1
  6
CONTINUOUS
 62
    7
 10
1.7726897685579388
 20
178.75000170106301
 11
7.3689336268953411
 21
184.34623697633157
  0
LINE
  8
_0-d_0_1
  6
CONTINUOUS
 62
    7
 10
1.6312655894807904
 20
178.75000170106301
 11
7.3071593730501263
 21
184.42589453095803
  0
LINE
  8
_0-d_0_1
  6
CONTINUOUS
 62
    7
 10
1.489850947146806
 20
178.75000170106301
 11
7.2453927485994427
 21
184.50554302567849
  0
LINE
  8
_0-d_0_1
  6
CONTINUOUS
 62
    7
 10
1.3484267680696576
 20
178.75000170106301
 11
7.1836261241487591
 21
184.58520058030496
  0
LINE
  8
_0-d_0_1
  6
CONTINUOUS
 62
    7
 10
1.2070044963411419
 20
178.75000170106301
 11
7.1218509166292279
 21
184.66484955186257
  0
LINE
  8
_0-d_0_1
  6
CONTINUOUS
 62
    7
 10
1.0655879466585247
 20
178.75000170106301
 11
7.0600852458528607
 21
184.74449804658303
  0
LINE
  8
_0-d_0_1
  6
CONTINUOUS
 62
    7
 10
0.924156138186845
 20
178.75000170106301
 11
6.9983100383333294
 21
184.8241556012095
  0
LINE
  8
_0-d_0_1
  6
CONTINUOUS
 62
    7
 10
0.7827414958528606
 20
178.75000170106301
 11
6.9365434138826458
 21
184.90380457276711
  0
LINE
  8
_0-d_0_1
  6
CONTINUOUS
 62
    7
 10
0.6413268535188763
 20
178.75000170106301
 11
6.8747777431062786
 21
184.98345306748757
  0
LINE
  8
_0-d_0_1
  6
CONTINUOUS
 62
    7
 10
0.4998931376985638
 20
178.75000170106301
 11
6.8130111186555951
 21
185.06311062211404
  0
LINE
  8
_0-d_0_1
  6
CONTINUOUS
 62
    7
 10
0.3584784953645794
 20
178.75000170106301
 11
6.7512359111360638
 21
185.14275959367166
  0
LINE
  8
_0-d_0_1
  6
CONTINUOUS
 62
    7
 10
0.2500285594514934
 20
178.78297579521546
 11
6.6894702403596966
 21
185.22241667146096
  0
LINE
  8
_0-d_0_1
  6
CONTINUOUS
 62
    7
 10
0.250877329593095
 20
178.92524822289357
 11
6.627703615909013
 21
185.30207422608743
  0
LINE
  8
_0-d_0_1
  6
CONTINUOUS
 62
    7
 10
0.2528991191438763
 20
179.06868422264466
 11
6.5659369914583294
 21
185.38172319764504
  0
LINE
  8
_0-d_0_1
  6
CONTINUOUS
 62
    7
 10
0.2561358897737591
 20
179.2133450531424
 11
6.5041627376131146
 21
185.4613716923655
  0
LINE
  8
_0-d_0_1
  6
CONTINUOUS
 62
    7
 10
0.2606067149690716
 20
179.3592394315661
 11
6.442396113162431
 21
185.54102924699197
  0
LINE
  8
_0-d_0_1
  6
CONTINUOUS
 62
    7
 10
0.2663535563997356
 20
179.50640246505151
 11
6.3806294887117474
 21
185.62067821854959
  0
LINE
  8
_0-d_0_1
  6
CONTINUOUS
 62
    7
 10
0.2734145610384075
 20
179.65488645667443
 11
6.3188542811922161
 21
185.70032671327004
  0
LINE
  8
_0-d_0_1
  6
CONTINUOUS
 62
    7
 10
0.2818126170686809
 20
179.80470910901437
 11
6.257088610415849
 21
185.77998426789651
  0
LINE
  8
_0-d_0_1
  6
CONTINUOUS
 62
    7
 10
0.2916030376009075
 20
179.955913933462
 11
6.1953219859651654
 21
185.85963323945413
  0
LINE
  8
_0-d_0_1
  6
CONTINUOUS
 62
    7
 10
0.3028106181673138
 20
180.10855368012795
 11
6.1335467784456341
 21
185.93929079408059
  0
LINE
  8
_0-d_0_1
  6
CONTINUOUS
 62
    7
 10
0.3154963939241497
 20
180.26265445584664
 11
6.0717811076692669
 21
186.01893928880105
  0
LINE
  8
_0-d_0_1
  6
CONTINUOUS
 62
    7
 10
0.32970423388997
 20
180.4182775341929
 11
6.0100144832185833
 21
186.09858826035867
  0
LINE
  8
_0-d_0_1
  6
CONTINUOUS
 62
    7
 10
0.3454684703401653
 20
180.57547524804482
 11
5.9482392756990521
 21
186.17824581498513
  0
LINE
  8
_0-d_0_1
  6
CONTINUOUS
 62
    7
 10
0.3628615825227825
 20
180.73428288335214
 11
5.8864736049226849
 21
186.25789430970559
  0
LINE
  8
_0-d_0_1
  6
CONTINUOUS
 62
    7
 10
0.3819255321077434
 20
180.89477899903665
 11
5.8246983974031536
 21
186.33755186433206
  0
LINE
  8
_0-d_0_1
  6
CONTINUOUS
 62
    7
 10
0.4027289836458294
 20
181.05699852342019
 11
5.7629317729524701
 21
186.41720083588967
  0
LINE
  8
_0-d_0_1
  6
CONTINUOUS
 62
    7
 10
0.4253367869905559
 20
181.22102049226174
 11
5.7011651485017865
 21
186.49684933061013
  0
LINE
  8
_0-d_0_1
  6
CONTINUOUS
 62
    7
 10
0.4498061626009075
 20
181.3869145237864
 11
5.6393908946565716
 21
186.5765068852366
  0
LINE
  8
_0-d_0_1
  6
CONTINUOUS
 62
    7
 10
0.4762286632112591
 20
181.55475953454385
 11
5.577624270205888
 21
186.65615585679421
  0
LINE
  8
_0-d_0_1
  6
CONTINUOUS
 62
    7
 10
0.504661509280595
 20
181.72460797662148
 11
5.5158576457552044
 21
186.73580435151467
  0
LINE
  8
_0-d_0_1
  6
CONTINUOUS
 62
    7
 10
0.5352115123323528
 20
181.8965912186564
 11
5.4540833919099896
 21
186.81546190614114
  0
LINE
  8
_0-d_0_1
  6
CONTINUOUS
 62
    7
 10
0.5679587810091106
 20
182.07075289124856
 11
5.392316767459306
 21
186.89511087769876
  0
LINE
  8
_0-d_0_1
  6
CONTINUOUS
 62
    7
 10
0.6030063121370403
 20
182.24721554154763
 11
5.3305501430086224
 21
186.97476843232522
  0
LINE
  8
_0-d_0_1
  6
CONTINUOUS
 62
    7
 10
0.6404590098909466
 20
182.42610147828469
 11
5.2687749354890911
 21
187.05441740388284
  0
LINE
  8
_0-d_0_1
  6
CONTINUOUS
 62
    7
 10
0.6804408519319622
 20
182.60749843949685
 11
5.207009264712724
 21
187.13406542176614
  0
LINE
  8
_0-d_0_1
  6
CONTINUOUS
 62
    7
 10
0.7230910747102825
 20
182.79157236451516
 11
5.1452426402620404
 21
187.2137229763926
  0
LINE
  8
_0-d_0_1
  6
CONTINUOUS
 62
    7
 10
0.7685336558870403
 20
182.97843721742043
 11
5.0834674327425091
 21
187.29337194795022
  0
LINE
  8
_0-d_0_1
  6
CONTINUOUS
 62
    7
 10
0.8169230907014934
 20
183.16824177140603
 11
5.0217017619661419
 21
187.37302091950784
  0
LINE
  8
_0-d_0_1
  6
CONTINUOUS
 62
    7
 10
0.8684443919710247
 20
183.36118725175271
 11
4.9599351375154583
 21
187.4526784741343
  0
LINE
  8
_0-d_0_1
  6
CONTINUOUS
 62
    7
 10
0.9232806651643841
 20
183.55744818086038
 11
4.8981685130647747
 21
187.53233602876077
  0
LINE
  8
_0-d_0_1
  6
CONTINUOUS
 62
    7
 10
0.9816436259798138
 20
183.75722626084695
 11
4.8364028422884076
 21
187.61198500031838
  0
LINE
  8
_0-d_0_1
  6
CONTINUOUS
 62
    7
 10
1.0437869517854779
 20
183.96080139512429
 11
4.7746276347688763
 21
187.69164255494485
  0
LINE
  8
_0-d_0_1
  6
CONTINUOUS
 62
    7
 10
1.1099528758577435
 20
184.16838339204202
 11
4.7128610103181927
 21
187.77129057282815
  0
LINE
  8
_0-d_0_1
  6
CONTINUOUS
 62
    7
 10
1.1804599254182904
 20
184.38031319016824
 11
4.6510867564729779
 21
187.85093954438577
  0
LINE
  8
_0-d_0_1
  6
CONTINUOUS
 62
    7
 10
1.2556552379182904
 20
184.59693268174539
 11
4.5893201320222943
 21
187.93059709901223
  0
LINE
  8
_0-d_0_1
  6
CONTINUOUS
 62
    7
 10
1.3359260051302044
 20
184.81861761445413
 11
4.5275535075716107
 21
188.01024607056985
  0
LINE
  8
_0-d_0_1
  6
CONTINUOUS
 62
    7
 10
1.4217338054231732
 20
185.04584911698709
 11
4.4657783000520794
 21
188.08989504212747
  0
LINE
  8
_0-d_0_1
  6
CONTINUOUS
 62
    7
 10
1.5136222331575482
 20
185.27916124696145
 11
4.4040126292757122
 21
188.16955259675393
  0
LINE
  8
_0-d_0_1
  6
CONTINUOUS
 62
    7
 10
1.6122035472444622
 20
185.51915768021951
 11
4.3422460048250286
 21
188.24920061463723
  0
LINE
  8
_0-d_0_1
  6
CONTINUOUS
 62
    7
 10
1.7182559459261029
 20
185.76664236420999
 11
4.2804707973054974
 21
188.3288581692637
  0
LINE
  8
_0-d_0_1
  6
CONTINUOUS
 62
    7
 10
1.832680651431474
 20
186.02248266572366
 11
4.2187051265291302
 21
188.40850714082131
  0
LINE
  8
_0-d_0_1
  6
CONTINUOUS
 62
    7
 10
1.9566068141512005
 20
186.28782394761453
 11
4.1569385020784466
 21
188.48815611237893
  0
LINE
  8
_0-d_0_1
  6
CONTINUOUS
 62
    7
 10
2.0914687602571576
 20
186.56411007279763
 11
4.0951632945589154
 21
188.5678136670054
  0
LINE
  8
_0-d_0_1
  6
CONTINUOUS
 62
    7
 10
2.2390517680696576
 20
186.85311678285012
 11
4.0333976237825482
 21
188.64746263856301
  0
LINE
  8
_0-d_0_1
  6
CONTINUOUS
 62
    7
 10
2.4017695872835247
 20
187.15725019807229
 11
3.9716309993318646
 21
188.72711065644631
  0
LINE
  8
_0-d_0_1
  6
CONTINUOUS
 62
    7
 10
2.5829305141023724
 20
187.47984293336282
 11
3.9098557918123333
 21
188.80676821107278
  0
LINE
  8
_0-d_0_1
  6
CONTINUOUS
 62
    7
 10
2.787249514346513
 20
187.82557657594094
 11
3.8480901210359661
 21
188.8864171826304
  0
LINE
  8
_0-d_0_1
  6
CONTINUOUS
 62
    7
 10
3.0219439952425091
 20
188.20168665284524
 11
3.7863234965852826
 21
188.96606615418801
  0
LINE
  8
_0-d_0_1
  6
CONTINUOUS
 62
    7
 10
3.2991742579988568
 20
188.62034109467874
 11
3.724556872134599
 21
189.04572370881448
  0
LINE
  8
_0-d_0_1
  6
CONTINUOUS
 62
    7
 10
3.6424235789827435
 20
189.10501364106545
 11
3.6627816646150677
 21
189.1253726803721
  0
LINE
  8
_0-d_0_1
  6
CONTINUOUS
 62
    7
 10
25.751760432010073
 20
191.93649938935647
 11
28.615353533511538
 21
192.46942118043313
  0
LINE
  8
_0-d_0_1
  6
CONTINUOUS
 62
    7
 10
28.477158495669741
 20
192.44370058411965
 11
28.551890322451968
 21
192.51842287415872
  0
LINE
  8
_0-d_0_1
  6
CONTINUOUS
 62
    7
 10
28.30340761828937
 20
192.41136434907327
 11
28.472416826968569
 21
192.58038214082131
  0
LINE
  8
_0-d_0_1
  6
CONTINUOUS
 62
    7
 10
28.129639574771304
 20
192.37902048463235
 11
28.392558047061343
 21
192.64194753999124
  0
LINE
  8
_0-d_0_1
  6
CONTINUOUS
 62
    7
 10
27.955889651065249
 20
192.34669378632913
 11
28.312278696780581
 21
192.70307520264993
  0
LINE
  8
_0-d_0_1
  6
CONTINUOUS
 62
    7
 10
27.782103487735171
 20
192.31434992188821
 11
28.231580683474917
 21
192.76380899781594
  0
LINE
  8
_0-d_0_1
  6
CONTINUOUS
 62
    7
 10
27.608353564029116
 20
192.28201464051614
 11
28.150462099795718
 21
192.82410505647073
  0
LINE
  8
_0-d_0_1
  6
CONTINUOUS
 62
    7
 10
27.434602686648745
 20
192.24967840546975
 11
28.0689238994173
 21
192.88399008149514
  0
LINE
  8
_0-d_0_1
  6
CONTINUOUS
 62
    7
 10
27.26085276294269
 20
192.21734312409768
 11
27.986965128665346
 21
192.9434650265635
  0
LINE
  8
_0-d_0_1
  6
CONTINUOUS
 62
    7
 10
27.087101885562319
 20
192.18500784272561
 11
27.904586741214175
 21
193.00250986451516
  0
LINE
  8
_0-d_0_1
  6
CONTINUOUS
 62
    7
 10
26.913333842044253
 20
192.15267256135354
 11
27.821805903201479
 21
193.0611350857676
  0
LINE
  8
_0-d_0_1
  6
CONTINUOUS
 62
    7
 10
26.739565798526186
 20
192.12033727998147
 11
27.738587328677554
 21
193.11935022706399
  0
LINE
  8
_0-d_0_1
  6
CONTINUOUS
 62
    7
 10
26.565815874820132
 20
192.0880019986094
 11
27.654949137454409
 21
193.17712667817483
  0
LINE
  8
_0-d_0_1
  6
CONTINUOUS
 62
    7
 10
26.392064997439761
 20
192.05566576356301
 11
27.570891329532046
 21
193.23448351258645
  0
LINE
  8
_0-d_0_1
  6
CONTINUOUS
 62
    7
 10
26.218296953921694
 20
192.0233218991221
 11
27.486395785098452
 21
193.29141214723001
  0
LINE
  8
_0-d_0_1
  6
CONTINUOUS
 62
    7
 10
26.044547030215639
 20
191.99098661775002
 11
27.401462504153628
 21
193.34791162843118
  0
LINE
  8
_0-d_0_1
  6
CONTINUOUS
 62
    7
 10
25.870778986697573
 20
191.95865133637795
 11
27.316109606509585
 21
193.40399053925881
  0
LINE
  8
_0-d_0_1
  6
CONTINUOUS
 62
    7
 10
25.700842806582827
 20
191.93013933534036
 11
27.230337092166323
 21
193.45962408418069
  0
LINE
  8
_0-d_0_1
  6
CONTINUOUS
 62
    7
 10
25.539235541110415
 20
191.90993765229592
 11
27.144144007449526
 21
193.51483801240335
  0
LINE
  8
_0-d_0_1
  6
CONTINUOUS
 62
    7
 10
25.377593466525454
 20
191.88972833985696
 11
27.057478853946108
 21
193.56961325044045
  0
LINE
  8
_0-d_0_1
  6
CONTINUOUS
 62
    7
 10
25.215986201053042
 20
191.86952761048684
 11
26.970393130069155
 21
193.6239431225718
  0
LINE
  8
_0-d_0_1
  6
CONTINUOUS
 62
    7
 10
25.055673548465151
 20
191.85064772004495
 11
26.882870623355288
 21
193.67784479493508
  0
LINE
  8
_0-d_0_1
  6
CONTINUOUS
 62
    7
 10
24.964616724734682
 20
191.90101412171731
 11
26.79491038013019
 21
193.73130873078713
  0
LINE
  8
_0-d_0_1
  6
CONTINUOUS
 62
    7
 10
24.873034426455874
 20
191.9508474194468
 11
26.706513354068179
 21
193.78432634705911
  0
LINE
  8
_0-d_0_1
  6
CONTINUOUS
 62
    7
 10
24.780909964328188
 20
192.00014665955911
 11
26.617678591494936
 21
193.836897643751
  0
LINE
  8
_0-d_0_1
  6
CONTINUOUS
 62
    7
 10
24.688243338351626
 20
192.04890325898538
 11
26.528370806460757
 21
193.88903120393167
  0
LINE
  8
_0-d_0_1
  6
CONTINUOUS
 62
    7
 10
24.59503359485187
 20
192.09711817139993
 11
26.438643404727358
 21
193.9407098614634
  0
LINE
  8
_0-d_0_1
  6
CONTINUOUS
 62
    7
 10
24.501282164340395
 20
192.14478090638528
 11
26.348426768069643
 21
193.99194315308938
  0
LINE
  8
_0-d_0_1
  6
CONTINUOUS
 62
    7
 10
24.406970450168032
 20
192.19190195435891
 11
26.257789561038393
 21
194.04272058839211
  0
LINE
  8
_0-d_0_1
  6
CONTINUOUS
 62
    7
 10
24.312133738284487
 20
192.23846319550881
 11
26.166696497683901
 21
194.09304312104592
  0
LINE
  8
_0-d_0_1
  6
CONTINUOUS
 62
    7
 10
24.216702410464663
 20
192.28447225922952
 11
26.0751494853548
 21
194.14292028779397
  0
LINE
  8
_0-d_0_1
  6
CONTINUOUS
 62
    7
 10
24.12071079898395
 20
192.32990530366311
 11
25.983147570376772
 21
194.19232443208108
  0
LINE
  8
_0-d_0_1
  6
CONTINUOUS
 62
    7
 10
24.024194189792055
 20
192.37478617066751
 11
25.890673586612124
 21
194.24127367371926
  0
LINE
  8
_0-d_0_1
  6
CONTINUOUS
 62
    7
 10
23.927048155551333
 20
192.41909006471047
 11
25.797726580386538
 21
194.28975942963967
  0
LINE
  8
_0-d_0_1
  6
CONTINUOUS
 62
    7
 10
23.82937664676227
 20
192.4628160321177
 11
25.704324671512026
 21
194.33777311677346
  0
LINE
  8
_0-d_0_1
  6
CONTINUOUS
 62
    7
 10
23.731110522036929
 20
192.5059650265635
 11
25.610450693850893
 21
194.38532236451516
  0
LINE
  8
_0-d_0_1
  6
CONTINUOUS
 62
    7
 10
23.632232138400454
 20
192.54852751130471
 11
25.516103693728823
 21
194.43239954347024
  0
LINE
  8
_0-d_0_1
  6
CONTINUOUS
 62
    7
 10
23.532793947940249
 20
192.5904958569468
 11
25.421284624820132
 21
194.47899511689553
  0
LINE
  8
_0-d_0_1
  6
CONTINUOUS
 62
    7
 10
23.432743021731753
 20
192.6318776928843
 11
25.325975844149966
 21
194.52512720460305
  0
LINE
  8
_0-d_0_1
  6
CONTINUOUS
 62
    7
 10
23.332097002749819
 20
192.6726548993052
 11
25.230194041018862
 21
194.57076147431741
  0
LINE
  8
_0-d_0_1
  6
CONTINUOUS
 62
    7
 10
23.230856367831606
 20
192.71282080048928
 11
25.133940169101137
 21
194.61592272157083
  0
LINE
  8
_0-d_0_1
  6
CONTINUOUS
 62
    7
 10
23.128968188052554
 20
192.75238302583108
 11
25.037196585421938
 21
194.66059378022561
  0
LINE
  8
_0-d_0_1
  6
CONTINUOUS
 62
    7
 10
23.026485392337221
 20
192.79131487244973
 11
24.939945170169253
 21
194.70476606721292
  0
LINE
  8
_0-d_0_1
  6
CONTINUOUS
 62
    7
 10
22.923389860873598
 20
192.82963446015725
 11
24.842204043155093
 21
194.74844816560159
  0
LINE
  8
_0-d_0_1
  6
CONTINUOUS
 62
    7
 10
22.819646784549136
 20
192.86731508607278
 11
24.7439727275423
 21
194.79164102906594
  0
LINE
  8
_0-d_0_1
  6
CONTINUOUS
 62
    7
 10
22.715274283175845
 20
192.90436628693948
 11
24.645251700168032
 21
194.83432558411965
  0
LINE
  8
_0-d_0_1
  6
CONTINUOUS
 62
    7
 10
22.610253760104555
 20
192.94076994294534
 11
24.546005675082583
 21
194.8765123211802
  0
LINE
  8
_0-d_0_1
  6
CONTINUOUS
 62
    7
 10
22.504586169009585
 20
192.97651747102151
 11
24.446252295260805
 21
194.91818407410989
  0
LINE
  8
_0-d_0_1
  6
CONTINUOUS
 62
    7
 10
22.398271509890932
 20
193.01161745423684
 11
24.346008726840395
 21
194.95934656495461
  0
LINE
  8
_0-d_0_1
  6
CONTINUOUS
 62
    7
 10
22.291274019961733
 20
193.04604414338479
 11
24.245222994571108
 21
194.99999216431985
  0
LINE
  8
_0-d_0_1
  6
CONTINUOUS
 62
    7
 10
22.183594176059145
 20
193.07979658479104
 11
24.143912264590639
 21
195.04011515015969
  0
LINE
  8
_0-d_0_1
  6
CONTINUOUS
 62
    7
 10
22.075266787295718
 20
193.11287573212991
 11
24.042111822848696
 21
195.07971170777688
  0
LINE
  8
_0-d_0_1
  6
CONTINUOUS
 62
    7
 10
21.966222235446352
 20
193.14526346558938
 11
23.939751097445864
 21
195.11878374452004
  0
LINE
  8
_0-d_0_1
  6
CONTINUOUS
 62
    7
 10
21.856495329623598
 20
193.17694261903176
 11
23.836865851169009
 21
195.15732172364602
  0
LINE
  8
_0-d_0_1
  6
CONTINUOUS
 62
    7
 10
21.746051022296328
 20
193.20792272920022
 11
23.733455607180971
 21
195.19531801576028
  0
LINE
  8
_0-d_0_1
  6
CONTINUOUS
 62
    7
 10
21.634889075045962
 20
193.23819330567727
 11
23.629467436557192
 21
195.23277071351418
  0
LINE
  8
_0-d_0_1
  6
CONTINUOUS
 62
    7
 10
21.523009964709658
 20
193.26772859925637
 11
23.524954745059389
 21
195.26968172425637
  0
LINE
  8
_0-d_0_1
  6
CONTINUOUS
 62
    7
 10
21.410395809893984
 20
193.29652956361184
 11
23.41989988971271
 21
195.30603388184915
  0
LINE
  8
_0-d_0_1
  6
CONTINUOUS
 62
    7
 10
21.297020622973818
 20
193.32458666200051
 11
23.314267107730288
 21
195.3418329083384
  0
LINE
  8
_0-d_0_1
  6
CONTINUOUS
 62
    7
 10
21.182910391574282
 20
193.35189226502786
 11
23.208074518924136
 21
195.37706545228372
  0
LINE
  8
_0-d_0_1
  6
CONTINUOUS
 62
    7
 10
21.068021723513979
 20
193.37842729920754
 11
23.101339766269106
 21
195.41172769898782
  0
LINE
  8
_0-d_0_1
  6
CONTINUOUS
 62
    7
 10
20.952354141955752
 20
193.40418318147073
 11
22.993992277865786
 21
195.44582155579934
  0
LINE
  8
_0-d_0_1
  6
CONTINUOUS
 62
    7
 10
20.835899302249331
 20
193.42914369935403
 11
22.886084982638735
 21
195.47933748597512
  0
LINE
  8
_0-d_0_1
  6
CONTINUOUS
 62
    7
 10
20.718630978351015
 20
193.45330789918313
 11
22.777582594638247
 21
195.5122602307261
  0
LINE
  8
_0-d_0_1
  6
CONTINUOUS
 62
    7
 10
20.600566336398501
 20
193.47665766114602
 11
22.668503233676333
 21
195.54459551209817
  0
LINE
  8
_0-d_0_1
  6
CONTINUOUS
 62
    7
 10
20.481661984210405
 20
193.49916818971047
 11
22.558811136966128
 21
195.57632616395364
  0
LINE
  8
_0-d_0_1
  6
CONTINUOUS
 62
    7
 10
20.361908861880693
 20
193.52084806794534
 11
22.448524424319643
 21
195.6074636303843
  0
LINE
  8
_0-d_0_1
  6
CONTINUOUS
 62
    7
 10
20.241315790896806
 20
193.54167059296975
 11
22.337624975924868
 21
195.63797930116067
  0
LINE
  8
_0-d_0_1
  6
CONTINUOUS
 62
    7
 10
20.119847962146196
 20
193.5616176449717
 11
22.226095625644106
 21
195.66787317628274
  0
LINE
  8
_0-d_0_1
  6
CONTINUOUS
 62
    7
 10
19.997470328097734
 20
193.5806720578135
 11
22.113954016452212
 21
195.69715669984231
  0
LINE
  8
_0-d_0_1
  6
CONTINUOUS
 62
    7
 10
19.874208876376542
 20
193.59882620210061
 11
22.001164862399477
 21
195.72578981751809
  0
LINE
  8
_0-d_0_1
  6
CONTINUOUS
 62
    7
 10
19.750028797870073
 20
193.61606958741555
 11
21.88776344943561
 21
195.75379541749368
  0
LINE
  8
_0-d_0_1
  6
CONTINUOUS
 62
    7
 10
19.624904104953202
 20
193.63236883515725
 11
21.773679682498354
 21
195.78114488953958
  0
LINE
  8
_0-d_0_1
  6
CONTINUOUS
 62
    7
 10
19.498825618510637
 20
193.64770487183938
 11
21.658965775256533
 21
195.80784586305032
  0
LINE
  8
_0-d_0_1
  6
CONTINUOUS
 62
    7
 10
19.371767350917253
 20
193.66207102174172
 11
21.543569514041323
 21
195.83388117188821
  0
LINE
  8
_0-d_0_1
  6
CONTINUOUS
 62
    7
 10
19.243711659198198
 20
193.67543867463479
 11
21.427508303408999
 21
195.85923555726418
  0
LINE
  8
_0-d_0_1
  6
CONTINUOUS
 62
    7
 10
19.114649841075334
 20
193.6877916180552
 11
21.310773560290713
 21
195.88391664857278
  0
LINE
  8
_0-d_0_1
  6
CONTINUOUS
 62
    7
 10
18.984538146739396
 20
193.69911268586526
 11
21.19332141566791
 21
195.9078958355845
  0
LINE
  8
_0-d_0_1
  6
CONTINUOUS
 62
    7
 10
18.853376695399675
 20
193.70936659211526
 11
21.075195500140566
 21
195.93118456239114
  0
LINE
  8
_0-d_0_1
  6
CONTINUOUS
 62
    7
 10
18.721130379920396
 20
193.71853521699319
 11
20.956352421527285
 21
195.95375803346047
  0
LINE
  8
_0-d_0_1
  6
CONTINUOUS
 62
    7
 10
18.587755450492295
 20
193.72659281129251
 11
20.836774298434634
 21
195.97561243409524
  0
LINE
  8
_0-d_0_1
  6
CONTINUOUS
 62
    7
 10
18.453251966720018
 20
193.7335040890635
 11
20.716487595324892
 21
195.9967401349009
  0
LINE
  8
_0-d_0_1
  6
CONTINUOUS
 62
    7
 10
18.31758482146779
 20
193.73926142091165
 11
20.595448204760928
 21
196.01712396973977
  0
LINE
  8
_0-d_0_1
  6
CONTINUOUS
 62
    7
 10
18.180719146018419
 20
193.74381903046975
 11
20.473648020511064
 21
196.03674867982278
  0
LINE
  8
_0-d_0_1
  6
CONTINUOUS
 62
    7
 10
18.042628654723558
 20
193.74714353913674
 11
20.351103970294389
 21
196.05561998719583
  0
LINE
  8
_0-d_0_1
  6
CONTINUOUS
 62
    7
 10
17.90326956797162
 20
193.74921682710061
 11
20.227755257373246
 21
196.07370355958352
  0
LINE
  8
_0-d_0_1
  6
CONTINUOUS
 62
    7
 10
17.762633165789339
 20
193.74999597901711
 11
20.103645273929033
 21
196.0910070263804
  0
LINE
  8
_0-d_0_1
  6
CONTINUOUS
 62
    7
 10
17.620666959767732
 20
193.74944475526223
 11
19.978721567874345
 21
196.10749987000833
  0
LINE
  8
_0-d_0_1
  6
CONTINUOUS
 62
    7
 10
17.477309682851228
 20
193.74752024049172
 11
19.852975556140336
 21
196.12318590516458
  0
LINE
  8
_0-d_0_1
  6
CONTINUOUS
 62
    7
 10
17.332570114617738
 20
193.74419573182473
 11
19.726415941005143
 21
196.13804033631692
  0
LINE
  8
_0-d_0_1
  6
CONTINUOUS
 62
    7
 10
17.186369487529191
 20
193.73941019410501
 11
19.599007674937639
 21
196.15204790467629
  0
LINE
  8
_0-d_0_1
  6
CONTINUOUS
 62
    7
 10
17.038655349498185
 20
193.73312834138284
 11
19.47072453189412
 21
196.1651971661509
  0
LINE
  8
_0-d_0_1
  6
CONTINUOUS
 62
    7
 10
16.889401444678697
 20
193.72528913850198
 11
19.341584035640153
 21
196.17747095460305
  0
LINE
  8
_0-d_0_1
  6
CONTINUOUS
 62
    7
 10
16.738555261378679
 20
193.71585825318704
 11
19.211559960132035
 21
196.18886354798684
  0
LINE
  8
_0-d_0_1
  6
CONTINUOUS
 62
    7
 10
16.586037942653093
 20
193.70477369660745
 11
19.080608436351213
 21
196.19934442872415
  0
LINE
  8
_0-d_0_1
  6
CONTINUOUS
 62
    7
 10
16.431814738994035
 20
193.69196489686379
 11
18.948746988063249
 21
196.2088983380259
  0
LINE
  8
_0-d_0_1
  6
CONTINUOUS
 62
    7
 10
16.275806733851823
 20
193.67738130921731
 11
18.815923282390031
 21
196.21750620240579
  0
LINE
  8
_0-d_0_1
  6
CONTINUOUS
 62
    7
 10
16.117952772860917
 20
193.66095045441995
 11
18.682163366561326
 21
196.2251622998179
  0
LINE
  8
_0-d_0_1
  6
CONTINUOUS
 62
    7
 10
15.958182880168351
 20
193.64259603852639
 11
18.547414907699022
 21
196.23182848328958
  0
LINE
  8
_0-d_0_1
  6
CONTINUOUS
 62
    7
 10
15.796391913180742
 20
193.62223795289407
 11
18.411642798667344
 21
196.23748758668313
  0
LINE
  8
_0-d_0_1
  6
CONTINUOUS
 62
    7
 10
15.632536360507402
 20
193.59979704255471
 11
18.274864622836503
 21
196.2421243512095
  0
LINE
  8
_0-d_0_1
  6
CONTINUOUS
 62
    7
 10
15.466493555789384
 20
193.57516935700784
 11
18.13704533267537
 21
196.24572161073098
  0
LINE
  8
_0-d_0_1
  6
CONTINUOUS
 62
    7
 10
15.298149773364457
 20
193.54825762147317
 11
17.99813243139306
 21
196.24824121827493
  0
LINE
  8
_0-d_0_1
  6
CONTINUOUS
 62
    7
 10
15.127435156588945
 20
193.51895788545022
 11
17.858143435304555
 21
196.24966600770364
  0
LINE
  8
_0-d_0_1
  6
CONTINUOUS
 62
    7
 10
14.954209515338334
 20
193.48714807862649
 11
17.717025855069551
 21
196.24997309083352
  0
LINE
  8
_0-d_0_1
  6
CONTINUOUS
 62
    7
 10
14.778324314837846
 20
193.452695640272
 11
17.574753427391443
 21
196.24912432069192
  0
LINE
  8
_0-d_0_1
  6
CONTINUOUS
 62
    7
 10
14.599665829425248
 20
193.41545179719338
 11
17.431317427640352
 21
196.24710253114114
  0
LINE
  8
_0-d_0_1
  6
CONTINUOUS
 62
    7
 10
14.418041416888627
 20
193.37525156373391
 11
17.286647835259828
 21
196.24386576051126
  0
LINE
  8
_0-d_0_1
  6
CONTINUOUS
 62
    7
 10
14.233302542453202
 20
193.33193567628274
 11
17.140762218718919
 21
196.23939493531594
  0
LINE
  8
_0-d_0_1
  6
CONTINUOUS
 62
    7
 10
14.045247980838212
 20
193.28529623383889
 11
16.993599185233506
 21
196.23364809388528
  0
LINE
  8
_0-d_0_1
  6
CONTINUOUS
 62
    7
 10
13.853632399325761
 20
193.23510435456643
 11
16.845115193610582
 21
196.22658708924661
  0
LINE
  8
_0-d_0_1
  6
CONTINUOUS
 62
    7
 10
13.658228823428544
 20
193.1811244809092
 11
16.695292541270646
 21
196.21818903321633
  0
LINE
  8
_0-d_0_1
  6
CONTINUOUS
 62
    7
 10
13.458765455966386
 20
193.12307718629251
 11
16.544087716823014
 21
196.20839861268411
  0
LINE
  8
_0-d_0_1
  6
CONTINUOUS
 62
    7
 10
13.254875609164628
 20
193.06061914796243
 11
16.39144797015706
 21
196.1971910321177
  0
LINE
  8
_0-d_0_1
  6
CONTINUOUS
 62
    7
 10
13.046252676730546
 20
192.99341085786233
 11
16.237347194438371
 21
196.18450525636086
  0
LINE
  8
_0-d_0_1
  6
CONTINUOUS
 62
    7
 10
12.832432696109208
 20
192.9210155331553
 11
16.081724116092118
 21
196.17029741639504
  0
LINE
  8
_0-d_0_1
  6
CONTINUOUS
 62
    7
 10
12.612908789401445
 20
192.84291532868752
 11
15.92452640224019
 21
196.15453317994485
  0
LINE
  8
_0-d_0_1
  6
CONTINUOUS
 62
    7
 10
12.38713831592122
 20
192.75855902070413
 11
15.765718766932878
 21
196.13714006776223
  0
LINE
  8
_0-d_0_1
  6
CONTINUOUS
 62
    7
 10
12.154368349795732
 20
192.66721323365579
 11
15.605222651248368
 21
196.11807611817727
  0
LINE
  8
_0-d_0_1
  6
CONTINUOUS
 62
    7
 10
11.913786360507402
 20
192.56805494660745
 11
15.443003126864824
 21
196.09727266663918
  0
LINE
  8
_0-d_0_1
  6
CONTINUOUS
 62
    7
 10
11.66434139895955
 20
192.4600255810679
 11
15.278981158023271
 21
196.07466486329446
  0
LINE
  8
_0-d_0_1
  6
CONTINUOUS
 62
    7
 10
11.404686877017411
 20
192.3418033444346
 11
15.113078305011186
 21
196.05019548768411
  0
LINE
  8
_0-d_0_1
  6
CONTINUOUS
 62
    7
 10
11.133186289554033
 20
192.2117173993052
 11
14.945242115741166
 21
196.02377298707376
  0
LINE
  8
_0-d_0_1
  6
CONTINUOUS
 62
    7
 10
10.847591826205644
 20
192.06753805512795
 11
14.77539367366353
 21
195.99534014100442
  0
LINE
  8
_0-d_0_1
  6
CONTINUOUS
 62
    7
 10
10.5448054759554
 20
191.90618494386086
 11
14.603410431628618
 21
195.96479013795266
  0
LINE
  8
_0-d_0_1
  6
CONTINUOUS
 62
    7
 10
10.220523783450517
 20
191.72331789368997
 11
14.429248759036454
 21
195.9320428692759
  0
LINE
  8
_0-d_0_1
  6
CONTINUOUS
 62
    7
 10
9.868001410251054
 20
191.51221922273049
 11
14.252786108737382
 21
195.89699533814797
  0
LINE
  8
_0-d_0_1
  6
CONTINUOUS
 62
    7
 10
9.4759778468660443
 20
191.26161936158547
 11
14.073900172000322
 21
195.85954264039407
  0
LINE
  8
_0-d_0_1
  6
CONTINUOUS
 62
    7
 10
9.3659362285188763
 20
191.29299238557229
 11
13.892494389300737
 21
195.81955126160989
  0
LINE
  8
_0-d_0_1
  6
CONTINUOUS
 62
    7
 10
9.2862786738924115
 20
191.35475901002297
 11
13.708429285769853
 21
195.77691057557473
  0
LINE
  8
_0-d_0_1
  6
CONTINUOUS
 62
    7
 10
9.2066297023347943
 20
191.41653421754251
 11
13.521564432864579
 21
195.73146799439797
  0
LINE
  8
_0-d_0_1
  6
CONTINUOUS
 62
    7
 10
9.1269807307771771
 20
191.47829988831887
 11
13.331759878878984
 21
195.68307855958352
  0
LINE
  8
_0-d_0_1
  6
CONTINUOUS
 62
    7
 10
9.0473231761507122
 20
191.54006651276956
 11
13.138805815463456
 21
195.63155725831399
  0
LINE
  8
_0-d_0_1
  6
CONTINUOUS
 62
    7
 10
8.9676742045930951
 20
191.60184172028909
 11
12.942553469424638
 21
195.57672098512063
  0
LINE
  8
_0-d_0_1
  6
CONTINUOUS
 62
    7
 10
8.8880261867097943
 20
191.66360739106545
 11
12.742775389438066
 21
195.5183580243052
  0
LINE
  8
_0-d_0_1
  6
CONTINUOUS
 62
    7
 10
8.8083590953401654
 20
191.72537401551614
 11
12.539200255160722
 21
195.45621469849954
  0
LINE
  8
_0-d_0_1
  6
CONTINUOUS
 62
    7
 10
8.7287110774568646
 20
191.78714063996682
 11
12.331618258242997
 21
195.39004877442727
  0
LINE
  8
_0-d_0_1
  6
CONTINUOUS
 62
    7
 10
8.6490621058992474
 20
191.84891489381204
 11
12.119697043185624
 21
195.31954172486672
  0
LINE
  8
_0-d_0_1
  6
CONTINUOUS
 62
    7
 10
8.5694045512727826
 20
191.91068151826272
 11
11.903068968539628
 21
195.24434641236672
  0
LINE
  8
_0-d_0_1
  6
CONTINUOUS
 62
    7
 10
8.4897555797151654
 20
191.9724481427134
 11
11.681384035830888
 21
195.16407564515481
  0
LINE
  8
_0-d_0_1
  6
CONTINUOUS
 62
    7
 10
8.4101066081575482
 20
192.03422335023293
 11
11.454152533297929
 21
195.07826784486184
  0
LINE
  8
_0-d_0_1
  6
CONTINUOUS
 62
    7
 10
8.3304490535310833
 20
192.0959890210093
 11
11.220840403323564
 21
194.98637941712747
  0
LINE
  8
_0-d_0_1
  6
CONTINUOUS
 62
    7
 10
8.2508010356477826
 20
192.15775564545999
 11
10.980843970065507
 21
194.88779810304055
  0
LINE
  8
_0-d_0_1
  6
CONTINUOUS
 62
    7
 10
8.1711434810213177
 20
192.21953085297952
 11
10.733359286075029
 21
194.78174570435891
  0
LINE
  8
_0-d_0_1
  6
CONTINUOUS
 62
    7
 10
8.0914945094637005
 20
192.28129652375588
 11
10.477518984561357
 21
194.66732099885354
  0
LINE
  8
_0-d_0_1
  6
CONTINUOUS
 62
    7
 10
8.0118455379060833
 20
192.34306314820657
 11
10.212177702670488
 21
194.54339483613381
  0
LINE
  8
_0-d_0_1
  6
CONTINUOUS
 62
    7
 10
7.9321879832796185
 20
192.4048383557261
 11
9.9358829944185345
 21
194.40853289002786
  0
LINE
  8
_0-d_0_1
  6
CONTINUOUS
 62
    7
 10
7.8525390117220013
 20
192.46660402650247
 11
9.6468848674348919
 21
194.26094988221536
  0
LINE
  8
_0-d_0_1
  6
CONTINUOUS
 62
    7
 10
7.7728909938387005
 20
192.52837065095315
 11
9.342751452212724
 21
194.09823206300149
  0
LINE
  8
_0-d_0_1
  6
CONTINUOUS
 62
    7
 10
7.6932334392122357
 20
192.59014585847268
 11
9.0201587169221966
 21
193.91706255311379
  0
LINE
  8
_0-d_0_1
  6
CONTINUOUS
 62
    7
 10
7.6135844676546185
 20
192.65191152924905
 11
8.6744250743440716
 21
193.7127521359385
  0
LINE
  8
_0-d_0_1
  6
CONTINUOUS
 62
    7
 10
7.5339354960970013
 20
192.71367815369973
 11
8.2983149974397747
 21
193.47805765504251
  0
LINE
  8
_0-d_0_1
  6
CONTINUOUS
 62
    7
 10
7.4542779414705365
 20
192.77544477815042
 11
7.8796605556062786
 21
193.20082739228616
  0
LINE
  8
_0-d_0_1
  6
CONTINUOUS
 62
    7
 10
7.3746289699129193
 20
192.83721998566995
 11
7.3949880092195599
 21
192.85757807130227
  0
LINE
  8
_0-d_0_1
  6
CONTINUOUS
 62
    7
 10
25.883394190554995
 20
186.88006285066018
 11
27.651152560000796
 21
188.64782980317483
  0
LINE
  8
_0-d_0_1
  6
CONTINUOUS
 62
    7
 10
25.812389323001284
 20
186.95048216218362
 11
27.580217310672182
 21
188.71830061311135
  0
LINE
  8
_0-d_0_1
  6
CONTINUOUS
 62
    7
 10
25.74077219653644
 20
187.02027967805276
 11
27.508757540469546
 21
188.78826502198586
  0
LINE
  8
_0-d_0_1
  6
CONTINUOUS
 62
    7
 10
25.668542334323305
 20
187.08947351807961
 11
27.436790415530581
 21
188.85772112244973
  0
LINE
  8
_0-d_0_1
  6
CONTINUOUS
 62
    7
 10
25.595682570224184
 20
187.15804651612649
 11
27.364333101992983
 21
188.92667940492043
  0
LINE
  8
_0-d_0_1
  6
CONTINUOUS
 62
    7
 10
25.522227713351626
 20
187.22599771851907
 11
27.291368433719057
 21
188.99512937898049
  0
LINE
  8
_0-d_0_1
  6
CONTINUOUS
 62
    7
 10
25.448143431430239
 20
187.29333666200051
 11
27.217878290896792
 21
189.06307199830422
  0
LINE
  8
_0-d_0_1
  6
CONTINUOUS
 62
    7
 10
25.373446413760561
 20
187.36006430024514
 11
27.14389891315021
 21
189.13050821656594
  0
LINE
  8
_0-d_0_1
  6
CONTINUOUS
 62
    7
 10
25.298119494204897
 20
187.42616060609231
 11
27.069395014529604
 21
189.19743612641702
  0
LINE
  8
_0-d_0_1
  6
CONTINUOUS
 62
    7
 10
25.2221803157381
 20
187.49164560670266
 11
26.99439997363605
 21
189.26385668153176
  0
LINE
  8
_0-d_0_1
  6
CONTINUOUS
 62
    7
 10
25.145628401523012
 20
187.55650881165872
 11
26.918898531680483
 21
189.32976988191018
  0
LINE
  8
_0-d_0_1
  6
CONTINUOUS
 62
    7
 10
25.068447062259096
 20
187.62075117463479
 11
26.842871615176577
 21
189.39517572755227
  0
LINE
  8
_0-d_0_1
  6
CONTINUOUS
 62
    7
 10
24.990652987246889
 20
187.68437174195657
 11
26.766337343936343
 21
189.46007421845803
  0
LINE
  8
_0-d_0_1
  6
CONTINUOUS
 62
    7
 10
24.912229010348696
 20
187.74736288422952
 11
26.689312884097475
 21
189.5244558178843
  0
LINE
  8
_0-d_0_1
  6
CONTINUOUS
 62
    7
 10
24.833175131564516
 20
187.80973318452249
 11
26.611763903384585
 21
189.5883214795054
  0
LINE
  8
_0-d_0_1
  6
CONTINUOUS
 62
    7
 10
24.75349135089435
 20
187.87147310609231
 11
26.533690401797671
 21
189.65168932313333
  0
LINE
  8
_0-d_0_1
  6
CONTINUOUS
 62
    7
 10
24.673177668338198
 20
187.93257406587014
 11
26.455126711612124
 21
189.71453169221292
  0
LINE
  8
_0-d_0_1
  6
CONTINUOUS
 62
    7
 10
24.592234083896059
 20
187.99305418366799
 11
26.376037546878237
 21
189.77685812348733
  0
LINE
  8
_0-d_0_1
  6
CONTINUOUS
 62
    7
 10
24.510643431430239
 20
188.05289629334817
 11
26.296423861270327
 21
189.8386762463511
  0
LINE
  8
_0-d_0_1
  6
CONTINUOUS
 62
    7
 10
24.428422400241274
 20
188.11208990449319
 11
26.216302820926089
 21
189.89997080201516
  0
LINE
  8
_0-d_0_1
  6
CONTINUOUS
 62
    7
 10
24.34555382419147
 20
188.17065409058938
 11
26.135656306033511
 21
189.96074846619973
  0
LINE
  8
_0-d_0_1
  6
CONTINUOUS
 62
    7
 10
24.262055823092837
 20
188.22856214875588
 11
26.054485270266909
 21
190.02100065583596
  0
LINE
  8
_0-d_0_1
  6
CONTINUOUS
 62
    7
 10
24.177892634158511
 20
188.28583219880471
 11
25.972789713626284
 21
190.08073786134133
  0
LINE
  8
_0-d_0_1
  6
CONTINUOUS
 62
    7
 10
24.093099543338198
 20
188.34245375031838
 11
25.890585848575014
 21
190.13994863862405
  0
LINE
  8
_0-d_0_1
  6
CONTINUOUS
 62
    7
 10
24.00764174151935
 20
188.39842012757668
 11
25.807857462649721
 21
190.19862726563821
  0
LINE
  8
_0-d_0_1
  6
CONTINUOUS
 62
    7
 10
23.921518751864809
 20
188.45372942323098
 11
25.724569269900698
 21
190.25678041810403
  0
LINE
  8
_0-d_0_1
  6
CONTINUOUS
 62
    7
 10
23.834748694186587
 20
188.50837400788674
 11
25.6407913653902
 21
190.31440809602151
  0
LINE
  8
_0-d_0_1
  6
CONTINUOUS
 62
    7
 10
23.747313448672671
 20
188.56235388154397
 11
25.556453177218813
 21
190.37150266999612
  0
LINE
  8
_0-d_0_1
  6
CONTINUOUS
 62
    7
 10
23.659195849185366
 20
188.61566904420266
 11
25.471589991336245
 21
190.42805460328469
  0
LINE
  8
_0-d_0_1
  6
CONTINUOUS
 62
    7
 10
23.570413538699526
 20
188.66830137605081
 11
25.386202284579653
 21
190.48408201569924
  0
LINE
  8
_0-d_0_1
  6
CONTINUOUS
 62
    7
 10
23.480966040377993
 20
188.72026041383157
 11
25.300254294162173
 21
190.5395572506846
  0
LINE
  8
_0-d_0_1
  6
CONTINUOUS
 62
    7
 10
23.390818545108218
 20
188.7715375744761
 11
25.213781306033511
 21
190.59450033540139
  0
LINE
  8
_0-d_0_1
  6
CONTINUOUS
 62
    7
 10
23.299971529727358
 20
188.82213095063577
 11
25.126748511081118
 21
190.64889124268899
  0
LINE
  8
_0-d_0_1
  6
CONTINUOUS
 62
    7
 10
23.208459326510805
 20
188.87202528352151
 11
25.039173552279848
 21
190.70273950929055
  0
LINE
  8
_0-d_0_1
  6
CONTINUOUS
 62
    7
 10
23.116212317233462
 20
188.92121961945901
 11
24.95103830981769
 21
190.7560460888804
  0
LINE
  8
_0-d_0_1
  6
CONTINUOUS
 62
    7
 10
23.023300596957583
 20
188.96970537537942
 11
24.862360903506655
 21
190.80878332490335
  0
LINE
  8
_0-d_0_1
  6
CONTINUOUS
 62
    7
 10
22.929654070620913
 20
189.01748255128274
 11
24.773123690371889
 21
190.86096933717141
  0
LINE
  8
_0-d_0_1
  6
CONTINUOUS
 62
    7
 10
22.835289904361147
 20
189.06455114716897
 11
24.683343836551089
 21
190.91260507935891
  0
LINE
  8
_0-d_0_1
  6
CONTINUOUS
 62
    7
 10
22.740208098178286
 20
189.11088446015725
 11
24.592986532931704
 21
190.96366289491067
  0
LINE
  8
_0-d_0_1
  6
CONTINUOUS
 62
    7
 10
22.644391485934634
 20
189.15649202699075
 11
24.502051779513735
 21
191.0141609036387
  0
LINE
  8
_0-d_0_1
  6
CONTINUOUS
 62
    7
 10
22.547822901492495
 20
189.20135572785745
 11
24.410574862246889
 21
191.06408956879983
  0
LINE
  8
_0-d_0_1
  6
CONTINUOUS
 62
    7
 10
22.450536677127261
 20
189.24547556275735
 11
24.318502852206606
 21
191.11344126099954
  0
LINE
  8
_0-d_0_1
  6
CONTINUOUS
 62
    7
 10
22.352480360751528
 20
189.28884294862161
 11
24.225871035342593
 21
191.16222456330667
  0
LINE
  8
_0-d_0_1
  6
CONTINUOUS
 62
    7
 10
22.253654429202456
 20
189.33144930238137
 11
24.132644125705141
 21
191.2104213559092
  0
LINE
  8
_0-d_0_1
  6
CONTINUOUS
 62
    7
 10
22.154076048617739
 20
189.3732860409678
 11
24.038822123294253
 21
191.25803259248147
  0
LINE
  8
_0-d_0_1
  6
CONTINUOUS
 62
    7
 10
22.053709933047671
 20
189.41434362763772
 11
23.944405504947085
 21
191.3050487362803
  0
LINE
  8
_0-d_0_1
  6
CONTINUOUS
 62
    7
 10
21.952556559329409
 20
189.45460584992776
 11
23.849429079776186
 21
191.35146883363137
  0
LINE
  8
_0-d_0_1
  6
CONTINUOUS
 62
    7
 10
21.850598761325259
 20
189.4940717541636
 11
23.753822752719302
 21
191.39729574555764
  0
LINE
  8
_0-d_0_1
  6
CONTINUOUS
 62
    7
 10
21.747835585360903
 20
189.53273180360208
 11
23.657621332888979
 21
191.44251802796731
  0
LINE
  8
_0-d_0_1
  6
CONTINUOUS
 62
    7
 10
21.644258925204653
 20
189.57057073945413
 11
23.56082482028522
 21
191.48712805146585
  0
LINE
  8
_0-d_0_1
  6
CONTINUOUS
 62
    7
 10
21.539851376300234
 20
189.60758665437112
 11
23.463398405795473
 21
191.53112486237893
  0
LINE
  8
_0-d_0_1
  6
CONTINUOUS
 62
    7
 10
21.434594818835635
 20
189.64375379914651
 11
23.365342566256899
 21
191.57450178498635
  0
LINE
  8
_0-d_0_1
  6
CONTINUOUS
 62
    7
 10
21.328489968066592
 20
189.67906454438577
 11
23.266691157107729
 21
191.61725691193948
  0
LINE
  8
_0-d_0_1
  6
CONTINUOUS
 62
    7
 10
21.221509882693667
 20
189.71351698274026
 11
23.167375513797182
 21
191.65938166016946
  0
LINE
  8
_0-d_0_1
  6
CONTINUOUS
 62
    7
 10
21.113663861041445
 20
189.74708536500344
 11
23.067429491763491
 21
191.70085981721292
  0
LINE
  8
_0-d_0_1
  6
CONTINUOUS
 62
    7
 10
21.004916855578799
 20
189.77976206178079
 11
22.966853567843813
 21
191.74170759553323
  0
LINE
  8
_0-d_0_1
  6
CONTINUOUS
 62
    7
 10
20.895259806399721
 20
189.81152895326028
 11
22.865630575900454
 21
191.78190019959817
  0
LINE
  8
_0-d_0_1
  6
CONTINUOUS
 62
    7
 10
20.784684130435366
 20
189.84236887330422
 11
22.763742396121401
 21
191.82143572205911
  0
LINE
  8
_0-d_0_1
  6
CONTINUOUS
 62
    7
 10
20.673172423129458
 20
189.87228086823831
 11
22.661206671481509
 21
191.86030653352151
  0
LINE
  8
_0-d_0_1
  6
CONTINUOUS
 62
    7
 10
20.560698220019717
 20
189.90123060578713
 11
22.557971426730532
 21
191.89851168031106
  0
LINE
  8
_0-d_0_1
  6
CONTINUOUS
 62
    7
 10
20.447261759524736
 20
189.92920854920754
 11
22.454088637118716
 21
191.9360359036387
  0
LINE
  8
_0-d_0_1
  6
CONTINUOUS
 62
    7
 10
20.332836577182206
 20
189.95620706910501
 11
22.349505850558657
 21
191.97287634248147
  0
LINE
  8
_0-d_0_1
  6
CONTINUOUS
 62
    7
 10
20.217387863879594
 20
189.98218229646096
 11
22.24424071002521
 21
192.00903490418801
  0
LINE
  8
_0-d_0_1
  6
CONTINUOUS
 62
    7
 10
20.100933024173173
 20
190.00714281434426
 11
22.13827557254352
 21
192.04447630280862
  0
LINE
  8
_0-d_0_1
  6
CONTINUOUS
 62
    7
 10
19.983411022906694
 20
190.03104475373635
 11
22.03157562900104
 21
192.07921770448098
  0
LINE
  8
_0-d_0_1
  6
CONTINUOUS
 62
    7
 10
19.864821383242997
 20
190.05387857789407
 11
21.924193331485171
 21
192.11324194306741
  0
LINE
  8
_0-d_0_1
  6
CONTINUOUS
 62
    7
 10
19.745129534488115
 20
190.07561090821633
 11
21.816058584933657
 21
192.14653948182473
  0
LINE
  8
_0-d_0_1
  6
CONTINUOUS
 62
    7
 10
19.624326655154618
 20
190.09623125428567
 11
21.7071976153902
 21
192.17910269135842
  0
LINE
  8
_0-d_0_1
  6
CONTINUOUS
 62
    7
 10
19.502386399989518
 20
190.115706237501
 11
21.597593018298525
 21
192.21091345185647
  0
LINE
  8
_0-d_0_1
  6
CONTINUOUS
 62
    7
 10
19.379265019183549
 20
190.13399961823831
 11
21.487227389102358
 21
192.24197080964456
  0
LINE
  8
_0-d_0_1
  6
CONTINUOUS
 62
    7
 10
19.25493628669301
 20
190.15110376710305
 11
21.376091906314272
 21
192.27225950593362
  0
LINE
  8
_0-d_0_1
  6
CONTINUOUS
 62
    7
 10
19.129391500239763
 20
190.16697386140237
 11
21.264186331515688
 21
192.30176905030618
  0
LINE
  8
_0-d_0_1
  6
CONTINUOUS
 62
    7
 10
19.002578207736406
 20
190.18158415192971
 11
21.151493498568911
 21
192.33049944276223
  0
LINE
  8
_0-d_0_1
  6
CONTINUOUS
 62
    7
 10
18.874461242442521
 20
190.19489172334085
 11
21.037995764499087
 21
192.35842588776956
  0
LINE
  8
_0-d_0_1
  6
CONTINUOUS
 62
    7
 10
18.745032021289262
 20
190.20687750214944
 11
20.923684546237368
 21
192.38552931184182
  0
LINE
  8
_0-d_0_1
  6
CONTINUOUS
 62
    7
 10
18.614211746936235
 20
190.21748045319924
 11
20.808550783877749
 21
192.41181925172219
  0
LINE
  8
_0-d_0_1
  6
CONTINUOUS
 62
    7
 10
18.481991657500657
 20
190.22668436402688
 11
20.692577072863955
 21
192.43726995820413
  0
LINE
  8
_0-d_0_1
  6
CONTINUOUS
 62
    7
 10
18.348319241290483
 20
190.23442724580178
 11
20.575754830127138
 21
192.46186235780129
  0
LINE
  8
_0-d_0_1
  6
CONTINUOUS
 62
    7
 10
18.213142076020631
 20
190.24067381257424
 11
20.458057829623613
 21
192.48558882111917
  0
LINE
  8
_0-d_0_1
  6
CONTINUOUS
 62
    7
 10
18.076416382079515
 20
190.24537161225686
 11
20.339485594516191
 21
192.50844076508889
  0
LINE
  8
_0-d_0_1
  6
CONTINUOUS
 62
    7
 10
17.938089647775087
 20
190.24845960969338
 11
20.220012614016923
 21
192.53039148682961
  0
LINE
  8
_0-d_0_1
  6
CONTINUOUS
 62
    7
 10
17.798100659137162
 20
190.24990347260842
 11
20.099620768313798
 21
192.55142382020364
  0
LINE
  8
_0-d_0_1
  6
CONTINUOUS
 62
    7
 10
17.656405658905896
 20
190.2496230923594
 11
19.978310534243974
 21
192.5715282284678
  0
LINE
  8
_0-d_0_1
  6
CONTINUOUS
 62
    7
 10
17.5129171698145
 20
190.24755838746438
 11
19.856046387439164
 21
192.59068849915872
  0
LINE
  8
_0-d_0_1
  6
CONTINUOUS
 62
    7
 10
17.367573925738725
 20
190.24363973969827
 11
19.732811280970964
 21
192.60887697572122
  0
LINE
  8
_0-d_0_1
  6
CONTINUOUS
 62
    7
 10
17.220314690356645
 20
190.23779562348733
 11
19.608605095630082
 21
192.62608602876077
  0
LINE
  8
_0-d_0_1
  6
CONTINUOUS
 62
    7
 10
17.071034559493455
 20
190.22993925446877
 11
19.483375260119828
 21
192.64227941865335
  0
LINE
  8
_0-d_0_1
  6
CONTINUOUS
 62
    7
 10
16.919654676204118
 20
190.21998289460549
 11
19.357121893649492
 21
192.65744951600442
  0
LINE
  8
_0-d_0_1
  6
CONTINUOUS
 62
    7
 10
16.766087600474748
 20
190.20783117646585
 11
19.229827353244218
 21
192.67157057160745
  0
LINE
  8
_0-d_0_1
  6
CONTINUOUS
 62
    7
 10
16.610210844760331
 20
190.19337728852639
 11
19.101447889094743
 21
192.6846235119761
  0
LINE
  8
_0-d_0_1
  6
CONTINUOUS
 62
    7
 10
16.451910683398637
 20
190.17650106782327
 11
18.971983739619645
 21
192.69657400483499
  0
LINE
  8
_0-d_0_1
  6
CONTINUOUS
 62
    7
 10
16.291073390727433
 20
190.1570880734385
 11
18.841382095103654
 21
192.70739630097756
  0
LINE
  8
_0-d_0_1
  6
CONTINUOUS
 62
    7
 10
16.127532669787797
 20
190.13497141236672
 11
18.709634491687211
 21
192.71707323426614
  0
LINE
  8
_0-d_0_1
  6
CONTINUOUS
 62
    7
 10
15.961166211848649
 20
190.11001947755227
 11
18.576714524512681
 21
192.72556761140237
  0
LINE
  8
_0-d_0_1
  6
CONTINUOUS
 62
    7
 10
15.791772553210649
 20
190.08205011720071
 11
18.442587205653581
 21
192.73286417359719
  0
LINE
  8
_0-d_0_1
  6
CONTINUOUS
 62
    7
 10
15.619168230777177
 20
190.05086878175149
 11
18.307208785300645
 21
192.73890951508889
  0
LINE
  8
_0-d_0_1
  6
CONTINUOUS
 62
    7
 10
15.443134257083329
 20
190.01625040406594
 11
18.170570590978059
 21
192.74368646973977
  0
LINE
  8
_0-d_0_1
  6
CONTINUOUS
 62
    7
 10
15.263417193179521
 20
189.97795656556497
 11
18.032611319308671
 21
192.74715116853127
  0
LINE
  8
_0-d_0_1
  6
CONTINUOUS
 62
    7
 10
15.07972807574788
 20
189.93569162721047
 11
17.893304729347619
 21
192.7492683255137
  0
LINE
  8
_0-d_0_1
  6
CONTINUOUS
 62
    7
 10
14.891769596820268
 20
189.88914850587258
 11
17.752624578753057
 21
192.75000360841165
  0
LINE
  8
_0-d_0_1
  6
CONTINUOUS
 62
    7
 10
14.699121901278886
 20
189.83793333405862
 11
17.61050089586297
 21
192.7493036114634
  0
LINE
  8
_0-d_0_1
  6
CONTINUOUS
 62
    7
 10
14.50139088321248
 20
189.7816169583262
 11
17.466916152720842
 21
192.74714258546243
  0
LINE
  8
_0-d_0_1
  6
CONTINUOUS
 62
    7
 10
14.298034617190751
 20
189.71968439454446
 11
17.321800389771852
 21
192.7434499585093
  0
LINE
  8
_0-d_0_1
  6
CONTINUOUS
 62
    7
 10
14.088440605883989
 20
189.65151384705911
 11
17.175118574386033
 21
192.73819235200295
  0
LINE
  8
_0-d_0_1
  6
CONTINUOUS
 62
    7
 10
13.871873566394243
 20
189.57636240357766
 11
17.026827046161088
 21
192.73131540650735
  0
LINE
  8
_0-d_0_1
  6
CONTINUOUS
 62
    7
 10
13.647397944217118
 20
189.49331072205911
 11
16.876838216071519
 21
192.7227504574717
  0
LINE
  8
_0-d_0_1
  6
CONTINUOUS
 62
    7
 10
13.41385836291829
 20
189.40119436616311
 11
16.725099632029924
 21
192.71243551606545
  0
LINE
  8
_0-d_0_1
  6
CONTINUOUS
 62
    7
 10
13.169784971957597
 20
189.29853609437356
 11
16.571567484622392
 21
192.70031908387551
  0
LINE
  8
_0-d_0_1
  6
CONTINUOUS
 62
    7
 10
12.913210341220292
 20
189.1833856427134
 11
16.416136929278764
 21
192.68631246919045
  0
LINE
  8
_0-d_0_1
  6
CONTINUOUS
 62
    7
 10
12.641447493319902
 20
189.05304602021585
 11
16.258755394702348
 21
192.67035463685403
  0
LINE
  8
_0-d_0_1
  6
CONTINUOUS
 62
    7
 10
12.392737337832841
 20
188.94575098389993
 11
16.099335381274614
 21
192.65234926576028
  0
LINE
  8
_0-d_0_1
  6
CONTINUOUS
 62
    7
 10
12.313079783206376
 20
189.00751760835061
 11
15.937771984820756
 21
192.63221815461526
  0
LINE
  8
_0-d_0_1
  6
CONTINUOUS
 62
    7
 10
12.233431288485917
 20
189.06929281587014
 11
15.773986408000383
 21
192.60984781617532
  0
LINE
  8
_0-d_0_1
  6
CONTINUOUS
 62
    7
 10
12.153773733859452
 20
189.13105848664651
 11
15.607864805941972
 21
192.58515051240335
  0
LINE
  8
_0-d_0_1
  6
CONTINUOUS
 62
    7
 10
12.074116179232988
 20
189.19282511109719
 11
15.439284750705156
 21
192.55799368256936
  0
LINE
  8
_0-d_0_1
  6
CONTINUOUS
 62
    7
 10
11.99446720767537
 20
189.25459173554788
 11
15.268132874255571
 21
192.5282571637095
  0
LINE
  8
_0-d_0_1
  6
CONTINUOUS
 62
    7
 10
11.914818712954911
 20
189.31636694306741
 11
15.094251105075273
 21
192.49579885835061
  0
LINE
  8
_0-d_0_1
  6
CONTINUOUS
 62
    7
 10
11.835161158328447
 20
189.37813261384377
 11
14.917499729876909
 21
192.46047190064797
  0
LINE
  8
_0-d_0_1
  6
CONTINUOUS
 62
    7
 10
11.755512186770829
 20
189.43989923829446
 11
14.737703987841996
 21
192.42209032410989
  0
LINE
  8
_0-d_0_1
  6
CONTINUOUS
 62
    7
 10
11.67586369205037
 20
189.50167444581399
 11
14.554662176852617
 21
192.38047293061624
  0
LINE
  8
_0-d_0_1
  6
CONTINUOUS
 62
    7
 10
11.596206137423906
 20
189.56344011659036
 11
14.368173548465165
 21
192.33540800446877
  0
LINE
  8
_0-d_0_1
  6
CONTINUOUS
 62
    7
 10
11.516557165866288
 20
189.62520674104104
 11
14.178001591449174
 21
192.28665140504251
  0
LINE
  8
_0-d_0_1
  6
CONTINUOUS
 62
    7
 10
11.436899611239824
 20
189.68698194856057
 11
13.983848997836503
 21
192.23392179841409
  0
LINE
  8
_0-d_0_1
  6
CONTINUOUS
 62
    7
 10
11.357251116519365
 20
189.74874761933694
 11
13.785427042727861
 21
192.17692449921975
  0
LINE
  8
_0-d_0_1
  6
CONTINUOUS
 62
    7
 10
11.277602144961747
 20
189.81051424378762
 11
13.582368323092851
 21
192.11528852815042
  0
LINE
  8
_0-d_0_1
  6
CONTINUOUS
 62
    7
 10
11.197944590335283
 20
189.87228945130715
 11
13.374261328463945
 21
192.04860571259866
  0
LINE
  8
_0-d_0_1
  6
CONTINUOUS
 62
    7
 10
11.118296095614824
 20
189.93405607575784
 11
13.160651633029374
 21
191.97641065949807
  0
LINE
  8
_0-d_0_1
  6
CONTINUOUS
 62
    7
 10
11.038638540988359
 20
189.9958217465342
 11
12.940935084109697
 21
191.8981187664927
  0
LINE
  8
_0-d_0_1
  6
CONTINUOUS
 62
    7
 10
10.958989569430742
 20
190.05759695405374
 11
12.714438387637529
 21
191.81304529542336
  0
LINE
  8
_0-d_0_1
  6
CONTINUOUS
 62
    7
 10
10.879341074710283
 20
190.11936357850442
 11
12.480365225558671
 21
191.72038725251565
  0
LINE
  8
_0-d_0_1
  6
CONTINUOUS
 62
    7
 10
10.799683520083818
 20
190.18112924928079
 11
12.237682768588456
 21
191.61912897462258
  0
LINE
  8
_0-d_0_1
  6
CONTINUOUS
 62
    7
 10
10.720034548526201
 20
190.24290445680032
 11
11.985115000491533
 21
191.50798490876565
  0
LINE
  8
_0-d_0_1
  6
CONTINUOUS
 62
    7
 10
10.640386053805742
 20
190.304671081251
 11
11.721059748416337
 21
191.38534429902444
  0
LINE
  8
_0-d_0_1
  6
CONTINUOUS
 62
    7
 10
10.560728499179277
 20
190.36643675202737
 11
11.443321177249345
 21
191.24903849000344
  0
LINE
  8
_0-d_0_1
  6
CONTINUOUS
 62
    7
 10
10.48107952762166
 20
190.4282119595469
 11
11.148986765628251
 21
191.09611872071633
  0
LINE
  8
_0-d_0_1
  6
CONTINUOUS
 62
    7
 10
10.401421972995195
 20
190.48997858399758
 11
10.833803602939042
 21
190.92236021394143
  0
LINE
  8
_0-d_0_1
  6
CONTINUOUS
 62
    7
 10
10.321773478274736
 20
190.55175379151711
 11
10.491280981784257
 21
190.72126081818948
  0
LINE
  8
_0-d_0_1
  6
CONTINUOUS
 62
    7
 10
27.650714823489565
 20
188.64740064973245
 11
30.126020380740542
 21
191.12271574372659
  0
LINE
  8
_0-d_0_1
  6
CONTINUOUS
 62
    7
 10
27.59893984485187
 20
188.73705843324075
 11
30.055120417361636
 21
191.19323900575051
  0
LINE
  8
_0-d_0_1
  6
CONTINUOUS
 62
    7
 10
27.54718203235187
 20
188.82671526307473
 11
29.983818003421206
 21
191.26334265107522
  0
LINE
  8
_0-d_0_1
  6
CONTINUOUS
 62
    7
 10
27.49542421985187
 20
188.91638162965188
 11
29.912095972781557
 21
191.33306196565042
  0
LINE
  8
_0-d_0_1
  6
CONTINUOUS
 62
    7
 10
27.443649241214175
 20
189.00602987641702
 11
29.839988657718081
 21
191.40236070985208
  0
LINE
  8
_0-d_0_1
  6
CONTINUOUS
 62
    7
 10
27.391891428714175
 20
189.09568765992532
 11
29.767478892093081
 21
191.47126654023538
  0
LINE
  8
_0-d_0_1
  6
CONTINUOUS
 62
    7
 10
27.340116450076479
 20
189.18535402650247
 11
29.694548556094546
 21
191.53976896638284
  0
LINE
  8
_0-d_0_1
  6
CONTINUOUS
 62
    7
 10
27.288358637576479
 20
189.2750022732676
 11
29.621199557071108
 21
191.60785177583108
  0
LINE
  8
_0-d_0_1
  6
CONTINUOUS
 62
    7
 10
27.236600825076479
 20
189.3646600567759
 11
29.547482439761538
 21
191.67554071778665
  0
LINE
  8
_0-d_0_1
  6
CONTINUOUS
 62
    7
 10
27.184843012576479
 20
189.45432546967874
 11
29.473345705752749
 21
191.74282816285501
  0
LINE
  8
_0-d_0_1
  6
CONTINUOUS
 62
    7
 10
27.133068033938784
 20
189.54397467011819
 11
29.398788401370425
 21
191.80969503754983
  0
LINE
  8
_0-d_0_1
  6
CONTINUOUS
 62
    7
 10
27.081310221438784
 20
189.63363149995217
 11
29.323846766238589
 21
191.87616804475198
  0
LINE
  8
_0-d_0_1
  6
CONTINUOUS
 62
    7
 10
27.029535242801089
 20
189.72329786652932
 11
29.248467394595522
 21
191.94223001832376
  0
LINE
  8
_0-d_0_1
  6
CONTINUOUS
 62
    7
 10
26.977777430301089
 20
189.81294611329446
 11
29.172719904666323
 21
192.00788954133401
  0
LINE
  8
_0-d_0_1
  6
CONTINUOUS
 62
    7
 10
26.926019617801089
 20
189.90261247987161
 11
29.09653563190021
 21
192.07313707703958
  0
LINE
  8
_0-d_0_1
  6
CONTINUOUS
 62
    7
 10
26.874261805301089
 20
189.99227026337991
 11
29.019948908572573
 21
192.13797453278909
  0
LINE
  8
_0-d_0_1
  6
CONTINUOUS
 62
    7
 10
26.822486826663393
 20
190.08191851014504
 11
28.942977854495425
 21
192.20240953797708
  0
LINE
  8
_0-d_0_1
  6
CONTINUOUS
 62
    7
 10
26.770711848025698
 20
190.17158487672219
 11
28.865568110232729
 21
192.26643255586038
  0
LINE
  8
_0-d_0_1
  6
CONTINUOUS
 62
    7
 10
26.718954035525698
 20
190.26124170655618
 11
28.787756869082827
 21
192.33004454011331
  0
LINE
  8
_0-d_0_1
  6
CONTINUOUS
 62
    7
 10
26.667196223025698
 20
190.35089090699563
 11
28.709543177371401
 21
192.39324644441018
  0
LINE
  8
_0-d_0_1
  6
CONTINUOUS
 62
    7
 10
26.615438410525698
 20
190.44055631989846
 11
28.63090891528644
 21
192.45604494447122
  0
LINE
  8
_0-d_0_1
  6
CONTINUOUS
 62
    7
 10
26.563663431888003
 20
190.53021410340676
 11
28.477158495669741
 21
192.44370058411965
  0
LINE
  8
_0-d_0_1
  6
CONTINUOUS
 62
    7
 10
26.511905619388003
 20
190.6198623501719
 11
28.30340761828937
 21
192.41136434907327
  0
LINE
  8
_0-d_0_1
  6
CONTINUOUS
 62
    7
 10
26.460130640750307
 20
190.70952871674905
 11
28.129639574771304
 21
192.37902048463235
  0
LINE
  8
_0-d_0_1
  6
CONTINUOUS
 62
    7
 10
26.408372828250307
 20
190.79918554658303
 11
27.955889651065249
 21
192.34669378632913
  0
LINE
  8
_0-d_0_1
  6
CONTINUOUS
 62
    7
 10
26.356615015750307
 20
190.88884333009133
 11
27.782103487735171
 21
192.31434992188821
  0
LINE
  8
_0-d_0_1
  6
CONTINUOUS
 62
    7
 10
26.304857203250307
 20
190.97850111359963
 11
27.608353564029116
 21
192.28201464051614
  0
LINE
  8
_0-d_0_1
  6
CONTINUOUS
 62
    7
 10
26.253082224612612
 20
191.06815794343362
 11
27.434602686648745
 21
192.24967840546975
  0
LINE
  8
_0-d_0_1
  6
CONTINUOUS
 62
    7
 10
26.201324412112612
 20
191.15782431001077
 11
27.26085276294269
 21
192.21734312409768
  0
LINE
  8
_0-d_0_1
  6
CONTINUOUS
 62
    7
 10
26.149549433474917
 20
191.2474725567759
 11
27.087101885562319
 21
192.18500784272561
  0
LINE
  8
_0-d_0_1
  6
CONTINUOUS
 62
    7
 10
26.097791620974917
 20
191.3371303402842
 11
26.913333842044253
 21
192.15267256135354
  0
LINE
  8
_0-d_0_1
  6
CONTINUOUS
 62
    7
 10
26.046033808474917
 20
191.42679575318704
 11
26.739565798526186
 21
192.12033727998147
  0
LINE
  8
_0-d_0_1
  6
CONTINUOUS
 62
    7
 10
25.994275995974917
 20
191.51644495362649
 11
26.565815874820132
 21
192.0880019986094
  0
LINE
  8
_0-d_0_1
  6
CONTINUOUS
 62
    7
 10
25.942501017337221
 20
191.60610178346047
 11
26.392064997439761
 21
192.05566576356301
  0
LINE
  8
_0-d_0_1
  6
CONTINUOUS
 62
    7
 10
25.890743204837221
 20
191.69576815003762
 11
26.218296953921694
 21
192.0233218991221
  0
LINE
  8
_0-d_0_1
  6
CONTINUOUS
 62
    7
 10
25.838968226199526
 20
191.78541639680276
 11
26.044547030215639
 21
191.99098661775002
  0
LINE
  8
_0-d_0_1
  6
CONTINUOUS
 62
    7
 10
25.787210413699526
 20
191.87508276337991
 11
25.870778986697573
 21
191.95865133637795
  0
LINE
  8
_0-d_0_1
  6
CONTINUOUS
 62
    7
 10
29.250006624942202
 20
178.75000170106301
 11
35.220304438357729
 21
178.75000170106301
  0
LINE
  8
_0-d_0_1
  6
CONTINUOUS
 62
    7
 10
33.993726679568667
 20
178.75000170106301
 11
35.207845637088198
 21
179.96410277718911
  0
LINE
  8
_0-d_0_1
  6
CONTINUOUS
 62
    7
 10
26.864340731387514
 20
185.76274946565042
 11
31.130466410403628
 21
190.02887514466653
  0
LINE
  8
_0-d_0_1
  6
CONTINUOUS
 62
    7
 10
35.125064799075503
 20
178.75000170106301
 11
35.249559351687807
 21
178.87450538063655
  0
LINE
  8
_0-d_0_1
  6
CONTINUOUS
 62
    7
 10
34.983632990603823
 20
178.75000170106301
 11
35.248002955203432
 21
179.01437187427888
  0
LINE
  8
_0-d_0_1
  6
CONTINUOUS
 62
    7
 10
34.842218348269839
 20
178.75000170106301
 11
35.245361277346987
 21
179.1531448089541
  0
LINE
  8
_0-d_0_1
  6
CONTINUOUS
 62
    7
 10
34.700801798587221
 20
178.75000170106301
 11
35.241634318118471
 21
179.290850373453
  0
LINE
  8
_0-d_0_1
  6
CONTINUOUS
 62
    7
 10
34.559369990115542
 20
178.75000170106301
 11
35.2368926494173
 21
179.42751482362161
  0
LINE
  8
_0-d_0_1
  6
CONTINUOUS
 62
    7
 10
34.417938181643862
 20
178.75000170106301
 11
35.231100031619448
 21
179.56315568322549
  0
LINE
  8
_0-d_0_1
  6
CONTINUOUS
 62
    7
 10
34.276521631961245
 20
178.75000170106301
 11
35.224311777835268
 21
179.69779041642556
  0
LINE
  8
_0-d_0_1
  6
CONTINUOUS
 62
    7
 10
34.135106989627261
 20
178.75000170106301
 11
35.216560312991518
 21
179.83145407075295
  0
LINE
  8
_0-d_0_1
  6
CONTINUOUS
 62
    7
 10
33.993675181155581
 20
178.75000170106301
 11
35.207828470950503
 21
179.9641553484858
  0
LINE
  8
_0-d_0_1
  6
CONTINUOUS
 62
    7
 10
33.852260538821596
 20
178.75000170106301
 11
35.19816965747394
 21
180.09591177338967
  0
LINE
  8
_0-d_0_1
  6
CONTINUOUS
 62
    7
 10
33.710826823001284
 20
178.75000170106301
 11
35.187583872561831
 21
180.22674957150826
  0
LINE
  8
_0-d_0_1
  6
CONTINUOUS
 62
    7
 10
33.5694121806673
 20
178.75000170106301
 11
35.17608828235187
 21
180.35667744511971
  0
LINE
  8
_0-d_0_1
  6
CONTINUOUS
 62
    7
 10
33.427996584658999
 20
178.75000170106301
 11
35.163700052981753
 21
180.48572173947701
  0
LINE
  8
_0-d_0_1
  6
CONTINUOUS
 62
    7
 10
33.286564776187319
 20
178.75000170106301
 11
35.15045351672687
 21
180.6138911568583
  0
LINE
  8
_0-d_0_1
  6
CONTINUOUS
 62
    7
 10
33.145149180179018
 20
178.75000170106301
 11
35.136350580935854
 21
180.74120310181985
  0
LINE
  8
_0-d_0_1
  6
CONTINUOUS
 62
    7
 10
33.003717371707339
 20
178.75000170106301
 11
35.121391245608706
 21
180.8676753365458
  0
LINE
  8
_0-d_0_1
  6
CONTINUOUS
 62
    7
 10
32.862301775699038
 20
178.75000170106301
 11
35.105607935672182
 21
180.99331620568643
  0
LINE
  8
_0-d_0_1
  6
CONTINUOUS
 62
    7
 10
32.720887133365054
 20
178.75000170106301
 11
35.089036890750307
 21
181.11815241212258
  0
LINE
  8
_0-d_0_1
  6
CONTINUOUS
 62
    7
 10
32.579454371219057
 20
178.75000170106301
 11
35.071645685916323
 21
181.24218371743569
  0
LINE
  8
_0-d_0_1
  6
CONTINUOUS
 62
    7
 10
32.438039728885073
 20
178.75000170106301
 11
35.053464838748354
 21
181.3654187046946
  0
LINE
  8
_0-d_0_1
  6
CONTINUOUS
 62
    7
 10
32.296606966739077
 20
178.75000170106301
 11
35.034498163943667
 21
181.48788407678018
  0
LINE
  8
_0-d_0_1
  6
CONTINUOUS
 62
    7
 10
32.155191370730776
 20
178.75000170106301
 11
35.014795252566714
 21
181.60959676141152
  0
LINE
  8
_0-d_0_1
  6
CONTINUOUS
 62
    7
 10
32.013776728396792
 20
178.75000170106301
 11
34.994306513553042
 21
181.73054841393838
  0
LINE
  8
_0-d_0_1
  6
CONTINUOUS
 62
    7
 10
31.872343966250796
 20
178.75000170106301
 11
34.9730987041048
 21
181.85075643891702
  0
LINE
  8
_0-d_0_1
  6
CONTINUOUS
 62
    7
 10
31.7309112041048
 20
178.75000170106301
 11
34.951156565432925
 21
181.97024706239114
  0
LINE
  8
_0-d_0_1
  6
CONTINUOUS
 62
    7
 10
31.589496561770815
 20
178.75000170106301
 11
34.928514429812807
 21
182.08900287980447
  0
LINE
  8
_0-d_0_1
  6
CONTINUOUS
 62
    7
 10
31.448081919436831
 20
178.75000170106301
 11
34.905137964969057
 21
182.20705870026956
  0
LINE
  8
_0-d_0_1
  6
CONTINUOUS
 62
    7
 10
31.30666632342853
 20
178.75000170106301
 11
34.881061503177065
 21
182.32440594071755
  0
LINE
  8
_0-d_0_1
  6
CONTINUOUS
 62
    7
 10
31.165251681094546
 20
178.75000170106301
 11
34.856321284060854
 21
182.44107082719216
  0
LINE
  8
_0-d_0_1
  6
CONTINUOUS
 62
    7
 10
31.02381891894855
 20
178.75000170106301
 11
34.830879160647768
 21
182.55705312127481
  0
LINE
  8
_0-d_0_1
  6
CONTINUOUS
 62
    7
 10
30.882404276614565
 20
178.75000170106301
 11
34.804773279910464
 21
182.67236188287148
  0
LINE
  8
_0-d_0_1
  6
CONTINUOUS
 62
    7
 10
30.740971514468569
 20
178.75000170106301
 11
34.777984568362612
 21
182.7870142781199
  0
LINE
  8
_0-d_0_1
  6
CONTINUOUS
 62
    7
 10
30.599555918460268
 20
178.75000170106301
 11
34.7505645244173
 21
182.9010107838572
  0
LINE
  8
_0-d_0_1
  6
CONTINUOUS
 62
    7
 10
30.458141276126284
 20
178.75000170106301
 11
34.722482630496401
 21
183.01435116166482
  0
LINE
  8
_0-d_0_1
  6
CONTINUOUS
 62
    7
 10
30.3167266337923
 20
178.75000170106301
 11
34.693767496829409
 21
183.12705257768044
  0
LINE
  8
_0-d_0_1
  6
CONTINUOUS
 62
    7
 10
30.175293871646304
 20
178.75000170106301
 11
34.664424845462221
 21
183.23913315171609
  0
LINE
  8
_0-d_0_1
  6
CONTINUOUS
 62
    7
 10
30.033878275638003
 20
178.75000170106301
 11
34.634450861697573
 21
183.35057476395974
  0
LINE
  8
_0-d_0_1
  6
CONTINUOUS
 62
    7
 10
29.892446467166323
 20
178.75000170106301
 11
34.603849360232729
 21
183.46140411729226
  0
LINE
  8
_0-d_0_1
  6
CONTINUOUS
 62
    7
 10
29.751030871158022
 20
178.75000170106301
 11
34.572650858645815
 21
183.57162121171365
  0
LINE
  8
_0-d_0_1
  6
CONTINUOUS
 62
    7
 10
29.609616228824038
 20
178.75000170106301
 11
34.540857264285464
 21
183.6812432133616
  0
LINE
  8
_0-d_0_1
  6
CONTINUOUS
 62
    7
 10
29.468200632815737
 20
178.75000170106301
 11
34.508451411013979
 21
183.79026153916726
  0
LINE
  8
_0-d_0_1
  6
CONTINUOUS
 62
    7
 10
29.326785990481753
 20
178.75000170106301
 11
34.47545237231769
 21
183.89868477219949
  0
LINE
  8
_0-d_0_1
  6
CONTINUOUS
 62
    7
 10
29.249813982730288
 20
178.81447135145078
 11
34.441873499637026
 21
184.00653103227029
  0
LINE
  8
_0-d_0_1
  6
CONTINUOUS
 62
    7
 10
29.248187014346499
 20
178.95425911480794
 11
34.407718607669253
 21
184.1137907826365
  0
LINE
  8
_0-d_0_1
  6
CONTINUOUS
 62
    7
 10
29.244897791629214
 20
179.09239337081323
 11
34.373002955203432
 21
184.22048214311013
  0
LINE
  8
_0-d_0_1
  6
CONTINUOUS
 62
    7
 10
29.240033098941225
 20
179.22893536323915
 11
34.337694117312807
 21
184.32660463685403
  0
LINE
  8
_0-d_0_1
  6
CONTINUOUS
 62
    7
 10
29.23359388995685
 20
179.36393752927194
 11
34.301824518924136
 21
184.43216732377419
  0
LINE
  8
_0-d_0_1
  6
CONTINUOUS
 62
    7
 10
29.225685068850893
 20
179.49743494624505
 11
34.265411326175112
 21
184.53716114396462
  0
LINE
  8
_0-d_0_1
  6
CONTINUOUS
 62
    7
 10
29.21632380176105
 20
179.62949756020913
 11
34.228439280276675
 21
184.64161280030618
  0
LINE
  8
_0-d_0_1
  6
CONTINUOUS
 62
    7
 10
29.205545374637026
 20
179.7601428353251
 11
34.190923640017886
 21
184.74551275605569
  0
LINE
  8
_0-d_0_1
  6
CONTINUOUS
 62
    7
 10
29.193419405703921
 20
179.88942340249429
 11
34.152849146609682
 21
184.84887102479348
  0
LINE
  8
_0-d_0_1
  6
CONTINUOUS
 62
    7
 10
29.17994684863605
 20
180.01738277310739
 11
34.114250132327456
 21
184.95169523591409
  0
LINE
  8
_0-d_0_1
  6
CONTINUOUS
 62
    7
 10
29.165196367984194
 20
180.14404741162667
 11
34.075126597171206
 21
185.05397680634866
  0
LINE
  8
_0-d_0_1
  6
CONTINUOUS
 62
    7
 10
29.149186083560366
 20
180.26945224637399
 11
34.035459467654604
 21
185.15574243897805
  0
LINE
  8
_0-d_0_1
  6
CONTINUOUS
 62
    7
 10
29.131933161502261
 20
180.39363220567117
 11
33.995284983401675
 21
185.25698307389627
  0
LINE
  8
_0-d_0_1
  6
CONTINUOUS
 62
    7
 10
29.113491007571596
 20
180.5166136347712
 11
33.954566904788393
 21
185.35769012803445
  0
LINE
  8
_0-d_0_1
  6
CONTINUOUS
 62
    7
 10
29.093893954043764
 20
180.63843146199594
 11
33.913360544925112
 21
185.45789888734231
  0
LINE
  8
_0-d_0_1
  6
CONTINUOUS
 62
    7
 10
29.073142000918764
 20
180.75910309190164
 11
33.871612498050112
 21
185.55758217210183
  0
LINE
  8
_0-d_0_1
  6
CONTINUOUS
 62
    7
 10
29.051269480471987
 20
180.87865498895059
 11
33.829389521365542
 21
185.65676668519387
  0
LINE
  8
_0-d_0_1
  6
CONTINUOUS
 62
    7
 10
29.028312632327456
 20
180.99712208146462
 11
33.786643931155581
 21
185.75544432038674
  0
LINE
  8
_0-d_0_1
  6
CONTINUOUS
 62
    7
 10
29.004288622622866
 20
181.1145129525126
 11
33.743390032534975
 21
185.85361412400613
  0
LINE
  8
_0-d_0_1
  6
CONTINUOUS
 62
    7
 10
28.979214617495913
 20
181.23085406655679
 11
33.699645945315737
 21
185.95129421586404
  0
LINE
  8
_0-d_0_1
  6
CONTINUOUS
 62
    7
 10
28.953108736758608
 20
181.34618023270974
 11
33.655412623172182
 21
186.04847505921731
  0
LINE
  8
_0-d_0_1
  6
CONTINUOUS
 62
    7
 10
28.926022478824038
 20
181.46049168939004
 11
33.610689112429995
 21
186.14516666764627
  0
LINE
  8
_0-d_0_1
  6
CONTINUOUS
 62
    7
 10
28.897921511416811
 20
181.57382324571023
 11
33.565475413089175
 21
186.24137667054543
  0
LINE
  8
_0-d_0_1
  6
CONTINUOUS
 62
    7
 10
28.868840166812319
 20
181.68617466325173
 11
33.519788691287417
 21
186.33710602158914
  0
LINE
  8
_0-d_0_1
  6
CONTINUOUS
 62
    7
 10
28.83883185077228
 20
181.79757288331399
 11
33.473595568423647
 21
186.43234470719705
  0
LINE
  8
_0-d_0_1
  6
CONTINUOUS
 62
    7
 10
28.807879397158999
 20
181.90804341668496
 11
33.426947542910952
 21
186.52711132401834
  0
LINE
  8
_0-d_0_1
  6
CONTINUOUS
 62
    7
 10
28.775999018435854
 20
182.01759556168923
 11
33.379808375125307
 21
186.621396812147
  0
LINE
  8
_0-d_0_1
  6
CONTINUOUS
 62
    7
 10
28.743226000552554
 20
182.12622884148965
 11
33.332215258365054
 21
186.71521881455789
  0
LINE
  8
_0-d_0_1
  6
CONTINUOUS
 62
    7
 10
28.709560343509096
 20
182.23398736352334
 11
33.284131953006167
 21
186.80856779450784
  0
LINE
  8
_0-d_0_1
  6
CONTINUOUS
 62
    7
 10
28.6750030009798
 20
182.34085372323403
 11
33.235593744998354
 21
186.90145376557717
  0
LINE
  8
_0-d_0_1
  6
CONTINUOUS
 62
    7
 10
28.639588305240054
 20
182.4468624913157
 11
33.186601588015932
 21
186.99386671418557
  0
LINE
  8
_0-d_0_1
  6
CONTINUOUS
 62
    7
 10
28.603315302615542
 20
182.55201390618691
 11
33.137135454898257
 21
187.08582476014504
  0
LINE
  8
_0-d_0_1
  6
CONTINUOUS
 62
    7
 10
28.566221186404604
 20
182.65632537240396
 11
33.087215372805971
 21
187.17731932038674
  0
LINE
  8
_0-d_0_1
  6
CONTINUOUS
 62
    7
 10
28.528285929446596
 20
182.75981453294168
 11
33.036839434390444
 21
187.26836851472268
  0
LINE
  8
_0-d_0_1
  6
CONTINUOUS
 62
    7
 10
28.489529558902163
 20
182.86248138780007
 11
32.986009547000307
 21
187.35895326966653
  0
LINE
  8
_0-d_0_1
  6
CONTINUOUS
 62
    7
 10
28.449967333560366
 20
182.96434334153543
 11
32.934723803286929
 21
187.4490917050303
  0
LINE
  8
_0-d_0_1
  6
CONTINUOUS
 62
    7
 10
28.409600207095522
 20
183.06539991731057
 11
32.88298411059894
 21
187.53878382081399
  0
LINE
  8
_0-d_0_1
  6
CONTINUOUS
 62
    7
 10
28.368463465457339
 20
183.16567829484353
 11
32.830806681399721
 21
187.62802103394876
  0
LINE
  8
_0-d_0_1
  6
CONTINUOUS
 62
    7
 10
28.32653994250812
 20
183.2651694142283
 11
32.778173395877261
 21
187.71681192750344
  0
LINE
  8
_0-d_0_1
  6
CONTINUOUS
 62
    7
 10
28.283845850711245
 20
183.36389902467141
 11
32.725121447329897
 21
187.80516603822122
  0
LINE
  8
_0-d_0_1
  6
CONTINUOUS
 62
    7
 10
28.240399309878725
 20
183.46186807984719
 11
32.671596476321596
 21
187.89307382935891
  0
LINE
  8
_0-d_0_1
  6
CONTINUOUS
 62
    7
 10
28.196183153872866
 20
183.55907562608132
 11
32.617651888614077
 21
187.98054388398538
  0
LINE
  8
_0-d_0_1
  6
CONTINUOUS
 62
    7
 10
28.151231714969057
 20
183.65554788941751
 11
32.563269564395327
 21
188.06757620210061
  0
LINE
  8
_0-d_0_1
  6
CONTINUOUS
 62
    7
 10
28.105545946841616
 20
183.75127724046121
 11
32.508431383853335
 21
188.15417173737893
  0
LINE
  8
_0-d_0_1
  6
CONTINUOUS
 62
    7
 10
28.059124895816225
 20
183.84627989167581
 11
32.45317454028644
 21
188.24033811921487
  0
LINE
  8
_0-d_0_1
  6
CONTINUOUS
 62
    7
 10
28.011986681704897
 20
183.94055679673562
 11
32.397497126346011
 21
188.32606771821389
  0
LINE
  8
_0-d_0_1
  6
CONTINUOUS
 62
    7
 10
27.96411318469562
 20
184.03410700196633
 11
32.341365763430971
 21
188.41135958070168
  0
LINE
  8
_0-d_0_1
  6
CONTINUOUS
 62
    7
 10
27.9155396907381
 20
184.12696674699197
 11
32.284813830142397
 21
188.49623087281594
  0
LINE
  8
_0-d_0_1
  6
CONTINUOUS
 62
    7
 10
27.866267153506655
 20
184.21910837525735
 11
32.227841326480288
 21
188.58068254823098
  0
LINE
  8
_0-d_0_1
  6
CONTINUOUS
 62
    7
 10
27.816293665652651
 20
184.31055048341165
 11
32.170432039981264
 21
188.66468885774026
  0
LINE
  8
_0-d_0_1
  6
CONTINUOUS
 62
    7
 10
27.765621134524721
 20
184.40131023759255
 11
32.112603136783022
 21
188.74828317994485
  0
LINE
  8
_0-d_0_1
  6
CONTINUOUS
 62
    7
 10
27.714265772586245
 20
184.49136999482522
 11
32.054335543399233
 21
188.83144834870706
  0
LINE
  8
_0-d_0_1
  6
CONTINUOUS
 62
    7
 10
27.662228533511538
 20
184.5807473980845
 11
31.995666453128237
 21
188.91419485444436
  0
LINE
  8
_0-d_0_1
  6
CONTINUOUS
 62
    7
 10
27.609508463626284
 20
184.66946009034524
 11
31.936577746158022
 21
188.99652078980813
  0
LINE
  8
_0-d_0_1
  6
CONTINUOUS
 62
    7
 10
27.556123682742495
 20
184.75748995179543
 11
31.877051302676577
 21
189.07841757172952
  0
LINE
  8
_0-d_0_1
  6
CONTINUOUS
 62
    7
 10
27.502073237185854
 20
184.84484651917825
 11
31.817121454959292
 21
189.15990332002053
  0
LINE
  8
_0-d_0_1
  6
CONTINUOUS
 62
    7
 10
27.447340914492983
 20
184.93154648179421
 11
31.756772944217104
 21
189.24096945161233
  0
LINE
  8
_0-d_0_1
  6
CONTINUOUS
 62
    7
 10
27.391961046939272
 20
185.0175822102488
 11
31.695986696963686
 21
189.32161596650491
  0
LINE
  8
_0-d_0_1
  6
CONTINUOUS
 62
    7
 10
27.335916468387026
 20
185.10296133393655
 11
31.63481516528644
 21
189.40185907716165
  0
LINE
  8
_0-d_0_1
  6
CONTINUOUS
 62
    7
 10
27.279225298648257
 20
185.18769291276345
 11
31.573205897097964
 21
189.48167398805032
  0
LINE
  8
_0-d_0_1
  6
CONTINUOUS
 62
    7
 10
27.221885630374331
 20
185.27176884049783
 11
31.51119513202228
 21
189.56107786530862
  0
LINE
  8
_0-d_0_1
  6
CONTINUOUS
 62
    7
 10
27.16388125110187
 20
185.3551967465342
 11
31.448780962710757
 21
189.6400792920054
  0
LINE
  8
_0-d_0_1
  6
CONTINUOUS
 62
    7
 10
27.105264612918276
 20
185.43798664445291
 11
31.385930010562319
 21
189.71866110200295
  0
LINE
  8
_0-d_0_1
  6
CONTINUOUS
 62
    7
 10
27.045983263736147
 20
185.52012852067361
 11
31.322676607852358
 21
189.79682234162698
  0
LINE
  8
_0-d_0_1
  6
CONTINUOUS
 62
    7
 10
26.986071535830874
 20
185.60164097184548
 11
31.259020754580874
 21
189.87459066743264
  0
LINE
  8
_0-d_0_1
  6
CONTINUOUS
 62
    7
 10
26.925529429202456
 20
185.68251446122537
 11
31.194962450747866
 21
189.95193842286477
  0
LINE
  8
_0-d_0_1
  6
CONTINUOUS
 62
    7
 10
26.864340731387514
 20
185.76275804871926
 11
31.130466410403628
 21
190.02887514466653
  0
LINE
  8
_0-d_0_1
  6
CONTINUOUS
 62
    7
 10
26.802522608523745
 20
185.84236315125833
 11
31.065585085635561
 21
190.10540846223245
  0
LINE
  8
_0-d_0_1
  6
CONTINUOUS
 62
    7
 10
26.740091273074526
 20
185.92134693498025
 11
31.000285097842593
 21
190.18153169984231
  0
LINE
  8
_0-d_0_1
  6
CONTINUOUS
 62
    7
 10
26.677029558902163
 20
185.99970081681619
 11
30.934581705813784
 21
190.25725248689065
  0
LINE
  8
_0-d_0_1
  6
CONTINUOUS
 62
    7
 10
26.613339373355288
 20
186.07743385667214
 11
30.868458697085757
 21
190.33256224030862
  0
LINE
  8
_0-d_0_1
  6
CONTINUOUS
 62
    7
 10
26.549017855410952
 20
186.15453651780496
 11
30.801967570071596
 21
190.40746858949075
  0
LINE
  8
_0-d_0_1
  6
CONTINUOUS
 62
    7
 10
26.484102198367495
 20
186.23102692002664
 11
30.735022494082827
 21
190.48196485871682
  0
LINE
  8
_0-d_0_1
  6
CONTINUOUS
 62
    7
 10
26.418521830325503
 20
186.30688742036233
 11
30.667692133670229
 21
190.55605772370706
  0
LINE
  8
_0-d_0_1
  6
CONTINUOUS
 62
    7
 10
26.352363535647768
 20
186.38213566178689
 11
30.599976488833804
 21
190.62973955506692
  0
LINE
  8
_0-d_0_1
  6
CONTINUOUS
 62
    7
 10
26.285574862246889
 20
186.45676258439431
 11
30.531823107486147
 21
190.70302847260842
  0
LINE
  8
_0-d_0_1
  6
CONTINUOUS
 62
    7
 10
26.218139597659487
 20
186.53076866502175
 11
30.463285395388979
 21
190.77590540284524
  0
LINE
  8
_0-d_0_1
  6
CONTINUOUS
 62
    7
 10
26.150126406436343
 20
186.6041620099009
 11
30.394345232730288
 21
190.84837129945168
  0
LINE
  8
_0-d_0_1
  6
CONTINUOUS
 62
    7
 10
26.08148379016437
 20
186.67694261903176
 11
30.324985453372378
 21
190.92044428223977
  0
LINE
  8
_0-d_0_1
  6
CONTINUOUS
 62
    7
 10
26.012228914981264
 20
186.7491028630198
 11
30.255239435916323
 21
190.99211386079202
  0
LINE
  8
_0-d_0_1
  6
CONTINUOUS
 62
    7
 10
25.942343661075014
 20
186.82064989442239
 11
30.185074755435366
 21
191.06337240571389
  0
CIRCLE
  8
_0-d_0_1
  6
CONTINUOUS
 62
    7
 10
17.75
 20
178.75
 40
37.000003814697266
  0
ARC
  8
_0-d_0_1
  6
CONTINUOUS
 62
    7
 10
17.750000000004917
 20
178.75000000000381
 40
29.999996185308913
 50
209.22578430175957
 51
210.77421569824367
  0
ARC
  8
_0-d_0_1
  6
CONTINUOUS
 62
    7
 10
17.750000000258751
 20
178.75000000017309
 40
29.999996185614041
 50
212.97578430176611
 51
214.5242156982344
  0
ARC
  8
_0-d_0_1
  6
CONTINUOUS
 62
    7
 10
17.750000000020435
 20
178.75000000001569
 40
29.999996185328509
 50
216.72578430175852
 51
218.27421569824165
  0
ARC
  8
_0-d_0_1
  6
CONTINUOUS
 62
    7
 10
17.750000000124373
 20
178.75000000011028
 40
29.999996185468962
 50
220.47578430176384
 51
222.0242156982396
  0
ARC
  8
_0-d_0_1
  6
CONTINUOUS
 62
    7
 10
17.749999999981213
 20
178.74999999998124
 40
29.999996185276181
 50
224.2257843017571
 51
225.77421569824284
  0
ARC
  8
_0-d_0_1
  6
CONTINUOUS
 62
    7
 10
17.750000000043087
 20
178.75000000004883
 40
29.999996185367856
 50
227.97578430175915
 51
229.52421569824011
  0
ARC
  8
_0-d_0_1
  6
CONTINUOUS
 62
    7
 10
17.750000000015689
 20
178.75000000002044
 40
29.999996185328499
 50
231.72578430175847
 51
233.27421569824151
  0
ARC
  8
_0-d_0_1
  6
CONTINUOUS
 62
    7
 10
17.750000000150294
 20
178.75000000022311
 40
29.999996185571721
 50
235.47578430176281
 51
237.02421569823332
  0
ARC
  8
_0-d_0_1
  6
CONTINUOUS
 62
    7
 10
17.749999999977035
 20
178.74999999995782
 40
29.999996185254734
 50
239.22578430175417
 51
240.77421569824111
  0
ARC
  8
_0-d_0_1
  6
CONTINUOUS
 62
    7
 10
17.749999999890804
 20
178.75000000019028
 40
29.999996185522111
 50
299.22578430176236
 51
300.77421569823542
  0
ARC
  8
_0-d_0_1
  6
CONTINUOUS
 62
    7
 10
17.750000000184855
 20
178.74999999972252
 40
29.999996184969337
 50
302.97578430175002
 51
304.52421569825162
  0
ARC
  8
_0-d_0_1
  6
CONTINUOUS
 62
    7
 10
17.750000000041382
 20
178.74999999994711
 40
29.999996185235585
 50
306.72578430175491
 51
308.2742156982427
  0
ARC
  8
_0-d_0_1
  6
CONTINUOUS
 62
    7
 10
17.749999999956913
 20
178.75000000004883
 40
29.999996185367856
 50
310.47578430175986
 51
312.02421569824088
  0
ARC
  8
_0-d_0_1
  6
CONTINUOUS
 62
    7
 10
17.749999999903878
 20
178.75000000009501
 40
29.999996185167596
 50
134.2257843017529
 51
135.77421569824426
  0
ARC
  8
_0-d_0_1
  6
CONTINUOUS
 62
    7
 10
17.749999999973227
 20
178.7500000000241
 40
29.999996185266721
 50
137.97578430175781
 51
139.52421569824409
  0
ARC
  8
_0-d_0_1
  6
CONTINUOUS
 62
    7
 10
17.750000000076739
 20
178.74999999994162
 40
29.999996185399166
 50
141.72578430176111
 51
143.27421569824057
  0
ARC
  8
_0-d_0_1
  6
CONTINUOUS
 62
    7
 10
17.750000000151545
 20
178.74999999989751
 40
29.999996185485667
 50
145.47578430176057
 51
147.02421569823559
  0
CIRCLE
  8
_0-d_0_1
  6
CONTINUOUS
 62
    7
 10
17.75
 20
178.75
 40
8.5
  0
CIRCLE
  8
_0-d_0_1
  6
CONTINUOUS
 62
    7
 10
17.75
 20
178.75
 40
6.9999995231628418
  0
ARC
  8
_0-d_0_1
  6
CONTINUOUS
 62
    7
 10
17.749999999999915
 20
178.74999999999991
 40
20.500000000000004
 50
141.25959777832
 51
128.74040222167929
  0
ARC
  8
_0-d_0_1
  6
CONTINUOUS
 62
    7
 10
17.750000000000057
 20
178.74999999999997
 40
17.500000000000082
 50
143.62396240234384
 51
179.99999999999994
  0
ARC
  8
_0-d_0_1
  6
CONTINUOUS
 62
    7
 10
17.749999999999829
 20
178.75000000000003
 40
11.499999999999828
 50
152.32049560546858
 51
180.00000000000011
  0
ARC
  8
_0-d_0_1
  6
CONTINUOUS
 62
    7
 10
17.75
 20
178.74999999999997
 40
13.999999046325652
 50
224.99999999999986
 51
315.00000000000017
  0
ARC
  8
_0-d_0_1
  6
CONTINUOUS
 62
    7
 10
17.750000000000057
 20
178.74999999999977
 40
14.999998092651166
 50
241.4182434082025
 51
315.00000000000045
  0
ARC
  8
_0-d_0_1
  6
CONTINUOUS
 62
    7
 10
17.75
 20
178.75000000000011
 40
14.999998092651275
 50
60.845993041992024
 51
123.64886474609413
  0
ARC
  8
_0-d_0_1
  6
CONTINUOUS
 62
    7
 10
17.75
 20
178.74999999999991
 40
13.999999046325755
 50
44.999923706055029
 51
122.26919555664058
  0
ARC
  8
_0-d_0_1
  6
CONTINUOUS
 62
    7
 10
17.749999999999972
 20
178.74999999999994
 40
13.999999046325634
 50
224.36732482910148
 51
315.00000000000028
  0
ARC
  8
_0-d_0_1
  6
CONTINUOUS
 62
    7
 10
17.75
 20
178.74999999999991
 40
13.999999046325755
 50
44.999923706055029
 51
122.26919555664058
  0
ARC
  8
_0-d_0_1
  6
CONTINUOUS
 62
    7
 10
17.750000000000028
 20
178.75
 40
11.499999999999957
 50
0
 51
44.988250732421932
  0
ARC
  8
_0-d_0_1
  6
CONTINUOUS
 62
    7
 10
17.749999999999602
 20
178.74999999999989
 40
17.500000000000369
 50
0.0000000000003722
 51
44.992324829100966
  0
ARC
  8
_0-1_作画層１
  6
CONTINUOUS
 62
    7
 10
62.749999999999957
 20
90.14442719099992
 40
1
 50
269.9999999999992
 51
0
  0
ARC
  8
_0-d_0_1
  6
CONTINUOUS
 62
    7
 10
56.749999949221973
 20
95.249998298936987
 40
4.0000000000000142
 50
90.000000000000199
 51
180
  0
LINE
  8
_0-d_0_1
  6
CONTINUOUS
 62
    7
 10
-20.865872098882221
 20
184.34051181601515
 11
-20.449117118336432
 21
186.7040467604196
  0
LINE
  8
_0-d_0_1
  6
CONTINUOUS
 62
    7
 10
-19.308428043230521
 20
190.96115519870821
 11
-18.487580971334637
 21
193.21641399356761
  0
LINE
  8
_0-d_0_1
  6
CONTINUOUS
 62
    7
 10
-16.624982403954732
 20
197.21076880983122
 11
-15.424984263619649
 21
199.28922655787974
  0
LINE
  8
_0-d_0_1
  6
CONTINUOUS
 62
    7
 10
-12.897070318915098
 20
202.8994613022673
 11
-11.354382446406532
 21
204.73796511658091
  0
LINE
  8
_0-d_0_1
  6
CONTINUOUS
 62
    7
 10
-8.2379625104011893
 20
207.85438463325102
 11
-6.3994586960875495
 21
209.39707250575958
  0
LINE
  8
_0-d_0_1
  6
CONTINUOUS
 62
    7
 10
-20.865872098882221
 20
184.34051181601515
 11
-11.950512461514961
 21
183.07311646244307
  0
LINE
  8
_0-d_0_1
  6
CONTINUOUS
 62
    7
 10
-19.308428043230521
 20
190.96115519870821
 11
-10.748593644990422
 21
188.16487847410465
  0
LINE
  8
_0-d_0_1
  6
CONTINUOUS
 62
    7
 10
-16.624982403954732
 20
197.21076880983122
 11
-8.6807594815471703
 21
192.97057416748893
  0
LINE
  8
_0-d_0_1
  6
CONTINUOUS
 62
    7
 10
-12.897070318915098
 20
202.8994613022673
 11
-5.8098400658666947
 21
197.34418491075186
  0
LINE
  8
_0-d_0_1
  6
CONTINUOUS
 62
    7
 10
-8.2379625104011893
 20
207.85438463325102
 11
-2.2230668316391586
 21
201.15282075461315
  0
LINE
  8
_0-d_0_1
  6
CONTINUOUS
 62
    7
 10
-11.637944714970843
 20
184.84577624081737
 11
-20.449117118336432
 21
186.7040467604196
  0
LINE
  8
_0-d_0_1
  6
CONTINUOUS
 62
    7
 10
-10.132955364714121
 20
189.85633074771576
 11
-18.487580971334637
 21
193.21641399356761
  0
LINE
  8
_0-d_0_1
  6
CONTINUOUS
 62
    7
 10
-7.7807565251567894
 20
194.52942501491927
 11
-15.424984263619649
 21
199.28922655787974
  0
LINE
  8
_0-d_0_1
  6
CONTINUOUS
 62
    7
 10
-4.6528185677686906
 20
198.72306943781888
 11
-11.354382446406532
 21
204.73796511658091
  0
LINE
  8
_0-d_0_1
  6
CONTINUOUS
 62
    7
 10
-0.8441823045721434
 20
202.30984225271112
 11
-6.3994586960875495
 21
209.39707250575958
  0
LINE
  8
_0-d_0_1
  6
CONTINUOUS
 62
    7
 10
-11.863682178064039
 20
183.56555547037027
 11
-11.950512461514961
 21
183.07311646244307
  0
LINE
  8
_0-d_0_1
  6
CONTINUOUS
 62
    7
 10
-10.577571372313088
 20
188.63475830650947
 11
-10.748593644990422
 21
188.16487847410465
  0
LINE
  8
_0-d_0_1
  6
CONTINUOUS
 62
    7
 10
-8.4307416448572212
 20
193.4036177634344
 11
-8.6807594815471703
 21
192.97057416748893
  0
LINE
  8
_0-d_0_1
  6
CONTINUOUS
 62
    7
 10
-5.4884233306167971
 20
197.72723445970578
 11
-5.8098400658666947
 21
197.34418491075186
  0
LINE
  8
_0-d_0_1
  6
CONTINUOUS
 62
    7
 10
-1.8400172826852383
 20
201.47423748986301
 11
-2.2230668316391586
 21
201.15282075461315
  0
LINE
  8
_0-d_0_1
  6
CONTINUOUS
 62
    7
 10
-10.386474750938817
 20
183.30504838693142
 11
-11.863682178064039
 21
183.56555547037027
  0
LINE
  8
_0-d_0_1
  6
CONTINUOUS
 62
    7
 10
-9.1680426255814211
 20
188.12169453326797
 11
-10.577571372313088
 21
188.63475830650947
  0
LINE
  8
_0-d_0_1
  6
CONTINUOUS
 62
    7
 10
-7.1317193962325973
 20
192.65358648351736
 11
-8.4307416448572212
 21
193.4036177634344
  0
LINE
  8
_0-d_0_1
  6
CONTINUOUS
 62
    7
 10
-4.3393777137866891
 20
196.76302499401936
 11
-5.4884233306167971
 21
197.72723445970578
  0
LINE
  8
_0-d_0_1
  6
CONTINUOUS
 62
    7
 10
-0.8758614672719318
 20
200.32514685510853
 11
-1.8400172826852383
 21
201.47423748986301
  0
LINE
  8
_0-d_0_1
  6
CONTINUOUS
 62
    7
 10
-11.637944714970843
 20
184.84577624081737
 11
-11.724774998421736
 21
184.35333723289017
  0
LINE
  8
_0-d_0_1
  6
CONTINUOUS
 62
    7
 10
-10.132955364714121
 20
189.85633074771576
 11
-10.303977637391426
 21
189.38645091531095
  0
LINE
  8
_0-d_0_1
  6
CONTINUOUS
 62
    7
 10
-7.7807565251567894
 20
194.52942501491927
 11
-8.0307743618467384
 21
194.09638141897383
  0
LINE
  8
_0-d_0_1
  6
CONTINUOUS
 62
    7
 10
-4.6528185677686906
 20
198.72306943781888
 11
-4.9742353030185313
 21
198.34001988886493
  0
LINE
  8
_0-d_0_1
  6
CONTINUOUS
 62
    7
 10
-0.8441823045721434
 20
202.30984225271112
 11
-1.2272318535260922
 21
201.98842551746128
  0
LINE
  8
_0-d_0_1
  6
CONTINUOUS
 62
    7
 10
-10.247555409766903
 20
184.09289912091296
 11
-11.724774998421736
 21
184.35333723289017
  0
LINE
  8
_0-d_0_1
  6
CONTINUOUS
 62
    7
 10
-8.8944249371225226
 20
188.87345295387215
 11
-10.303977637391426
 21
189.38645091531095
  0
LINE
  8
_0-d_0_1
  6
CONTINUOUS
 62
    7
 10
-6.731717095493309
 20
193.34641079154224
 11
-8.0307743618467384
 21
194.09638141897383
  0
LINE
  8
_0-d_0_1
  6
CONTINUOUS
 62
    7
 10
-3.8251446682640449
 20
197.37586407345165
 11
-4.9742353030185313
 21
198.34001988886493
  0
LINE
  8
_0-d_0_1
  6
CONTINUOUS
 62
    7
 10
-0.2630223878396407
 20
200.83937990063117
 11
-1.2272318535260922
 21
201.98842551746128
  0
LINE
  8
_0-d_0_1
  6
CONTINUOUS
 62
    7
 10
-22.460761126467332
 20
185.60272845213009
 11
-20.826090141668999
 21
184.56612650670726
  0
LINE
  8
_0-d_0_1
  6
CONTINUOUS
 62
    7
 10
-20.659905504108224
 20
192.48114550115639
 11
-19.23007288344337
 21
191.17643423092116
  0
LINE
  8
_0-d_0_1
  6
CONTINUOUS
 62
    7
 10
-17.691984339356793
 20
198.94234864242486
 11
-16.510434823474156
 21
197.40917103910766
  0
LINE
  8
_0-d_0_1
  6
CONTINUOUS
 62
    7
 10
-13.64717641496344
 20
204.79001748801474
 11
-12.749810788010166
 21
203.07495837726705
  0
LINE
  8
_0-d_0_1
  6
CONTINUOUS
 62
    7
 10
-8.6483811729392812
 20
209.84647357911595
 11
-8.0624654354014069
 21
208.00164416415598
  0
LINE
  8
_0-d_0_1
  6
CONTINUOUS
 62
    7
 10
-22.362499509086661
 20
186.06542568265112
 11
-20.489221154254039
 21
186.47660547062674
  0
LINE
  8
_0-d_0_1
  6
CONTINUOUS
 62
    7
 10
-20.482790170596672
 20
192.91975037027797
 11
-18.566570502332127
 21
192.9993920407787
  0
LINE
  8
_0-d_0_1
  6
CONTINUOUS
 62
    7
 10
-17.441396849498517
 20
199.34353436314356
 11
-15.540459232768285
 21
199.08921804431185
  0
LINE
  8
_0-d_0_1
  6
CONTINUOUS
 62
    7
 10
-13.330730742834305
 20
205.1415942352163
 11
-11.502834205201907
 21
204.56104719970961
  0
LINE
  8
_0-d_0_1
  6
CONTINUOUS
 62
    7
 10
-8.2756923601577341
 20
210.13775887124305
 11
-6.5763766129588817
 21
209.24862074696421
  0
LINE
  8
_0-d_0_1
  6
CONTINUOUS
 62
    7
 10
-12.941100885307122
 20
183.21393689107828
 11
-12.616956770229308
 21
185.05224951785513
  0
LINE
  8
_0-d_0_1
  6
CONTINUOUS
 62
    7
 10
-11.699679593974338
 20
188.47557339861658
 11
-11.06124031873054
 21
190.22967089104196
  0
LINE
  8
_0-d_0_1
  6
CONTINUOUS
 62
    7
 10
-9.5634446904356309
 20
193.4417032798155
 11
-8.6301089093382188
 21
195.0582882731982
  0
LINE
  8
_0-d_0_1
  6
CONTINUOUS
 62
    7
 10
-6.5973045912479051
 20
197.96143319121785
 11
-5.3974312397148765
 21
199.39138656856542
  0
LINE
  8
_0-d_0_1
  6
CONTINUOUS
 62
    7
 10
-2.8913839623857029
 20
201.8974334265593
 11
-1.4614305850381299
 21
203.09730677809236
  0
ARC
  8
_0-d_0_1
  6
CONTINUOUS
 62
    7
 10
17.749999999935028
 20
178.75000000001114
 40
29.999996185236835
 50
169.22578430175562
 51
170.77421569824332
  0
ARC
  8
_0-d_0_1
  6
CONTINUOUS
 62
    7
 10
17.749999999868862
 20
178.75000000004738
 40
29.999996185163312
 50
159.22578430175363
 51
160.77421569824517
  0
ARC
  8
_0-d_0_1
  6
CONTINUOUS
 62
    7
 10
17.750000000121076
 20
178.74999999993014
 40
29.999996185442509
 50
149.22578430176159
 51
150.77421569823872
  0
ARC
  8
_0-d_0_1
  6
CONTINUOUS
 62
    7
 10
17.749999999991417
 20
178.75000000000713
 40
29.999996185291579
 50
139.22578430175747
 51
140.77421569824236
  0
ARC
  8
_0-d_0_1
  6
CONTINUOUS
 62
    7
 10
17.750000000121304
 20
178.74999999985545
 40
29.999996185491455
 50
129.22578430176279
 51
130.77421569823736
  0
ARC
  8
_0-d_0_1
  6
CONTINUOUS
 62
    7
 10
-10.317013447361035
 20
183.69897173867702
 40
0.400000005960428
 50
259.99999999999704
 51
80.00000000000253
  0
ARC
  8
_0-d_0_1
  6
CONTINUOUS
 62
    7
 10
-9.0312325231126351
 20
188.49757147537494
 40
0.4000000059604552
 50
250.00000000000043
 51
69.99999999999855
  0
ARC
  8
_0-d_0_1
  6
CONTINUOUS
 62
    7
 10
-6.9317174006070275
 20
192.99999618530268
 40
0.4000000059604493
 50
239.99999999999764
 51
60.000000000001435
  0
ARC
  8
_0-d_0_1
  6
CONTINUOUS
 62
    7
 10
-4.0822607844356185
 20
197.06944197198612
 40
0.4000000059604901
 50
230.00000000000671
 51
49.999999999992617
  0
ARC
  8
_0-d_0_1
  6
CONTINUOUS
 62
    7
 10
-0.569441971986123
 20
200.58226078443559
 40
0.4000000059604664
 50
219.99999999999878
 51
39.999999999998835
  0
ARC
  8
_0-d_0_1
  6
CONTINUOUS
 62
    7
 10
-22.331665028715207
 20
185.81747897628139
 40
0.2500000000000555
 50
97.088562011723468
 51
238.98876953123897
  0
ARC
  8
_0-d_0_1
  6
CONTINUOUS
 62
    7
 10
-20.495479628986402
 20
192.67021618018541
 40
0.2500000000000465
 50
87.088562011723639
 51
228.98876953123991
  0
ARC
  8
_0-d_0_1
  6
CONTINUOUS
 62
    7
 10
-17.497224683877391
 20
199.09999465942377
 40
0.2500000000000249
 50
77.088562011724946
 51
218.98876953123906
  0
ARC
  8
_0-d_0_1
  6
CONTINUOUS
 62
    7
 10
-13.428000652705009
 20
204.91144884852977
 40
0.2499999999999986
 50
67.088562011713194
 51
208.98876953125097
  0
ARC
  8
_0-d_0_1
  6
CONTINUOUS
 62
    7
 10
-8.4114488485297727
 20
209.92800065270498
 40
0.2500000000000319
 50
57.088562011728598
 51
198.98876953123931
  0
ARC
  8
_0-d_0_1
  6
CONTINUOUS
 62
    7
 10
17.75
 20
178.75
 40
29.000000000000011
 50
180.79029846191409
 51
129.28023732623319
  0
ARC
  8
_0-d_0_1
  6
CONTINUOUS
 62
    7
 10
17.750000000001535
 20
178.74999999999829
 40
29.000000000002299
 50
130.86192776839741
 51
139.1502269209156
  0
ARC
  8
_0-d_0_1
  6
CONTINUOUS
 62
    7
 10
17.750000000000142
 20
178.74999999999994
 40
29.000000000000163
 50
140.92978535617615
 51
149.26600646972659
  0
ARC
  8
_0-d_0_1
  6
CONTINUOUS
 62
    7
 10
17.749999999996305
 20
178.75000000000176
 40
28.999999999995921
 50
150.79028992277367
 51
159.1834498578948
  0
ARC
  8
_0-d_0_1
  6
CONTINUOUS
 62
    7
 10
17.75000000000307
 20
178.74999999999915
 40
29.000000000003169
 50
160.7482007410884
 51
169.14728062013651
  0
ARC
  8
_0-d_0_1
  6
CONTINUOUS
 62
    7
 10
17.750000000001023
 20
178.7499999999998
 40
29.000000000001027
 50
170.88005857394279
 51
179.20970153808554
  0
TEXT
  8
_0-d_0_1
 62
    7
 10
5.7592512818093269
 20
192.65415273345323
 40
5
 41
1
 50
29.999957756663811
  1
10
  0
TEXT
  8
_0-d_0_1
 62
    7
 10
10.723715986511593
 20
195.75284957456574
 40
5
 41
1
 50
14.999989403430712
  1
9
  0
TEXT
  8
_0-d_0_1
 62
    7
 10
14.343761870150956
 20
196.88529375428567
 40
5
 41
1
 50
0
  1
8
  0
TEXT
  8
_0-d_0_1
 62
    7
 10
19.237005307180652
 20
197.17420558504801
 40
5
 41
1
 50
-14.99997970226144
  1
7
  0
TEXT
  8
_0-d_0_1
 62
    7
 10
23.927637871616227
 20
196.16159164453424
 40
5
 41
1
 50
-29.99997589625999
  1
6
  0
TEXT
  8
_0-d_0_1
 62
    7
 10
28.16588954828832
 20
193.97591135466951
 40
5
 41
1
 50
-45.000009091158226
  1
5
  0
TEXT
  8
_0-d_0_1
 62
    7
 10
31.783934192313126
 20
190.82873549115823
 40
5
 41
1
 50
-59.999912760333949
  1
4
  0
TEXT
  8
_0-d_0_1
 62
    7
 10
34.443493406259989
 20
186.68026272118956
 40
5
 41
1
 50
-75.000243003075809
  1
3
  0
TEXT
  8
_0-d_0_1
 62
    7
 10
35.950208613162417
 20
182.11421087617288
 40
5
 41
1
 50
-90
  1
2
  0
TEXT
  8
_0-d_0_1
 62
    7
 10
36.135956165403982
 20
177.22452840616731
 40
5
 41
1
 50
-104.99975616503994
  1
1
  0
TEXT
  8
_0-d_0_1
 62
    7
 10
35.833127947938053
 20
173.71836986406521
 40
5
 41
1
 50
-120.00005854257884
  1
24
  0
TEXT
  8
_0-d_0_1
 62
    7
 10
33.893379160647783
 20
169.19173983062856
 40
5
 41
1
 50
-135.00000000000023
  1
23
  0
TEXT
  8
_0-d_0_1
 62
    7
 10
30.836277474874706
 20
165.24137392700007
 40
5
 41
1
 50
-150.00003053215437
  1
22
  0
TEXT
  8
_0-d_0_1
 62
    7
 10
26.961844413814262
 20
162.3417950840261
 40
5
 41
1
 50
-164.99996468005978
  1
21
  0
TEXT
  8
_0-d_0_1
 62
    7
 10
22.433866688495058
 20
160.40524652833352
 40
5
 41
1
 50
180
  1
20
  0
TEXT
  8
_0-d_0_1
 62
    7
 10
17.470166665597304
 20
159.89356918027724
 40
5
 41
1
 50
164.9999895175464
  1
19
  0
TEXT
  8
_0-d_0_1
 62
    7
 10
12.63212115282019
 20
160.66220600741642
 40
5
 41
1
 50
150.00003053215451
  1
18
  0
TEXT
  8
_0-d_0_1
 62
    7
 10
7.2924441792512198
 20
163.3032970749812
 40
5
 41
1
 50
135.0000193187177
  1
17
  0
TEXT
  8
_0-d_0_1
 62
    7
 10
3.6455644965348313
 20
166.61552106168401
 40
5
 41
1
 50
119.99999141718867
  1
16
  0
TEXT
  8
_0-d_0_1
 62
    7
 10
1.0453764166931023
 20
170.61818441876306
 40
5
 41
1
 50
105.00004571869745
  1
15
  0
TEXT
  8
_0-d_0_1
 62
    7
 10
-0.4095268757291705
 20
175.30559876794229
 40
5
 41
1
 50
90
  1
14
  0
TEXT
  8
_0-d_0_1
 62
    7
 10
-0.6270641484468342
 20
180.13019249279219
 40
5
 41
1
 50
74.999957816881491
  1
13
  0
TEXT
  8
_0-d_0_1
 62
    7
 10
0.3210146154749793
 20
184.76990495360704
 40
5
 41
1
 50
60.000042243336416
  1
12
  0
LINE
  8
_0-d_0_1
  6
CONTINUOUS
 62
    7
 10
-3.3650787269190232
 20
211.56147437525854
 11
-1.3078803933219092
 21
212.79756383944607
  0
LINE
  8
_0-d_0_1
  6
CONTINUOUS
 62
    7
 10
-3.3650787269190232
 20
211.56147437525854
 11
1.5274080446026232
 21
204.00148088079445
  0
LINE
  8
_0-d_0_1
  6
CONTINUOUS
 62
    7
 10
3.0703142541087232
 20
204.92855246093976
 11
-1.3078803933219092
 21
212.79756383944607
  0
LINE
  8
_0-d_0_1
  6
CONTINUOUS
 62
    7
 10
1.9560222730084433
 20
204.25901829139838
 11
1.5274080446026232
 21
204.00148088079445
  0
LINE
  8
_0-d_0_1
  6
CONTINUOUS
 62
    7
 10
2.7285503516786207
 20
202.97324766996468
 11
1.9560222730084433
 21
204.25901829139838
  0
LINE
  8
_0-d_0_1
  6
CONTINUOUS
 62
    7
 10
3.0703142541087232
 20
204.92855246093976
 11
2.6417000257029599
 21
204.6710150503358
  0
LINE
  8
_0-d_0_1
  6
CONTINUOUS
 62
    7
 10
3.4142881364772677
 20
203.38528049982941
 11
2.6417000257029599
 21
204.6710150503358
  0
LINE
  8
_0-d_0_1
  6
CONTINUOUS
 62
    7
 10
-3.4588130861116326
 20
213.59324102443452
 11
-3.168705846194058
 21
211.6794671059312
  0
LINE
  8
_0-d_0_1
  6
CONTINUOUS
 62
    7
 10
-3.0451456322090849
 20
213.82263873620127
 11
-1.5058431285294773
 21
212.67861582782496
  0
LINE
  8
_0-d_0_1
  6
CONTINUOUS
 62
    7
 10
0.9838020917423477
 20
204.84147396796058
 11
2.5838519160062674
 21
205.80288089584275
  0
ARC
  8
_0-d_0_1
  6
CONTINUOUS
 62
    7
 10
17.749999999951058
 20
178.75000000008183
 40
29.999996185207415
 50
120.22578430175577
 51
121.77421569824502
  0
ARC
  8
_0-d_0_1
  6
CONTINUOUS
 62
    7
 10
3.0714187944921321
 20
203.1792615303427
 40
0.4000000059604679
 50
210.99999999999616
 51
31.000000000004714
  0
ARC
  8
_0-d_0_1
  6
CONTINUOUS
 62
    7
 10
-3.2120441476390624
 20
213.63669998304147
 40
0.2500000000000415
 50
48.088562011735412
 51
189.98876953125489
  0
LINE
  8
_0-d_0_1
  6
CONTINUOUS
 62
    7
 10
-12.24725908923665
 20
179.15536698932061
 11
-19.249996134524736
 21
179.25000235671411
  0
LINE
  8
_0-d_0_1
  6
CONTINUOUS
 62
    7
 10
-19.249996134524736
 20
178.25000104541192
 11
-12.24725908923665
 21
178.34463641280541
  0
ARC
  8
_0-d_0_1
  6
CONTINUOUS
 62
    7
 10
17.749999999973795
 20
178.75
 40
29.99999618527653
 50
179.22578430175719
 51
180.77421569824276
  0
LINE
  8
_0-1_作画層１
  6
CENTER
 62
    7
 10
70.75
 20
178.75
 11
-35.25
 21
178.75
  0
LINE
  8
_0-1_作画層１
  6
CENTER
 62
    7
 10
170.75
 20
178.75
 11
87.25
 21
178.75
  0
LINE
  8
_0-1_作画層１
  6
CONTINUOUS
 62
    7
 10
-15.25
 20
107.75
 11
-15.25
 21
117.75
  0
LINE
  8
_0-1_作画層１
  6
CONTINUOUS
 62
    7
 10
50.749999999999972
 20
107.75
 11
50.749999999999972
 21
117.75
  0
LINE
  8
_0-1_作画層１
  6
CONTINUOUS
 62
    7
 10
50.749999999999972
 20
107.75
 11
-15.25
 21
107.75
  0
LINE
  8
_0-1_作画層１
  6
CONTINUOUS
 62
    7
 10
50.749999999999972
 20
117.75
 11
-15.25
 21
117.75
  0
LINE
  8
_0-1_作画層１
  6
CONTINUOUS
 62
    7
 10
40.864299999999972
 20
107.75
 11
40.864299999999972
 21
117.75
  0
LINE
  8
_0-1_作画層１
  6
CONTINUOUS
 62
    7
 10
31.578599999999966
 20
107.75
 11
31.578599999999966
 21
117.75
  0
LINE
  8
_0-1_作画層１
  6
CONTINUOUS
 62
    7
 10
22.29289999999996
 20
107.75
 11
22.29289999999996
 21
117.75
  0
LINE
  8
_0-1_作画層１
  6
CONTINUOUS
 62
    7
 10
13.007199999999955
 20
107.75
 11
13.007199999999955
 21
117.75
  0
LINE
  8
_0-1_作画層１
  6
CONTINUOUS
 62
    7
 10
3.721499999999935
 20
107.75
 11
3.721499999999935
 21
117.75
  0
LINE
  8
_0-1_作画層１
  6
CONTINUOUS
 62
    7
 10
-5.5642000000000564
 20
107.75
 11
-5.5642000000000564
 21
117.75
  0
LINE
  8
_0-1_作画層１
  6
CONTINUOUS
 62
    7
 10
50.749999999999972
 20
116.75
 11
-15.25
 21
116.75
  0
LINE
  8
_0-1_作画層１
  6
CONTINUOUS
 62
    7
 10
38.25
 20
95.64442719099992
 11
50.75
 21
95.64442719099992
  0
LINE
  8
_0-1_作画層１
  6
CONTINUOUS
 62
    7
 10
50.75
 20
95.64442719099992
 11
50.75
 21
103.64442719099992
  0
LINE
  8
_0-1_作画層１
  6
CONTINUOUS
 62
    7
 10
38.25
 20
103.64442719099992
 11
38.25
 21
95.64442719099992
  0
LINE
  8
_0-1_作画層１
  6
CONTINUOUS
 62
    7
 10
38.25
 20
103.64442719099992
 11
50.75
 21
103.64442719099992
  0
LINE
  8
_0-1_作画層１
  6
CONTINUOUS
 62
    7
 10
49.75
 20
97.14442719099992
 11
49.75
 21
102.14442719099992
  0
LINE
  8
_0-1_作画層１
  6
CONTINUOUS
 62
    7
 10
39.25
 20
97.14442719099992
 11
39.25
 21
102.14442719099992
  0
LINE
  8
_0-1_作画層１
  6
CONTINUOUS
 62
    7
 10
49.75
 20
102.14442719099992
 11
39.25
 21
102.14442719099992
  0
LINE
  8
_0-1_作画層１
  6
CONTINUOUS
 62
    7
 10
49.75
 20
97.14442719099992
 11
39.25
 21
97.14442719099992
  0
LINE
  8
_0-1_作画層１
  6
CONTINUOUS
 62
    7
 10
45.25
 20
102.14442719099992
 11
45.25
 21
97.14442719099992
  0
LINE
  8
_0-1_作画層１
  6
CONTINUOUS
 62
    7
 10
43.75
 20
102.14442719099992
 11
43.75
 21
97.14442719099992
  0
LINE
  8
_0-1_作画層１
  6
CONTINUOUS
 62
    7
 10
-2.7500000000000568
 20
103.64442719099992
 11
-2.7500000000000568
 21
95.64442719099992
  0
LINE
  8
_0-1_作画層１
  6
CONTINUOUS
 62
    7
 10
-2.7500000000000568
 20
103.64442719099992
 11
-15.250000000000057
 21
103.64442719099992
  0
LINE
  8
_0-1_作画層１
  6
CONTINUOUS
 62
    7
 10
-3.7500000000000568
 20
97.14442719099992
 11
-3.7500000000000568
 21
102.14442719099992
  0
LINE
  8
_0-1_作画層１
  6
CONTINUOUS
 62
    7
 10
-14.250000000000057
 20
102.14442719099992
 11
-3.7500000000000568
 21
102.14442719099992
  0
CIRCLE
  8
_0-1_作画層１
  6
CONTINUOUS
 62
    7
 10
-19
 20
140
 40
2.5
  0
LINE
  8
_0-1_作画層１
  6
CONTINUOUS
 62
    7
 10
-22.75
 20
136.25
 11
-15.25
 21
136.25
  0
LINE
  8
_0-1_作画層１
  6
CONTINUOUS
 62
    7
 10
-15.25
 20
136.25
 11
-15.25
 21
143.75
  0
LINE
  8
_0-1_作画層１
  6
CONTINUOUS
 62
    7
 10
-22.75
 20
143.75
 11
-22.75
 21
136.25
  0
LINE
  8
_0-1_作画層１
  6
CONTINUOUS
 62
    7
 10
-15.25
 20
143.75
 11
-22.75
 21
143.75
  0
LINE
  8
_0-1_作画層１
  6
CONTINUOUS
 62
    7
 10
-15.75
 20
136.75
 11
-22.25
 21
136.75
  0
LINE
  8
_0-1_作画層１
  6
CONTINUOUS
 62
    7
 10
-15.75
 20
143.25
 11
-15.75
 21
136.75
  0
LINE
  8
_0-1_作画層１
  6
CONTINUOUS
 62
    7
 10
-22.25
 20
143.25
 11
-22.25
 21
136.75
  0
LINE
  8
_0-1_作画層１
  6
CONTINUOUS
 62
    7
 10
-15.75
 20
143.25
 11
-22.25
 21
143.25
  0
CIRCLE
  8
_0-1_作画層１
  6
CONTINUOUS
 62
    7
 10
-9
 20
140
 40
2.5
  0
LINE
  8
_0-1_作画層１
  6
CONTINUOUS
 62
    7
 10
-12.75
 20
136.25
 11
-5.25
 21
136.25
  0
LINE
  8
_0-1_作画層１
  6
CONTINUOUS
 62
    7
 10
-5.25
 20
136.25
 11
-5.25
 21
143.75
  0
LINE
  8
_0-1_作画層１
  6
CONTINUOUS
 62
    7
 10
-12.75
 20
143.75
 11
-12.75
 21
136.25
  0
LINE
  8
_0-1_作画層１
  6
CONTINUOUS
 62
    7
 10
-5.25
 20
143.75
 11
-12.75
 21
143.75
  0
LINE
  8
_0-1_作画層１
  6
CONTINUOUS
 62
    7
 10
-5.75
 20
136.75
 11
-12.25
 21
136.75
  0
LINE
  8
_0-1_作画層１
  6
CONTINUOUS
 62
    7
 10
-5.75
 20
143.25
 11
-5.75
 21
136.75
  0
LINE
  8
_0-1_作画層１
  6
CONTINUOUS
 62
    7
 10
-12.25
 20
143.25
 11
-12.25
 21
136.75
  0
LINE
  8
_0-1_作画層１
  6
CONTINUOUS
 62
    7
 10
-5.75
 20
143.25
 11
-12.25
 21
143.25
  0
TEXT
  8
_0-7_注記層１
 62
    7
 10
-11.550000000000011
 20
120
 40
2.6000000000000001
 41
1
 50
0
  1
日
  0
LINE
  8
_0-1_作画層１
  6
CONTINUOUS
 62
    7
 10
-14
 20
118.75
 11
-6.5
 21
118.75
  0
LINE
  8
_0-1_作画層１
  6
CONTINUOUS
 62
    7
 10
-6.5
 20
118.75
 11
-6.5
 21
123.75
  0
LINE
  8
_0-1_作画層１
  6
CONTINUOUS
 62
    7
 10
-6.5
 20
123.75
 11
-14
 21
123.75
  0
LINE
  8
_0-1_作画層１
  6
CONTINUOUS
 62
    7
 10
-14
 20
123.75
 11
-14
 21
118.75
  0
LINE
  8
_0-1_作画層１
  6
CONTINUOUS
 62
    7
 10
-4.7300000000000182
 20
118.75
 11
2.7699999999999818
 21
118.75
  0
LINE
  8
_0-1_作画層１
  6
CONTINUOUS
 62
    7
 10
2.7699999999999818
 20
118.75
 11
2.7699999999999818
 21
123.75
  0
LINE
  8
_0-1_作画層１
  6
CONTINUOUS
 62
    7
 10
2.7699999999999818
 20
123.75
 11
-4.7300000000000182
 21
123.75
  0
LINE
  8
_0-1_作画層１
  6
CONTINUOUS
 62
    7
 10
-4.7300000000000182
 20
123.75
 11
-4.7300000000000182
 21
118.75
  0
LINE
  8
_0-1_作画層１
  6
CONTINUOUS
 62
    7
 10
4.539999999999992
 20
118.75
 11
12.039999999999992
 21
118.75
  0
LINE
  8
_0-1_作画層１
  6
CONTINUOUS
 62
    7
 10
12.039999999999992
 20
118.75
 11
12.039999999999992
 21
123.75
  0
LINE
  8
_0-1_作画層１
  6
CONTINUOUS
 62
    7
 10
12.039999999999992
 20
123.75
 11
4.539999999999992
 21
123.75
  0
LINE
  8
_0-1_作画層１
  6
CONTINUOUS
 62
    7
 10
4.539999999999992
 20
123.75
 11
4.539999999999992
 21
118.75
  0
LINE
  8
_0-1_作画層１
  6
CONTINUOUS
 62
    7
 10
13.810000000000002
 20
118.75
 11
21.309999999999988
 21
118.75
  0
LINE
  8
_0-1_作画層１
  6
CONTINUOUS
 62
    7
 10
21.309999999999988
 20
118.75
 11
21.309999999999988
 21
123.75
  0
LINE
  8
_0-1_作画層１
  6
CONTINUOUS
 62
    7
 10
21.309999999999988
 20
123.75
 11
13.810000000000002
 21
123.75
  0
LINE
  8
_0-1_作画層１
  6
CONTINUOUS
 62
    7
 10
13.810000000000002
 20
123.75
 11
13.810000000000002
 21
118.75
  0
LINE
  8
_0-1_作画層１
  6
CONTINUOUS
 62
    7
 10
23.079999999999984
 20
118.75
 11
30.579999999999984
 21
118.75
  0
LINE
  8
_0-1_作画層１
  6
CONTINUOUS
 62
    7
 10
30.579999999999984
 20
118.75
 11
30.579999999999984
 21
123.75
  0
LINE
  8
_0-1_作画層１
  6
CONTINUOUS
 62
    7
 10
30.579999999999984
 20
123.75
 11
23.079999999999984
 21
123.75
  0
LINE
  8
_0-1_作画層１
  6
CONTINUOUS
 62
    7
 10
23.079999999999984
 20
123.75
 11
23.079999999999984
 21
118.75
  0
LINE
  8
_0-1_作画層１
  6
CONTINUOUS
 62
    7
 10
32.34999999999998
 20
118.75
 11
39.84999999999998
 21
118.75
  0
LINE
  8
_0-1_作画層１
  6
CONTINUOUS
 62
    7
 10
39.84999999999998
 20
118.75
 11
39.84999999999998
 21
123.75
  0
LINE
  8
_0-1_作画層１
  6
CONTINUOUS
 62
    7
 10
39.84999999999998
 20
123.75
 11
32.34999999999998
 21
123.75
  0
LINE
  8
_0-1_作画層１
  6
CONTINUOUS
 62
    7
 10
32.34999999999998
 20
123.75
 11
32.34999999999998
 21
118.75
  0
LINE
  8
_0-1_作画層１
  6
CONTINUOUS
 62
    7
 10
41.619999999999976
 20
118.75
 11
49.119999999999976
 21
118.75
  0
LINE
  8
_0-1_作画層１
  6
CONTINUOUS
 62
    7
 10
49.119999999999976
 20
118.75
 11
49.119999999999976
 21
123.75
  0
LINE
  8
_0-1_作画層１
  6
CONTINUOUS
 62
    7
 10
49.119999999999976
 20
123.75
 11
41.619999999999976
 21
123.75
  0
LINE
  8
_0-1_作画層１
  6
CONTINUOUS
 62
    7
 10
41.619999999999976
 20
123.75
 11
41.619999999999976
 21
118.75
  0
TEXT
  8
_0-7_注記層１
 62
    7
 10
-2.2800000000000011
 20
120
 40
2.6000000000000001
 41
1
 50
0
  1
月
  0
TEXT
  8
_0-7_注記層１
 62
    7
 10
6.9900000000000091
 20
120
 40
2.6000000000000001
 41
1
 50
0
  1
火
  0
TEXT
  8
_0-7_注記層１
 62
    7
 10
16.259999999999991
 20
120
 40
2.6000000000000001
 41
1
 50
0
  1
水
  0
TEXT
  8
_0-7_注記層１
 62
    7
 10
25.529999999999987
 20
120
 40
2.6000000000000001
 41
1
 50
0
  1
木
  0
TEXT
  8
_0-7_注記層１
 62
    7
 10
34.799999999999983
 20
120
 40
2.6000000000000001
 41
1
 50
0
  1
金
  0
TEXT
  8
_0-7_注記層１
 62
    7
 10
44.069999999999979
 20
120
 40
2.6000000000000001
 41
1
 50
0
  1
土
  0
LINE
  8
_0-1_作画層１
  6
CONTINUOUS
 62
    7
 10
-22.75
 20
130
 11
-15.25
 21
130
  0
LINE
  8
_0-1_作画層１
  6
CONTINUOUS
 62
    7
 10
-15.25
 20
130
 11
-15.25
 21
135
  0
LINE
  8
_0-1_作画層１
  6
CONTINUOUS
 62
    7
 10
-15.25
 20
135
 11
-22.75
 21
135
  0
LINE
  8
_0-1_作画層１
  6
CONTINUOUS
 62
    7
 10
-22.75
 20
135
 11
-22.75
 21
130
  0
TEXT
  8
_0-7_注記層１
 62
    7
 10
-20.949999999999989
 20
131.25
 40
2.6000000000000001
 41
1
 50
0
  1
OUT
  0
LINE
  8
_0-1_作画層１
  6
CONTINUOUS
 62
    7
 10
-12.75
 20
130
 11
-5.25
 21
130
  0
LINE
  8
_0-1_作画層１
  6
CONTINUOUS
 62
    7
 10
-5.25
 20
130
 11
-5.25
 21
135
  0
LINE
  8
_0-1_作画層１
  6
CONTINUOUS
 62
    7
 10
-5.25
 20
135
 11
-12.75
 21
135
  0
LINE
  8
_0-1_作画層１
  6
CONTINUOUS
 62
    7
 10
-12.75
 20
135
 11
-12.75
 21
130
  0
TEXT
  8
_0-7_注記層１
 62
    7
 10
-10.300000000000011
 20
131.25
 40
2.6000000000000001
 41
1
 50
0
  1
PL
  0
TEXT
  8
_0-7_注記層１
 62
    7
 10
8.1500000000000057
 20
126.25
 40
2.6000000000000001
 41
1
 50
0
  1
CALENDAR-TIMER
  0
LINE
  8
_0-1_作画層１
  6
CONTINUOUS
 62
    7
 10
12.607495069033519
 20
138.66740631163708
 11
12.606808575951504
 21
138.67717612119364
  0
LINE
  8
_0-1_作画層１
  6
CONTINUOUS
 62
    7
 10
12.606808575951504
 20
138.67717612119364
 11
12.606758807357323
 21
138.6852828017563
  0
LINE
  8
_0-1_作画層１
  6
CONTINUOUS
 62
    7
 10
12.606758807357323
 20
138.6852828017563
 11
12.606908905895551
 21
138.69535224318562
  0
LINE
  8
_0-1_作画層１
  6
CONTINUOUS
 62
    7
 10
12.606908905895551
 20
138.69535224318562
 11
12.607262032942231
 21
138.70724562823941
  0
LINE
  8
_0-1_作画層１
  6
CONTINUOUS
 62
    7
 10
12.607262032942231
 20
138.70724562823941
 11
12.607821349873234
 21
138.72082413967536
  0
LINE
  8
_0-1_作画層１
  6
CONTINUOUS
 62
    7
 10
12.607821349873234
 20
138.72082413967536
 11
12.608590018064604
 21
138.73594896025122
  0
LINE
  8
_0-1_作画層１
  6
CONTINUOUS
 62
    7
 10
12.608590018064604
 20
138.73594896025122
 11
12.60957119889224
 21
138.75248127272491
  0
LINE
  8
_0-1_作画層１
  6
CONTINUOUS
 62
    7
 10
12.60957119889224
 20
138.75248127272491
 11
12.61076805373213
 21
138.77028225985407
  0
LINE
  8
_0-1_作画層１
  6
CONTINUOUS
 62
    7
 10
12.61076805373213
 20
138.77028225985407
 11
12.61218374396023
 21
138.78921310439668
  0
LINE
  8
_0-1_作画層１
  6
CONTINUOUS
 62
    7
 10
12.61218374396023
 20
138.78921310439668
 11
12.613821430952441
 21
138.80913498911019
  0
LINE
  8
_0-1_作画層１
  6
CONTINUOUS
 62
    7
 10
12.613821430952441
 20
138.80913498911019
 11
12.615684276084778
 21
138.82990909675263
  0
LINE
  8
_0-1_作画層１
  6
CONTINUOUS
 62
    7
 10
12.615684276084778
 20
138.82990909675263
 11
12.617775440733169
 21
138.85139661008168
  0
LINE
  8
_0-1_作画層１
  6
CONTINUOUS
 62
    7
 10
12.617775440733169
 20
138.85139661008168
 11
12.620098086273629
 21
138.87345871185516
  0
LINE
  8
_0-1_作画層１
  6
CONTINUOUS
 62
    7
 10
12.620098086273629
 20
138.87345871185516
 11
12.622655374082001
 21
138.8959565848308
  0
LINE
  8
_0-1_作画層１
  6
CONTINUOUS
 62
    7
 10
12.622655374082001
 20
138.8959565848308
 11
12.6254504655343
 21
138.91875141176638
  0
LINE
  8
_0-1_作画層１
  6
CONTINUOUS
 62
    7
 10
12.6254504655343
 20
138.91875141176638
 11
12.628486522006483
 21
138.94170437541968
  0
LINE
  8
_0-1_作画層１
  6
CONTINUOUS
 62
    7
 10
12.628486522006483
 20
138.94170437541968
 11
12.631766704874508
 21
138.96467665854851
  0
LINE
  8
_0-1_作画層１
  6
CONTINUOUS
 62
    7
 10
12.631766704874508
 20
138.96467665854851
 11
12.635294175514332
 21
138.98752944391057
  0
LINE
  8
_0-1_作画層１
  6
CONTINUOUS
 62
    7
 10
12.635294175514332
 20
138.98752944391057
 11
12.639072095301913
 21
139.01012391426377
  0
LINE
  8
_0-1_作画層１
  6
CONTINUOUS
 62
    7
 10
12.639072095301913
 20
139.01012391426377
 11
12.643103625613179
 21
139.0323212523657
  0
LINE
  8
_0-1_作画層１
  6
CONTINUOUS
 62
    7
 10
12.643103625613179
 20
139.0323212523657
 11
12.647391927824117
 21
139.05398264097431
  0
LINE
  8
_0-1_作画層１
  6
CONTINUOUS
 62
    7
 10
12.647391927824117
 20
139.05398264097431
 11
12.651940163310655
 21
139.0749692628473
  0
LINE
  8
_0-1_作画層１
  6
CONTINUOUS
 62
    7
 10
12.651940163310655
 20
139.0749692628473
 11
12.656751493448752
 21
139.09514230074242
  0
LINE
  8
_0-1_作画層１
  6
CONTINUOUS
 62
    7
 10
12.656751493448752
 20
139.09514230074242
 11
12.661829079614392
 21
139.11436293741747
  0
LINE
  8
_0-1_作画層１
  6
CONTINUOUS
 62
    7
 10
12.661829079614392
 20
139.11436293741747
 11
12.667176083183506
 21
139.13249235563023
  0
LINE
  8
_0-1_作画層１
  6
CONTINUOUS
 62
    7
 10
12.667176083183506
 20
139.13249235563023
 11
12.672795665532021
 21
139.14939173813843
  0
LINE
  8
_0-1_作画層１
  6
CONTINUOUS
 62
    7
 10
12.672795665532021
 20
139.14939173813843
 11
12.678690988035953
 21
139.16492226769998
  0
LINE
  8
_0-1_作画層１
  6
CONTINUOUS
 62
    7
 10
12.678690988035953
 20
139.16492226769998
 11
12.68486521207123
 21
139.17894512707247
  0
LINE
  8
_0-1_作画層１
  6
CONTINUOUS
 62
    7
 10
12.68486521207123
 20
139.17894512707247
 11
12.69132149901381
 21
139.19132149901381
  0
LINE
  8
_0-1_作画層１
  6
CONTINUOUS
 62
    7
 10
12.69132149901381
 20
139.19132149901381
 11
12.726170050881052
 21
139.24617799742902
  0
LINE
  8
_0-1_作画層１
  6
CONTINUOUS
 62
    7
 10
12.726170050881052
 20
139.24617799742902
 11
12.746769874387354
 21
139.27487226746015
  0
LINE
  8
_0-1_作画層１
  6
CONTINUOUS
 62
    7
 10
12.746769874387354
 20
139.27487226746015
 11
12.769321355971726
 21
139.30426877400879
  0
LINE
  8
_0-1_作画層１
  6
CONTINUOUS
 62
    7
 10
12.769321355971726
 20
139.30426877400879
 11
12.793700465406346
 21
139.33426118405123
  0
LINE
  8
_0-1_作画層１
  6
CONTINUOUS
 62
    7
 10
12.793700465406346
 20
139.33426118405123
 11
12.819783172463474
 21
139.36474316456381
  0
LINE
  8
_0-1_作画層１
  6
CONTINUOUS
 62
    7
 10
12.819783172463474
 20
139.36474316456381
 11
12.847445446915174
 21
139.39560838252274
  0
LINE
  8
_0-1_作画層１
  6
CONTINUOUS
 62
    7
 10
12.847445446915174
 20
139.39560838252274
 11
12.876563258533793
 21
139.4267505049045
  0
LINE
  8
_0-1_作画層１
  6
CONTINUOUS
 62
    7
 10
12.876563258533793
 20
139.4267505049045
 11
12.90701257709145
 21
139.45806319868524
  0
LINE
  8
_0-1_作画層１
  6
CONTINUOUS
 62
    7
 10
12.90701257709145
 20
139.45806319868524
 11
12.938669372360437
 21
139.48944013084153
  0
LINE
  8
_0-1_作画層１
  6
CONTINUOUS
 62
    7
 10
12.938669372360437
 20
139.48944013084153
 11
12.971409614112787
 21
139.52077496834937
  0
LINE
  8
_0-1_作画層１
  6
CONTINUOUS
 62
    7
 10
12.971409614112787
 20
139.52077496834937
 11
13.005109272120848
 21
139.55196137818535
  0
LINE
  8
_0-1_作画層１
  6
CONTINUOUS
 62
    7
 10
13.005109272120848
 20
139.55196137818535
 11
13.039644316156739
 21
139.58289302732567
  0
LINE
  8
_0-1_作画層１
  6
CONTINUOUS
 62
    7
 10
13.039644316156739
 20
139.58289302732567
 11
13.074890715992751
 21
139.61346358274668
  0
LINE
  8
_0-1_作画層１
  6
CONTINUOUS
 62
    7
 10
13.074890715992751
 20
139.61346358274668
 11
13.110724441400976
 21
139.64356671142465
  0
LINE
  8
_0-1_作画層１
  6
CONTINUOUS
 62
    7
 10
13.110724441400976
 20
139.64356671142465
 11
13.147021462153674
 21
139.67309608033594
  0
LINE
  8
_0-1_作画層１
  6
CONTINUOUS
 62
    7
 10
13.147021462153674
 20
139.67309608033594
 11
13.183657748023052
 21
139.70194535645686
  0
LINE
  8
_0-1_作画層１
  6
CONTINUOUS
 62
    7
 10
13.183657748023052
 20
139.70194535645686
 11
13.220509268781257
 21
139.73000820676373
  0
LINE
  8
_0-1_作画層１
  6
CONTINUOUS
 62
    7
 10
13.220509268781257
 20
139.73000820676373
 11
13.257451994200551
 21
139.75717829823293
  0
LINE
  8
_0-1_作画層１
  6
CONTINUOUS
 62
    7
 10
13.257451994200551
 20
139.75717829823293
 11
13.294361894053111
 21
139.78334929784069
  0
LINE
  8
_0-1_作画層１
  6
CONTINUOUS
 62
    7
 10
13.294361894053111
 20
139.78334929784069
 11
13.331114938111085
 21
139.80841487256333
  0
LINE
  8
_0-1_作画層１
  6
CONTINUOUS
 62
    7
 10
13.331114938111085
 20
139.80841487256333
 11
13.367587096146735
 21
139.8322686893772
  0
LINE
  8
_0-1_作画層１
  6
CONTINUOUS
 62
    7
 10
13.367587096146735
 20
139.8322686893772
 11
13.403654337932295
 21
139.85480441525874
  0
LINE
  8
_0-1_作画層１
  6
CONTINUOUS
 62
    7
 10
13.403654337932295
 20
139.85480441525874
 11
13.439192633239884
 21
139.87591571718406
  0
LINE
  8
_0-1_作画層１
  6
CONTINUOUS
 62
    7
 10
13.439192633239884
 20
139.87591571718406
 11
13.474077951841736
 21
139.8954962621296
  0
LINE
  8
_0-1_作画層１
  6
CONTINUOUS
 62
    7
 10
13.474077951841736
 20
139.8954962621296
 11
13.508186263510055
 21
139.91343971707164
  0
LINE
  8
_0-1_作画層１
  6
CONTINUOUS
 62
    7
 10
13.508186263510055
 20
139.91343971707164
 11
13.541393538017019
 21
139.92963974898652
  0
LINE
  8
_0-1_作画層１
  6
CONTINUOUS
 62
    7
 10
13.541393538017019
 20
139.92963974898652
 11
13.57357574513486
 21
139.94399002485054
  0
LINE
  8
_0-1_作画層１
  6
CONTINUOUS
 62
    7
 10
13.57357574513486
 20
139.94399002485054
 11
13.604608854635728
 21
139.95638421164006
  0
LINE
  8
_0-1_作画層１
  6
CONTINUOUS
 62
    7
 10
13.604608854635728
 20
139.95638421164006
 11
13.634368836291912
 21
139.96671597633136
  0
LINE
  8
_0-1_作画層１
  6
CONTINUOUS
 62
    7
 10
13.634368836291912
 20
139.96671597633136
 11
13.694654001056961
 21
139.9822927081602
  0
LINE
  8
_0-1_作画層１
  6
CONTINUOUS
 62
    7
 10
13.694654001056961
 20
139.9822927081602
 11
13.727750019437906
 21
139.98842825211003
  0
LINE
  8
_0-1_作画層１
  6
CONTINUOUS
 62
    7
 10
13.727750019437906
 20
139.98842825211003
 11
13.762618286321697
 21
139.99351317144945
  0
LINE
  8
_0-1_作画層１
  6
CONTINUOUS
 62
    7
 10
13.762618286321697
 20
139.99351317144945
 11
13.799111270086428
 21
139.99758590870303
  0
LINE
  8
_0-1_作画層１
  6
CONTINUOUS
 62
    7
 10
13.799111270086428
 20
139.99758590870303
 11
13.837081439109966
 21
140.00068490639529
  0
LINE
  8
_0-1_作画層１
  6
CONTINUOUS
 62
    7
 10
13.837081439109966
 20
140.00068490639529
 11
13.876381261770206
 21
140.00284860705059
  0
LINE
  8
_0-1_作画層１
  6
CONTINUOUS
 62
    7
 10
13.876381261770206
 20
140.00284860705059
 11
13.916863206445271
 21
140.00411545319375
  0
LINE
  8
_0-1_作画層１
  6
CONTINUOUS
 62
    7
 10
13.916863206445271
 20
140.00411545319375
 11
13.958379741512971
 21
140.00452388734897
  0
LINE
  8
_0-1_作画層１
  6
CONTINUOUS
 62
    7
 10
13.958379741512971
 20
140.00452388734897
 11
14.000783335351372
 21
140.00411235204106
  0
LINE
  8
_0-1_作画層１
  6
CONTINUOUS
 62
    7
 10
14.000783335351372
 20
140.00411235204106
 11
14.04392645633834
 21
140.00291928979425
  0
LINE
  8
_0-1_作画層１
  6
CONTINUOUS
 62
    7
 10
14.04392645633834
 20
140.00291928979425
 11
14.087661572851943
 21
140.00098314313331
  0
LINE
  8
_0-1_作画層１
  6
CONTINUOUS
 62
    7
 10
14.087661572851943
 20
140.00098314313331
 11
14.131841153270045
 21
139.9983423545826
  0
LINE
  8
_0-1_作画層１
  6
CONTINUOUS
 62
    7
 10
14.131841153270045
 20
139.9983423545826
 11
14.176317665970686
 21
139.99503536666671
  0
LINE
  8
_0-1_作画層１
  6
CONTINUOUS
 62
    7
 10
14.176317665970686
 20
139.99503536666671
 11
14.22094357933176
 21
139.99110062191014
  0
LINE
  8
_0-1_作画層１
  6
CONTINUOUS
 62
    7
 10
14.22094357933176
 20
139.99110062191014
 11
14.265571361731247
 21
139.98657656283737
  0
LINE
  8
_0-1_作画層１
  6
CONTINUOUS
 62
    7
 10
14.265571361731247
 20
139.98657656283737
 11
14.310053481547129
 21
139.98150163197295
  0
LINE
  8
_0-1_作画層１
  6
CONTINUOUS
 62
    7
 10
14.310053481547129
 20
139.98150163197295
 11
14.354242407157358
 21
139.97591427184142
  0
LINE
  8
_0-1_作画層１
  6
CONTINUOUS
 62
    7
 10
14.354242407157358
 20
139.97591427184142
 11
14.397990606939857
 21
139.96985292496728
  0
LINE
  8
_0-1_作画層１
  6
CONTINUOUS
 62
    7
 10
14.397990606939857
 20
139.96985292496728
 11
14.441150549272635
 21
139.96335603387504
  0
LINE
  8
_0-1_作画層１
  6
CONTINUOUS
 62
    7
 10
14.441150549272635
 20
139.96335603387504
 11
14.483574702533588
 21
139.9564620410892
  0
LINE
  8
_0-1_作画層１
  6
CONTINUOUS
 62
    7
 10
14.483574702533588
 20
139.9564620410892
 11
14.525115535100781
 21
139.9492093891343
  0
LINE
  8
_0-1_作画層１
  6
CONTINUOUS
 62
    7
 10
14.525115535100781
 20
139.9492093891343
 11
14.56562551535211
 21
139.94163652053487
  0
LINE
  8
_0-1_作画層１
  6
CONTINUOUS
 62
    7
 10
14.56562551535211
 20
139.94163652053487
 11
14.604957111665499
 21
139.93378187781542
  0
LINE
  8
_0-1_作画層１
  6
CONTINUOUS
 62
    7
 10
14.604957111665499
 20
139.93378187781542
 11
14.642962792418984
 21
139.92568390350044
  0
LINE
  8
_0-1_作画層１
  6
CONTINUOUS
 62
    7
 10
14.642962792418984
 20
139.92568390350044
 11
14.679495025990434
 21
139.91738104011449
  0
LINE
  8
_0-1_作画層１
  6
CONTINUOUS
 62
    7
 10
14.679495025990434
 20
139.91738104011449
 11
14.714406280757913
 21
139.90891173018207
  0
LINE
  8
_0-1_作画層１
  6
CONTINUOUS
 62
    7
 10
14.714406280757913
 20
139.90891173018207
 11
14.747549025099318
 21
139.90031441622767
  0
LINE
  8
_0-1_作画層１
  6
CONTINUOUS
 62
    7
 10
14.747549025099318
 20
139.90031441622767
 11
14.778775727392599
 21
139.89162754077583
  0
LINE
  8
_0-1_作画層１
  6
CONTINUOUS
 62
    7
 10
14.778775727392599
 20
139.89162754077583
 11
14.807938856015767
 21
139.88288954635109
  0
LINE
  8
_0-1_作画層１
  6
CONTINUOUS
 62
    7
 10
14.807938856015767
 20
139.88288954635109
 11
14.900325334600524
 21
139.85113724284273
  0
LINE
  8
_0-1_作画層１
  6
CONTINUOUS
 62
    7
 10
14.900325334600524
 20
139.85113724284273
 11
14.947820885930867
 21
139.83270837259514
  0
LINE
  8
_0-1_作画層１
  6
CONTINUOUS
 62
    7
 10
14.947820885930867
 20
139.83270837259514
 11
14.996143788438275
 21
139.8126577753047
  0
LINE
  8
_0-1_作画層１
  6
CONTINUOUS
 62
    7
 10
14.996143788438275
 20
139.8126577753047
 11
15.045263399486544
 21
139.79104551493592
  0
LINE
  8
_0-1_作画層１
  6
CONTINUOUS
 62
    7
 10
15.045263399486544
 20
139.79104551493592
 11
15.095149076439554
 21
139.76793165545348
  0
LINE
  8
_0-1_作画層１
  6
CONTINUOUS
 62
    7
 10
15.095149076439554
 20
139.76793165545348
 11
15.145770176661017
 21
139.74337626082169
  0
LINE
  8
_0-1_作画層１
  6
CONTINUOUS
 62
    7
 10
15.145770176661017
 20
139.74337626082169
 11
15.197096057514841
 21
139.71743939500539
  0
LINE
  8
_0-1_作画層１
  6
CONTINUOUS
 62
    7
 10
15.197096057514841
 20
139.71743939500539
 11
15.249096076364765
 21
139.69018112196889
  0
LINE
  8
_0-1_作画層１
  6
CONTINUOUS
 62
    7
 10
15.249096076364765
 20
139.69018112196889
 11
15.301739590574698
 21
139.66166150567696
  0
LINE
  8
_0-1_作画層１
  6
CONTINUOUS
 62
    7
 10
15.301739590574698
 20
139.66166150567696
 11
15.354995957508322
 21
139.63194061009386
  0
LINE
  8
_0-1_作画層１
  6
CONTINUOUS
 62
    7
 10
15.354995957508322
 20
139.63194061009386
 11
15.408834534529518
 21
139.60107849918444
  0
LINE
  8
_0-1_作画層１
  6
CONTINUOUS
 62
    7
 10
15.408834534529518
 20
139.60107849918444
 11
15.46322467900211
 21
139.56913523691307
  0
LINE
  8
_0-1_作画層１
  6
CONTINUOUS
 62
    7
 10
15.46322467900211
 20
139.56913523691307
 11
15.518135748289865
 21
139.53617088724434
  0
LINE
  8
_0-1_作画層１
  6
CONTINUOUS
 62
    7
 10
15.518135748289865
 20
139.53617088724434
 11
15.573537099756663
 21
139.50224551414283
  0
LINE
  8
_0-1_作画層１
  6
CONTINUOUS
 62
    7
 10
15.573537099756663
 20
139.50224551414283
 11
15.629398090766244
 21
139.46741918157306
  0
LINE
  8
_0-1_作画層１
  6
CONTINUOUS
 62
    7
 10
15.629398090766244
 20
139.46741918157306
 11
15.68568807868246
 21
139.43175195349957
  0
LINE
  8
_0-1_作画層１
  6
CONTINUOUS
 62
    7
 10
15.68568807868246
 20
139.43175195349957
 11
15.742376420869135
 21
139.39530389388699
  0
LINE
  8
_0-1_作画層１
  6
CONTINUOUS
 62
    7
 10
15.742376420869135
 20
139.39530389388699
 11
15.799432474690065
 21
139.35813506669976
  0
LINE
  8
_0-1_作画層１
  6
CONTINUOUS
 62
    7
 10
15.799432474690065
 20
139.35813506669976
 11
15.856825597509044
 21
139.32030553590249
  0
LINE
  8
_0-1_作画層１
  6
CONTINUOUS
 62
    7
 10
15.856825597509044
 20
139.32030553590249
 11
15.914525146689897
 21
139.28187536545965
  0
LINE
  8
_0-1_作画層１
  6
CONTINUOUS
 62
    7
 10
15.914525146689897
 20
139.28187536545965
 11
15.972500479596448
 21
139.24290461933595
  0
LINE
  8
_0-1_作画層１
  6
CONTINUOUS
 62
    7
 10
15.972500479596448
 20
139.24290461933595
 11
16.030720953592521
 21
139.20345336149586
  0
LINE
  8
_0-1_作画層１
  6
CONTINUOUS
 62
    7
 10
16.030720953592521
 20
139.20345336149586
 11
16.089155926041883
 21
139.1635816559039
  0
LINE
  8
_0-1_作画層１
  6
CONTINUOUS
 62
    7
 10
16.089155926041883
 20
139.1635816559039
 11
16.147774754308386
 21
139.12334956652461
  0
LINE
  8
_0-1_作画層１
  6
CONTINUOUS
 62
    7
 10
16.147774754308386
 20
139.12334956652461
 11
16.206546795755798
 21
139.08281715732255
  0
LINE
  8
_0-1_作画層１
  6
CONTINUOUS
 62
    7
 10
16.206546795755798
 20
139.08281715732255
 11
16.265441407747971
 21
139.04204449226233
  0
LINE
  8
_0-1_作画層１
  6
CONTINUOUS
 62
    7
 10
16.265441407747971
 20
139.04204449226233
 11
16.324427947648729
 21
139.00109163530843
  0
LINE
  8
_0-1_作画層１
  6
CONTINUOUS
 62
    7
 10
16.324427947648729
 20
139.00109163530843
 11
16.383475772821839
 21
138.96001865042544
  0
LINE
  8
_0-1_作画層１
  6
CONTINUOUS
 62
    7
 10
16.383475772821839
 20
138.96001865042544
 11
16.442554240631154
 21
138.91888560157793
  0
LINE
  8
_0-1_作画層１
  6
CONTINUOUS
 62
    7
 10
17.909516765286014
 20
136.61365877712032
 11
17.920277387927939
 21
136.60422057751157
  0
LINE
  8
_0-1_作画層１
  6
CONTINUOUS
 62
    7
 10
17.920277387927939
 20
136.60422057751157
 11
17.929304584842498
 21
136.59667442293156
  0
LINE
  8
_0-1_作画層１
  6
CONTINUOUS
 62
    7
 10
17.929304584842498
 20
136.59667442293156
 11
17.940567681118949
 21
136.58741009178723
  0
LINE
  8
_0-1_作画層１
  6
CONTINUOUS
 62
    7
 10
17.940567681118949
 20
136.58741009178723
 11
17.95392015848185
 21
136.57655247904341
  0
LINE
  8
_0-1_作画層１
  6
CONTINUOUS
 62
    7
 10
17.95392015848185
 20
136.57655247904341
 11
17.969215498655899
 21
136.56422647966465
  0
LINE
  8
_0-1_作画層１
  6
CONTINUOUS
 62
    7
 10
17.969215498655899
 20
136.56422647966465
 11
17.986307183365568
 21
136.5505569886156
  0
LINE
  8
_0-1_作画層１
  6
CONTINUOUS
 62
    7
 10
17.986307183365568
 20
136.5505569886156
 11
18.005048694335585
 21
136.53566890086105
  0
LINE
  8
_0-1_作画層１
  6
CONTINUOUS
 62
    7
 10
18.005048694335585
 20
136.53566890086105
 11
18.025293513290478
 21
136.5196871113655
  0
LINE
  8
_0-1_作画層１
  6
CONTINUOUS
 62
    7
 10
18.025293513290478
 20
136.5196871113655
 11
18.046895121954947
 21
136.5027365150938
  0
LINE
  8
_0-1_作画層１
  6
CONTINUOUS
 62
    7
 10
18.046895121954947
 20
136.5027365150938
 11
18.069707002053462
 21
136.48494200701046
  0
LINE
  8
_0-1_作画層１
  6
CONTINUOUS
 62
    7
 10
18.069707002053462
 20
136.48494200701046
 11
18.093582635310781
 21
136.46642848208023
  0
LINE
  8
_0-1_作画層１
  6
CONTINUOUS
 62
    7
 10
18.093582635310781
 20
136.46642848208023
 11
18.118375503451375
 21
136.4473208352677
  0
LINE
  8
_0-1_作画層１
  6
CONTINUOUS
 62
    7
 10
18.118375503451375
 20
136.4473208352677
 11
18.1439390882
 21
136.4277439615376
  0
LINE
  8
_0-1_作画層１
  6
CONTINUOUS
 62
    7
 10
18.1439390882
 20
136.4277439615376
 11
18.170126871281127
 21
136.40782275585457
  0
LINE
  8
_0-1_作画層１
  6
CONTINUOUS
 62
    7
 10
18.170126871281127
 20
136.40782275585457
 11
18.196792334419428
 21
136.38768211318327
  0
LINE
  8
_0-1_作画層１
  6
CONTINUOUS
 62
    7
 10
18.196792334419428
 20
136.38768211318327
 11
18.223788959339515
 21
136.36744692848833
  0
LINE
  8
_0-1_作画層１
  6
CONTINUOUS
 62
    7
 10
18.223788959339515
 20
136.36744692848833
 11
18.250970227765976
 21
136.34724209673453
  0
LINE
  8
_0-1_作画層１
  6
CONTINUOUS
 62
    7
 10
18.250970227765976
 20
136.34724209673453
 11
18.278189621423394
 21
136.32719251288643
  0
LINE
  8
_0-1_作画層１
  6
CONTINUOUS
 62
    7
 10
18.278189621423394
 20
136.32719251288643
 11
18.305300622036441
 21
136.30742307190872
  0
LINE
  8
_0-1_作画層１
  6
CONTINUOUS
 62
    7
 10
18.305300622036441
 20
136.30742307190872
 11
18.332156711329674
 21
136.28805866876598
  0
LINE
  8
_0-1_作画層１
  6
CONTINUOUS
 62
    7
 10
18.332156711329674
 20
136.28805866876598
 11
18.358611371027706
 21
136.26922419842302
  0
LINE
  8
_0-1_作画層１
  6
CONTINUOUS
 62
    7
 10
18.358611371027706
 20
136.26922419842302
 11
18.38451808285518
 21
136.25104455584449
  0
LINE
  8
_0-1_作画層１
  6
CONTINUOUS
 62
    7
 10
18.38451808285518
 20
136.25104455584449
 11
18.409730328536654
 21
136.23364463599495
  0
LINE
  8
_0-1_作画層１
  6
CONTINUOUS
 62
    7
 10
18.409730328536654
 20
136.23364463599495
 11
18.434101589796796
 21
136.21714933383913
  0
LINE
  8
_0-1_作画層１
  6
CONTINUOUS
 62
    7
 10
18.434101589796796
 20
136.21714933383913
 11
18.457485348360137
 21
136.20168354434165
  0
LINE
  8
_0-1_作画層１
  6
CONTINUOUS
 62
    7
 10
18.457485348360137
 20
136.20168354434165
 11
18.479735085951319
 21
136.18737216246723
  0
LINE
  8
_0-1_作画層１
  6
CONTINUOUS
 62
    7
 10
18.479735085951319
 20
136.18737216246723
 11
18.500704284294983
 21
136.17434008318051
  0
LINE
  8
_0-1_作画層１
  6
CONTINUOUS
 62
    7
 10
18.500704284294983
 20
136.17434008318051
 11
18.520246425115687
 21
136.16271220144611
  0
LINE
  8
_0-1_作画層１
  6
CONTINUOUS
 62
    7
 10
18.520246425115687
 20
136.16271220144611
 11
18.538214990138073
 21
136.15261341222879
  0
LINE
  8
_0-1_作画層１
  6
CONTINUOUS
 62
    7
 10
18.538214990138073
 20
136.15261341222879
 11
18.585777938876106
 21
136.12787603705371
  0
LINE
  8
_0-1_作画層１
  6
CONTINUOUS
 62
    7
 10
18.585777938876106
 20
136.12787603705371
 11
18.611838965011714
 21
136.11503618825546
  0
LINE
  8
_0-1_作画層１
  6
CONTINUOUS
 62
    7
 10
18.611838965011714
 20
136.11503618825546
 11
18.639275540159815
 21
136.10193398628292
  0
LINE
  8
_0-1_作画層１
  6
CONTINUOUS
 62
    7
 10
18.639275540159815
 20
136.10193398628292
 11
18.667979550196435
 21
136.08860824686076
  0
LINE
  8
_0-1_作画層１
  6
CONTINUOUS
 62
    7
 10
18.667979550196435
 20
136.08860824686076
 11
18.697842880997769
 21
136.07509778571372
  0
LINE
  8
_0-1_作画層１
  6
CONTINUOUS
 62
    7
 10
18.697842880997769
 20
136.07509778571372
 11
18.728757418439727
 21
136.06144141856623
  0
LINE
  8
_0-1_作画層１
  6
CONTINUOUS
 62
    7
 10
18.728757418439727
 20
136.06144141856623
 11
18.760615048398535
 21
136.04767796114328
  0
LINE
  8
_0-1_作画層１
  6
CONTINUOUS
 62
    7
 10
18.760615048398535
 20
136.04767796114328
 11
18.793307656750187
 21
136.03384622916926
  0
LINE
  8
_0-1_作画層１
  6
CONTINUOUS
 62
    7
 10
18.793307656750187
 20
136.03384622916926
 11
18.826727129370795
 21
136.01998503836904
  0
LINE
  8
_0-1_作画層１
  6
CONTINUOUS
 62
    7
 10
18.826727129370795
 20
136.01998503836904
 11
18.860765352136411
 21
136.00613320446703
  0
LINE
  8
_0-1_作画層１
  6
CONTINUOUS
 62
    7
 10
18.860765352136411
 20
136.00613320446703
 11
18.895314210923118
 21
135.99232954318811
  0
LINE
  8
_0-1_作画層１
  6
CONTINUOUS
 62
    7
 10
18.895314210923118
 20
135.99232954318811
 11
18.930265591606997
 21
135.97861287025682
  0
LINE
  8
_0-1_作画層１
  6
CONTINUOUS
 62
    7
 10
18.930265591606997
 20
135.97861287025682
 11
18.965511380064129
 21
135.9650220013979
  0
LINE
  8
_0-1_作画層１
  6
CONTINUOUS
 62
    7
 10
18.965511380064129
 20
135.9650220013979
 11
19.00094346217054
 21
135.95159575233595
  0
LINE
  8
_0-1_作画層１
  6
CONTINUOUS
 62
    7
 10
19.00094346217054
 20
135.95159575233595
 11
19.036453723802367
 21
135.93837293879562
  0
LINE
  8
_0-1_作画層１
  6
CONTINUOUS
 62
    7
 10
19.036453723802367
 20
135.93837293879562
 11
19.071934050835665
 21
135.92539237650158
  0
LINE
  8
_0-1_作画層１
  6
CONTINUOUS
 62
    7
 10
19.071934050835665
 20
135.92539237650158
 11
19.107276329146487
 21
135.91269288117854
  0
LINE
  8
_0-1_作画層１
  6
CONTINUOUS
 62
    7
 10
19.107276329146487
 20
135.91269288117854
 11
19.142372444610942
 21
135.90031326855109
  0
LINE
  8
_0-1_作画層１
  6
CONTINUOUS
 62
    7
 10
19.142372444610942
 20
135.90031326855109
 11
19.177114283105084
 21
135.88829235434395
  0
LINE
  8
_0-1_作画層１
  6
CONTINUOUS
 62
    7
 10
19.177114283105084
 20
135.88829235434395
 11
19.211393730504994
 21
135.87666895428168
  0
LINE
  8
_0-1_作画層１
  6
CONTINUOUS
 62
    7
 10
19.211393730504994
 20
135.87666895428168
 11
19.245102672686755
 21
135.86548188408904
  0
LINE
  8
_0-1_作画層１
  6
CONTINUOUS
 62
    7
 10
19.245102672686755
 20
135.86548188408904
 11
19.278132995526448
 21
135.85476995949071
  0
LINE
  8
_0-1_作画層１
  6
CONTINUOUS
 62
    7
 10
19.278132995526448
 20
135.85476995949071
 11
19.310376584900098
 21
135.84457199621124
  0
LINE
  8
_0-1_作画層１
  6
CONTINUOUS
 62
    7
 10
19.310376584900098
 20
135.84457199621124
 11
19.341725326683843
 21
135.83492680997537
  0
LINE
  8
_0-1_作画層１
  6
CONTINUOUS
 62
    7
 10
19.341725326683843
 20
135.83492680997537
 11
19.372071106753708
 21
135.82587321650772
  0
LINE
  8
_0-1_作画層１
  6
CONTINUOUS
 62
    7
 10
19.372071106753708
 20
135.82587321650772
 11
19.401305810985804
 21
135.81745003153296
  0
LINE
  8
_0-1_作画層１
  6
CONTINUOUS
 62
    7
 10
19.401305810985804
 20
135.81745003153296
 11
19.429321325256211
 21
135.80969607077574
  0
LINE
  8
_0-1_作画層１
  6
CONTINUOUS
 62
    7
 10
19.429321325256211
 20
135.80969607077574
 11
19.456009535440955
 21
135.80265014996073
  0
LINE
  8
_0-1_作画層１
  6
CONTINUOUS
 62
    7
 10
19.456009535440955
 20
135.80265014996073
 11
19.481262327416175
 21
135.79635108481261
  0
LINE
  8
_0-1_作画層１
  6
CONTINUOUS
 62
    7
 10
19.481262327416175
 20
135.79635108481261
 11
19.549150296436494
 21
135.78055453795204
  0
LINE
  8
_0-1_作画層１
  6
CONTINUOUS
 62
    7
 10
19.549150296436494
 20
135.78055453795204
 11
19.586120381426127
 21
135.77237915794075
  0
LINE
  8
_0-1_作画層１
  6
CONTINUOUS
 62
    7
 10
19.586120381426127
 20
135.77237915794075
 11
19.62490810729804
 21
135.76407824366316
  0
LINE
  8
_0-1_作画層１
  6
CONTINUOUS
 62
    7
 10
19.62490810729804
 20
135.76407824366316
 11
19.665363654474248
 21
135.75569619771005
  0
LINE
  8
_0-1_作画層１
  6
CONTINUOUS
 62
    7
 10
19.665363654474248
 20
135.75569619771005
 11
19.707337203376738
 21
135.7472774226722
  0
LINE
  8
_0-1_作画層１
  6
CONTINUOUS
 62
    7
 10
19.707337203376738
 20
135.7472774226722
 11
19.750678934427498
 21
135.73886632114031
  0
LINE
  8
_0-1_作画層１
  6
CONTINUOUS
 62
    7
 10
19.750678934427498
 20
135.73886632114031
 11
19.79523902804857
 21
135.73050729570531
  0
LINE
  8
_0-1_作画層１
  6
CONTINUOUS
 62
    7
 10
19.79523902804857
 20
135.73050729570531
 11
19.840867664661857
 21
135.72224474895776
  0
LINE
  8
_0-1_作画層１
  6
CONTINUOUS
 62
    7
 10
19.840867664661857
 20
135.72224474895776
 11
19.887415024689489
 21
135.71412308348869
  0
LINE
  8
_0-1_作画層１
  6
CONTINUOUS
 62
    7
 10
19.887415024689489
 20
135.71412308348869
 11
19.934731288553337
 21
135.70618670188858
  0
LINE
  8
_0-1_作画層１
  6
CONTINUOUS
 62
    7
 10
19.934731288553337
 20
135.70618670188858
 11
19.982666636675447
 21
135.69848000674844
  0
LINE
  8
_0-1_作画層１
  6
CONTINUOUS
 62
    7
 10
19.982666636675447
 20
135.69848000674844
 11
20.031071249477804
 21
135.69104740065896
  0
LINE
  8
_0-1_作画層１
  6
CONTINUOUS
 62
    7
 10
20.031071249477804
 20
135.69104740065896
 11
20.079795307382426
 21
135.6839332862109
  0
LINE
  8
_0-1_作画層１
  6
CONTINUOUS
 62
    7
 10
20.079795307382426
 20
135.6839332862109
 11
20.128688990811298
 21
135.67718206599505
  0
LINE
  8
_0-1_作画層１
  6
CONTINUOUS
 62
    7
 10
20.128688990811298
 20
135.67718206599505
 11
20.177602480186408
 21
135.67083814260218
  0
LINE
  8
_0-1_作画層１
  6
CONTINUOUS
 62
    7
 10
20.177602480186408
 20
135.67083814260218
 11
20.226385955929743
 21
135.66494591862303
  0
LINE
  8
_0-1_作画層１
  6
CONTINUOUS
 62
    7
 10
20.226385955929743
 20
135.66494591862303
 11
20.274889598463318
 21
135.65954979664843
  0
LINE
  8
_0-1_作画層１
  6
CONTINUOUS
 62
    7
 10
20.274889598463318
 20
135.65954979664843
 11
20.32296358820912
 21
135.65469417926914
  0
LINE
  8
_0-1_作画層１
  6
CONTINUOUS
 62
    7
 10
20.32296358820912
 20
135.65469417926914
 11
20.370458105589137
 21
135.65042346907589
  0
LINE
  8
_0-1_作画層１
  6
CONTINUOUS
 62
    7
 10
20.370458105589137
 20
135.65042346907589
 11
20.417223331025355
 21
135.64678206865946
  0
LINE
  8
_0-1_作画層１
  6
CONTINUOUS
 62
    7
 10
20.417223331025355
 20
135.64678206865946
 11
20.463109444939789
 21
135.64381438061065
  0
LINE
  8
_0-1_作画層１
  6
CONTINUOUS
 62
    7
 10
20.463109444939789
 20
135.64381438061065
 11
20.50796662775447
 21
135.6415648075203
  0
LINE
  8
_0-1_作画層１
  6
CONTINUOUS
 62
    7
 10
20.50796662775447
 20
135.6415648075203
 11
20.551645059891314
 21
135.64007775197905
  0
LINE
  8
_0-1_作画層１
  6
CONTINUOUS
 62
    7
 10
20.551645059891314
 20
135.64007775197905
 11
20.593994921772378
 21
135.6393976165777
  0
LINE
  8
_0-1_作画層１
  6
CONTINUOUS
 62
    7
 10
20.593994921772378
 20
135.6393976165777
 11
20.634866393819621
 21
135.63956880390711
  0
LINE
  8
_0-1_作画層１
  6
CONTINUOUS
 62
    7
 10
20.634866393819621
 20
135.63956880390711
 11
20.674109656455059
 21
135.64063571655797
  0
LINE
  8
_0-1_作画層１
  6
CONTINUOUS
 62
    7
 10
20.674109656455059
 20
135.64063571655797
 11
20.711574890100678
 21
135.64264275712108
  0
LINE
  8
_0-1_作画層１
  6
CONTINUOUS
 62
    7
 10
20.711574890100678
 20
135.64264275712108
 11
20.747112275178466
 21
135.64563432818721
  0
LINE
  8
_0-1_作画層１
  6
CONTINUOUS
 62
    7
 10
20.747112275178466
 20
135.64563432818721
 11
20.780571992110453
 21
135.64965483234715
  0
LINE
  8
_0-1_作画層１
  6
CONTINUOUS
 62
    7
 10
20.780571992110453
 20
135.64965483234715
 11
20.835160745666315
 21
135.65922072976127
  0
LINE
  8
_0-1_作画層１
  6
CONTINUOUS
 62
    7
 10
20.835160745666315
 20
135.65922072976127
 11
20.864495780064118
 21
135.66565220462689
  0
LINE
  8
_0-1_作画層１
  6
CONTINUOUS
 62
    7
 10
20.864495780064118
 20
135.66565220462689
 11
20.895040913724529
 21
135.6731097162461
  0
LINE
  8
_0-1_作画層１
  6
CONTINUOUS
 62
    7
 10
20.895040913724529
 20
135.6731097162461
 11
20.926683392284545
 21
135.68153852910487
  0
LINE
  8
_0-1_作画層１
  6
CONTINUOUS
 62
    7
 10
20.926683392284545
 20
135.68153852910487
 11
20.959310461381151
 21
135.69088390768911
  0
LINE
  8
_0-1_作画層１
  6
CONTINUOUS
 62
    7
 10
20.959310461381151
 20
135.69088390768911
 11
20.992809366651343
 21
135.70109111648466
  0
LINE
  8
_0-1_作画層１
  6
CONTINUOUS
 62
    7
 10
20.992809366651343
 20
135.70109111648466
 11
21.027067353732164
 21
135.7121054199776
  0
LINE
  8
_0-1_作画層１
  6
CONTINUOUS
 62
    7
 10
21.027067353732164
 20
135.7121054199776
 11
21.061971668260568
 21
135.72387208265366
  0
LINE
  8
_0-1_作画層１
  6
CONTINUOUS
 62
    7
 10
21.061971668260568
 20
135.72387208265366
 11
21.097409555873625
 21
135.73633636899908
  0
LINE
  8
_0-1_作画層１
  6
CONTINUOUS
 62
    7
 10
21.097409555873625
 20
135.73633636899908
 11
21.133268262208219
 21
135.74944354349938
  0
LINE
  8
_0-1_作画層１
  6
CONTINUOUS
 62
    7
 10
21.133268262208219
 20
135.74944354349938
 11
21.169435032901475
 21
135.76313887064083
  0
LINE
  8
_0-1_作画層１
  6
CONTINUOUS
 62
    7
 10
21.169435032901475
 20
135.76313887064083
 11
21.205797113590322
 21
135.77736761490914
  0
LINE
  8
_0-1_作画層１
  6
CONTINUOUS
 62
    7
 10
21.205797113590322
 20
135.77736761490914
 11
21.242241749911784
 21
135.79207504079037
  0
LINE
  8
_0-1_作画層１
  6
CONTINUOUS
 62
    7
 10
21.242241749911784
 20
135.79207504079037
 11
21.278656187502861
 21
135.80720641277034
  0
LINE
  8
_0-1_作画層１
  6
CONTINUOUS
 62
    7
 10
21.278656187502861
 20
135.80720641277034
 11
21.31492767200055
 21
135.82270699533507
  0
LINE
  8
_0-1_作画層１
  6
CONTINUOUS
 62
    7
 10
21.31492767200055
 20
135.82270699533507
 11
21.35094344904185
 21
135.83852205297038
  0
LINE
  8
_0-1_作画層１
  6
CONTINUOUS
 62
    7
 10
21.35094344904185
 20
135.83852205297038
 11
21.386590764263772
 21
135.85459685016227
  0
LINE
  8
_0-1_作画層１
  6
CONTINUOUS
 62
    7
 10
21.386590764263772
 20
135.85459685016227
 11
21.42175686330333
 21
135.87087665139666
  0
LINE
  8
_0-1_作画層１
  6
CONTINUOUS
 62
    7
 10
21.42175686330333
 20
135.87087665139666
 11
21.456328991797506
 21
135.88730672115946
  0
LINE
  8
_0-1_作画層１
  6
CONTINUOUS
 62
    7
 10
21.456328991797506
 20
135.88730672115946
 11
21.49019439538327
 21
135.90383232393654
  0
LINE
  8
_0-1_作画層１
  6
CONTINUOUS
 62
    7
 10
21.49019439538327
 20
135.90383232393654
 11
21.523240319697678
 21
135.9203987242139
  0
LINE
  8
_0-1_作画層１
  6
CONTINUOUS
 62
    7
 10
21.523240319697678
 20
135.9203987242139
 11
21.555354010377727
 21
135.93695118647753
  0
LINE
  8
_0-1_作画層１
  6
CONTINUOUS
 62
    7
 10
21.555354010377727
 20
135.93695118647753
 11
21.586422713060387
 21
135.95343497521321
  0
LINE
  8
_0-1_作画層１
  6
CONTINUOUS
 62
    7
 10
21.586422713060387
 20
135.95343497521321
 11
21.616333673382684
 21
135.96979535490692
  0
LINE
  8
_0-1_作画層１
  6
CONTINUOUS
 62
    7
 10
21.616333673382684
 20
135.96979535490692
 11
21.644974136981602
 21
135.9859775900446
  0
LINE
  8
_0-1_作画層１
  6
CONTINUOUS
 62
    7
 10
21.644974136981602
 20
135.9859775900446
 11
21.672231349494155
 21
136.00192694511219
  0
LINE
  8
_0-1_作画層１
  6
CONTINUOUS
 62
    7
 10
21.672231349494155
 20
136.00192694511219
 11
21.697992556557352
 21
136.01758868459558
  0
LINE
  8
_0-1_作画層１
  6
CONTINUOUS
 62
    7
 10
21.697992556557352
 20
136.01758868459558
 11
21.722145003808166
 21
136.03290807298069
  0
LINE
  8
_0-1_作画層１
  6
CONTINUOUS
 62
    7
 10
21.722145003808166
 20
136.03290807298069
 11
21.744575936883621
 21
136.04783037475346
  0
LINE
  8
_0-1_作画層１
  6
CONTINUOUS
 62
    7
 10
21.744575936883621
 20
136.04783037475346
 11
21.773669105651834
 21
136.0688321073666
  0
LINE
  8
_0-1_作画層１
  6
CONTINUOUS
 62
    7
 10
21.773669105651834
 20
136.0688321073666
 11
21.788454383230118
 21
136.08031661100125
  0
LINE
  8
_0-1_作画層１
  6
CONTINUOUS
 62
    7
 10
21.788454383230118
 20
136.08031661100125
 11
21.803391301190587
 21
136.09242601364429
  0
LINE
  8
_0-1_作画層１
  6
CONTINUOUS
 62
    7
 10
21.803391301190587
 20
136.09242601364429
 11
21.818474243222752
 21
136.10513717088816
  0
LINE
  8
_0-1_作画層１
  6
CONTINUOUS
 62
    7
 10
21.818474243222752
 20
136.10513717088816
 11
21.83369759301624
 21
136.11842693832494
  0
LINE
  8
_0-1_作画層１
  6
CONTINUOUS
 62
    7
 10
21.83369759301624
 20
136.11842693832494
 11
21.849055734260503
 21
136.13227217154693
  0
LINE
  8
_0-1_作画層１
  6
CONTINUOUS
 62
    7
 10
21.849055734260503
 20
136.13227217154693
 11
21.864543050645224
 21
136.14664972614662
  0
LINE
  8
_0-1_作画層１
  6
CONTINUOUS
 62
    7
 10
21.864543050645224
 20
136.14664972614662
 11
21.880153925859787
 21
136.16153645771601
  0
LINE
  8
_0-1_作画層１
  6
CONTINUOUS
 62
    7
 10
21.880153925859787
 20
136.16153645771601
 11
21.895882743593887
 21
136.17690922184769
  0
LINE
  8
_0-1_作画層１
  6
CONTINUOUS
 62
    7
 10
21.895882743593887
 20
136.17690922184769
 11
21.911723887536965
 21
136.19274487413358
  0
LINE
  8
_0-1_作画層１
  6
CONTINUOUS
 62
    7
 10
21.911723887536965
 20
136.19274487413358
 11
21.927671741378646
 21
136.20902027016626
  0
LINE
  8
_0-1_作画層１
  6
CONTINUOUS
 62
    7
 10
21.927671741378646
 20
136.20902027016626
 11
21.943720688808426
 21
136.22571226553788
  0
LINE
  8
_0-1_作画層１
  6
CONTINUOUS
 62
    7
 10
21.943720688808426
 20
136.22571226553788
 11
21.959865113515889
 21
136.24279771584074
  0
LINE
  8
_0-1_作画層１
  6
CONTINUOUS
 62
    7
 10
21.959865113515889
 20
136.24279771584074
 11
21.976099399190559
 21
136.26025347666712
  0
LINE
  8
_0-1_作画層１
  6
CONTINUOUS
 62
    7
 10
21.976099399190559
 20
136.26025347666712
 11
21.99241792952202
 21
136.27805640360924
  0
LINE
  8
_0-1_作画層１
  6
CONTINUOUS
 62
    7
 10
21.99241792952202
 20
136.27805640360924
 11
22.008815088199782
 21
136.29618335225948
  0
LINE
  8
_0-1_作画層１
  6
CONTINUOUS
 62
    7
 10
22.008815088199782
 20
136.29618335225948
 11
22.025285258913414
 21
136.3146111782101
  0
LINE
  8
_0-1_作画層１
  6
CONTINUOUS
 62
    7
 10
22.025285258913414
 20
136.3146111782101
 11
22.041822825352455
 21
136.33331673705331
  0
LINE
  8
_0-1_作画層１
  6
CONTINUOUS
 62
    7
 10
22.041822825352455
 20
136.33331673705331
 11
22.058422171206473
 21
136.3522768843815
  0
LINE
  8
_0-1_作画層１
  6
CONTINUOUS
 62
    7
 10
22.058422171206473
 20
136.3522768843815
 11
22.075077680164966
 21
136.3714684757868
  0
LINE
  8
_0-1_作画層１
  6
CONTINUOUS
 62
    7
 10
22.075077680164966
 20
136.3714684757868
 11
22.091783735917545
 21
136.39086836686164
  0
LINE
  8
_0-1_作画層１
  6
CONTINUOUS
 62
    7
 10
22.091783735917545
 20
136.39086836686164
 11
22.108534722153749
 21
136.41045341319824
  0
LINE
  8
_0-1_作画層１
  6
CONTINUOUS
 62
    7
 10
22.108534722153749
 20
136.41045341319824
 11
22.125325022563089
 21
136.43020047038885
  0
LINE
  8
_0-1_作画層１
  6
CONTINUOUS
 62
    7
 10
22.125325022563089
 20
136.43020047038885
 11
22.142149020835149
 21
136.45008639402585
  0
LINE
  8
_0-1_作画層１
  6
CONTINUOUS
 62
    7
 10
22.142149020835149
 20
136.45008639402585
 11
22.159001100659452
 21
136.47008803970135
  0
LINE
  8
_0-1_作画層１
  6
CONTINUOUS
 62
    7
 10
22.159001100659452
 20
136.47008803970135
 11
22.175875645725569
 21
136.4901822630078
  0
LINE
  8
_0-1_作画層１
  6
CONTINUOUS
 62
    7
 10
22.175875645725569
 20
136.4901822630078
 11
22.192767039723037
 21
136.51034591953737
  0
LINE
  8
_0-1_作画層１
  6
CONTINUOUS
 62
    7
 10
22.192767039723037
 20
136.51034591953737
 11
22.209669666341384
 21
136.53055586488239
  0
LINE
  8
_0-1_作画層１
  6
CONTINUOUS
 62
    7
 10
22.209669666341384
 20
136.53055586488239
 11
22.226577909270219
 21
136.55078895463512
  0
TEXT
  8
_0-7_注記層１
 62
    7
 10
14.125
 20
136.25
 40
2.5
 41
1
 50
0
  1
SUNAO
  0
TEXT
  8
_0-7_注記層１
 62
    7
 10
41.5
 20
91.25
 40
2.6000000000000001
 41
1
 50
0
  1
SPARE
  0
LINE
  8
_0-d_0_1
  6
CONTINUOUS
 62
    7
 10
52.749999999999957
 20
90.39442719099992
 11
52.749999999999957
 21
95.25
  0
LINE
  8
_0-1_作画層１
  6
CONTINUOUS
 62
    7
 10
62.25
 20
223.75
 11
62.249999999999986
 21
91.39442719099992
  0
ARC
  8
_0-1_作画層１
  6
CONTINUOUS
 62
    7
 10
61.25
 20
91.394427190999892
 40
0.9999999999999853
 50
269.9999999999992
 51
0.0000000000016284
  0
LINE
  8
_0-d_0_1
  6
CONTINUOUS
 62
    7
 10
62.25
 20
99.25
 11
56.749999999999957
 21
99.25
  0
LINE
  8
_0-d_0_1
  6
CONTINUOUS
 62
    7
 10
-26.750000000000028
 20
99.25
 11
-21.25
 21
99.25
  0
ARC
  8
_0-1_作画層１
  6
CONTINUOUS
 62
    7
 10
62.323724405534691
 20
134.17556693087346
 40
1.4364240876579815
 50
277.04901240747893
 51
9.8121425540782319
  0
LINE
  8
_0-1_作画層１
  6
CONTINUOUS
 62
    7
 10
-26.999999997298403
 20
132.75
 11
62.500695479725508
 21
132.75
  0
ARC
  8
_0-1_作画層１
  6
CONTINUOUS
 62
    7
 10
-26.282917661082337
 20
135.48118990795319
 40
2.8237573185550202
 50
224.63781507073776
 51
255.28885060579768
  0
LINE
  8
_0-1_作画層１
  6
CONTINUOUS
 62
    7
 10
-26.750000000000028
 20
134
 11
62.25
 21
134
  0
LINE
  8
_0-1_作画層１
  6
CONTINUOUS
 62
    7
 10
46.934244155883789
 20
135.75090789794922
 11
47.154193878173828
 21
134.46963882446289
  0
LINE
  8
_0-1_作画層１
  6
CONTINUOUS
 62
    7
 10
51.847309112548828
 20
139.21155166625977
 11
52.979644775390625
 21
138.57298278808594
  0
LINE
  8
_0-1_作画層１
  6
CONTINUOUS
 62
    7
 10
52.359413146972656
 20
140.34437942504883
 11
53.581096649169922
 21
139.89970397949219
  0
LINE
  8
_0-1_作画層１
  6
CONTINUOUS
 62
    7
 10
38.837356567382813
 20
141.64762115478516
 11
37.53339958190918
 21
141.47641754150391
  0
LINE
  8
_0-1_作画層１
  6
CONTINUOUS
 62
    7
 10
39.366704940795898
 20
139.87711334228516
 11
38.137250900268555
 21
139.34304046630859
  0
LINE
  8
_0-1_作画層１
  6
CONTINUOUS
 62
    7
 10
39.971212387084961
 20
138.79963684082031
 11
38.832643508911133
 21
138.06306076049805
  0
LINE
  8
_0-1_作画層１
  6
CONTINUOUS
 62
    7
 10
41.198118209838867
 20
137.43208694458008
 11
40.293800354003906
 21
136.39541244506836
  0
LINE
  8
_0-1_作画層１
  6
CONTINUOUS
 62
    7
 10
42.199235916137695
 20
136.7174072265625
 11
41.471303939819336
 21
135.53783798217773
  0
LINE
  8
_0-1_作画層１
  6
CONTINUOUS
 62
    7
 10
43.884189605712891
 20
136.00324630737305
 11
43.506818771362305
 21
134.65888214111328
  0
LINE
  8
_0-1_作画層１
  6
CONTINUOUS
 62
    7
 10
45.080202102661133
 20
135.6821174621582
 11
44.938444137573242
 21
134.38976669311523
  0
LINE
  8
_0-1_作画層１
  6
CONTINUOUS
 62
    7
 10
48.105129241943359
 20
136.1580924987793
 11
48.562719345092773
 21
134.84112167358398
  0
LINE
  8
_0-1_作画層１
  6
CONTINUOUS
 62
    7
 10
49.733827590942383
 20
136.99419403076172
 11
50.529666900634766
 21
135.86435699462891
  0
LINE
  8
_0-1_作画層１
  6
CONTINUOUS
 62
    7
 10
50.729824066162109
 20
137.73049926757813
 11
51.642379760742188
 21
136.80448150634766
  0
LINE
  8
_0-1_作画層１
  6
CONTINUOUS
 62
    7
 10
52.725299835205078
 20
142.16224670410156
 11
54.029777526855469
 21
142.07104110717773
  0
LINE
  8
_0-1_作画層１
  6
CONTINUOUS
 62
    7
 10
52.511489868164063
 20
144.46175384521484
 11
53.767169952392578
 21
144.79819869995117
  0
LINE
  8
_0-1_作画層１
  6
CONTINUOUS
 62
    7
 10
50.917579650878906
 20
149.64999771118164
 11
50.917579650878906
 21
149.13683128356934
  0
LINE
  8
_0-1_作画層１
  6
CONTINUOUS
 62
    7
 10
45.250007629394531
 20
148.75000953674316
 11
46.249998092651367
 21
148.75000953674316
  0
LINE
  8
_0-1_作画層１
  6
CONTINUOUS
 62
    7
 10
45.250007629394531
 20
136.74999618530273
 11
46.249998092651367
 21
136.74999618530273
  0
LINE
  8
_0-1_作画層１
  6
CONTINUOUS
 62
    7
 10
44.927284240722656
 20
137.7181510925293
 11
45.250007629394531
 21
136.74999618530273
  0
LINE
  8
_0-1_作画層１
  6
CONTINUOUS
 62
    7
 10
46.572734832763672
 20
137.7181510925293
 11
46.249998092651367
 21
136.74999618530273
  0
LINE
  8
_0-1_作画層１
  6
CONTINUOUS
 62
    7
 10
45.250007629394531
 20
148.75000953674316
 11
44.856515884399414
 21
147.56952285766602
  0
LINE
  8
_0-1_作画層１
  6
CONTINUOUS
 62
    7
 10
46.249998092651367
 20
148.75000953674316
 11
46.643501281738281
 21
147.56952285766602
  0
LINE
  8
_0-1_作画層１
  6
CONTINUOUS
 62
    7
 10
45.749996185302734
 20
149.64999771118164
 11
50.917579650878906
 21
149.64999771118164
  0
ARC
  8
_0-1_作画層１
  6
CONTINUOUS
 62
    7
 10
45.74999618530137
 20
142.6499977111805
 40
8.3000001907330994
 50
213.54869079589707
 51
228.9000396728535
  0
ARC
  8
_0-1_作画層１
  6
CONTINUOUS
 62
    7
 10
45.74999618530309
 20
142.64999771118181
 40
8.300000190735247
 50
188.12867736816489
 51
203.4800109863281
  0
ARC
  8
_0-1_作画層１
  6
CONTINUOUS
 62
    7
 10
45.749996185302251
 20
142.64999771118039
 40
8.3000001907335292
 50
238.9686737060531
 51
254.32000732421966
  0
ARC
  8
_0-1_作画層１
  6
CONTINUOUS
 62
    7
 10
45.749996185302663
 20
142.64999771118397
 40
8.3000001907371779
 50
264.3886718750021
 51
279.74002075195091
  0
ARC
  8
_0-1_作画層１
  6
CONTINUOUS
 62
    7
 10
45.749996185302052
 20
142.64999771118298
 40
8.3000001907363608
 50
289.80870056152469
 51
305.16006469726409
  0
ARC
  8
_0-1_作画層１
  6
CONTINUOUS
 62
    7
 10
45.749996185301683
 20
142.64999771118238
 40
8.300000190736144
 50
315.22863769531398
 51
330.58000183105378
  0
ARC
  8
_0-1_作画層１
  6
CONTINUOUS
 62
    7
 10
45.749996185302265
 20
142.64999771118173
 40
8.3000001907353411
 50
340.64866638183639
 51
356.00001525878855
  0
ARC
  8
_0-1_作画層１
  6
CONTINUOUS
 62
    7
 10
45.749996185301313
 20
142.75001525878861
 40
6.9999999999985185
 50
189.06088256835758
 51
204.23072814941546
  0
ARC
  8
_0-1_作画層１
  6
CONTINUOUS
 62
    7
 10
45.749996185302081
 20
142.75001525878847
 40
6.9999999999991216
 50
214.35649108886614
 51
229.43809509277435
  0
ARC
  8
_0-1_作画層１
  6
CONTINUOUS
 62
    7
 10
45.749996185302294
 20
142.75001525878804
 40
6.9999999999988898
 50
239.51904296874881
 51
254.5412292480481
  0
ARC
  8
_0-1_作画層１
  6
CONTINUOUS
 62
    7
 10
45.749996185302791
 20
142.75001525878918
 40
7.0000000000001092
 50
264.1711273193356
 51
279.05090332031187
  0
ARC
  8
_0-1_作画層１
  6
CONTINUOUS
 62
    7
 10
45.749996185303488
 20
142.75001525878776
 40
6.9999999999984999
 50
289.66058349609159
 51
304.6886444091806
  0
ARC
  8
_0-1_作画層１
  6
CONTINUOUS
 62
    7
 10
45.749996185303104
 20
142.75001525878878
 40
6.9999999999995426
 50
315.73609924316366
 51
330.49922180175849
  0
ARC
  8
_0-1_作画層１
  6
CONTINUOUS
 62
    7
 10
45.749996185303573
 20
142.75001525878884
 40
6.9999999999991349
 50
340.99609374999949
 51
355.18345642089974
  0
ARC
  8
_0-1_作画層１
  6
CONTINUOUS
 62
    7
 10
45.749996185302933
 20
142.64999771118175
 40
8.3000001907346324
 50
15.000015258788606
 51
51.458251953125611
  0
CIRCLE
  8
_0-1_作画層１
  6
CONTINUOUS
 62
    7
 10
45.749996185302734
 20
142.64999771118164
 40
3
  0
ARC
  8
_0-1_作画層１
  6
CONTINUOUS
 62
    7
 10
45.749996185302749
 20
142.64999771118164
 40
5.0000000000000107
 50
100.29397583007837
 51
260.52928161621077
  0
ARC
  8
_0-1_作画層１
  6
CONTINUOUS
 62
    7
 10
45.749996185302734
 20
142.64999771118164
 40
5.0000000000000018
 50
279.47068786621094
 51
79.706024169921676
  0
ARC
  8
_0-1_作画層１
  6
CONTINUOUS
 62
    7
 10
45.749996185302777
 20
142.64999771118173
 40
6.9999999999999263
 50
15.000030517577541
 51
90.000000000000369
  0
LINE
  8
_0-1_作画層１
  6
CONTINUOUS
 62
    7
 10
-17.851222991943359
 20
214.35123062133789
 11
-18.699745178222656
 21
215.19974899291992
  0
LINE
  8
_0-1_作画層１
  6
CONTINUOUS
 62
    7
 10
-15.251152038574219
 20
215.85237503051758
 11
-15.561737060546875
 21
217.01147842407227
  0
LINE
  8
_0-1_作画層１
  6
CONTINUOUS
 62
    7
 10
-13.750007629394531
 20
217.2499885559082
 11
-13.750007629394531
 21
216.05000305175781
  0
LINE
  8
_0-1_作画層１
  6
CONTINUOUS
 62
    7
 10
-10.850013732910156
 20
215.27294158935547
 11
-10.250009536743164
 21
216.31216430664062
  0
LINE
  8
_0-1_作画層１
  6
CONTINUOUS
 62
    7
 10
-20.750007629394531
 20
210.2499885559082
 11
-19.550010681152344
 21
210.2499885559082
  0
LINE
  8
_0-1_作画層１
  6
CONTINUOUS
 62
    7
 10
-15.251152038574219
 20
204.64763069152832
 11
-19.075729370117187
 21
204.64763069152832
  0
LINE
  8
_0-1_作画層１
  6
CONTINUOUS
 62
    7
 10
-19.075729370117187
 20
204.64763069152832
 11
-18.559497833251953
 21
205.16386413574219
  0
LINE
  8
_0-1_作画層１
  6
CONTINUOUS
 62
    7
 10
-18.538650512695313
 20
211.68835830688477
 11
-17.374458312988281
 21
211.94215774536133
  0
LINE
  8
_0-1_作画層１
  6
CONTINUOUS
 62
    7
 10
-18.61627197265625
 20
211.39862823486328
 11
-17.734939575195313
 21
210.59675216674805
  0
LINE
  8
_0-1_作画層１
  6
CONTINUOUS
 62
    7
 10
-14.898647308349609
 20
205.38371467590332
 11
-14.096771240234375
 21
206.26504516601562
  0
LINE
  8
_0-1_作画層１
  6
CONTINUOUS
 62
    7
 10
-15.442176818847656
 20
206.62556457519531
 11
-15.188388824462891
 21
205.46136093139648
  0
LINE
  8
_0-1_作画層１
  6
CONTINUOUS
 62
    7
 10
-12.601367950439453
 20
215.11626434326172
 11
-13.403234481811523
 21
214.23493194580078
  0
LINE
  8
_0-1_作画層１
  6
CONTINUOUS
 62
    7
 10
-12.311628341674805
 20
215.03864288330078
 11
-12.057842254638672
 21
213.87443923950195
  0
LINE
  8
_0-1_作画層１
  6
CONTINUOUS
 62
    7
 10
-8.9613666534423828
 20
208.81159591674805
 11
-10.125558853149414
 21
208.55782318115234
  0
LINE
  8
_0-1_作画層１
  6
CONTINUOUS
 62
    7
 10
-9.7650642395019531
 20
209.90322685241699
 11
-8.8837337493896484
 21
209.10134887695312
  0
ARC
  8
_0-1_作画層１
  6
CONTINUOUS
 62
    7
 10
-13.750007629394759
 20
210.24998855590718
 40
5.79999971389873
 50
60.000015258792068
 51
89.999999999997542
  0
ARC
  8
_0-1_作画層１
  6
CONTINUOUS
 62
    7
 10
-13.750007629394133
 20
210.24998855590758
 40
5.7999997138984289
 50
104.99995422363479
 51
134.99993896484187
  0
ARC
  8
_0-1_作画層１
  6
CONTINUOUS
 62
    7
 10
-13.750007629394645
 20
210.24998855590835
 40
6.9999999999998215
 50
104.99996948242118
 51
134.99995422363284
  0
ARC
  8
_0-1_作画層１
  6
CONTINUOUS
 62
    7
 10
-13.750007629394389
 20
210.24998855590866
 40
6.9999999999995417
 50
60.000030517577208
 51
90.000000000001037
  0
ARC
  8
_0-1_作画層１
  6
CONTINUOUS
 62
    7
 10
-13.750007629394389
 20
210.24998855590866
 40
6.9999999999995417
 50
60.000030517577208
 51
90.000000000001037
  0
ARC
  8
_0-1_作画層１
  6
CONTINUOUS
 62
    7
 10
-13.750007629394531
 20
210.24998855590823
 40
5.7999997138977051
 50
180.00000000000028
 51
255.00004577636727
  0
ARC
  8
_0-1_作画層１
  6
CONTINUOUS
 62
    7
 10
-13.750007629394531
 20
210.2499885559082
 40
6.9999999999999716
 50
180
 51
226.60130310058605
  0
ARC
  8
_0-1_作画層１
  6
CONTINUOUS
 62
    7
 10
-13.750007629399533
 20
210.2499885559096
 40
4.9999999999947882
 50
163.28129577636597
 51
166.71910095215082
  0
ARC
  8
_0-1_作画層１
  6
CONTINUOUS
 62
    7
 10
-13.750007629394474
 20
210.24998855590823
 40
4.0000000000000355
 50
175.02694702148472
 51
244.97319030761696
  0
ARC
  8
_0-1_作画層１
  6
CONTINUOUS
 62
    7
 10
-13.750007629406582
 20
210.24998855586239
 40
4.9999999999526414
 50
253.28106689451249
 51
256.71881103517001
  0
ARC
  8
_0-1_作画層１
  6
CONTINUOUS
 62
    7
 10
-13.750007629394531
 20
210.2499885559082
 40
3.9999999999999925
 50
265.02670288085937
 51
334.97319030761724
  0
ARC
  8
_0-1_作画層１
  6
CONTINUOUS
 62
    7
 10
-13.750007629394531
 20
210.2499885559082
 40
3.9999999999999929
 50
85.02670288085929
 51
154.97346496582014
  0
ARC
  8
_0-1_作画層１
  6
CONTINUOUS
 62
    7
 10
-13.750007629394418
 20
210.24998855590823
 40
3.9999999999999085
 50
355.02670288085909
 51
64.973190307618097
  0
ARC
  8
_0-1_作画層１
  6
CONTINUOUS
 62
    7
 10
-13.750007629397004
 20
210.24998855590053
 40
5.0000000000080433
 50
73.281173706052698
 51
76.718902587883193
  0
ARC
  8
_0-1_作画層１
  6
CONTINUOUS
 62
    7
 10
-13.750007629397004
 20
210.24998855590053
 40
5.0000000000080433
 50
73.281173706052698
 51
76.718902587883193
  0
ARC
  8
_0-1_作画層１
  6
CONTINUOUS
 62
    7
 10
-13.750007629398056
 20
210.24998855590906
 40
5.000000000003654
 50
343.28106689453352
 51
346.71890258789051
  0
ARC
  8
_0-1_作画層１
  6
CONTINUOUS
 62
    7
 10
-13.750007629398056
 20
210.24998855590906
 40
5.000000000003654
 50
343.28106689453352
 51
346.71890258789051
  0
CIRCLE
  8
_0-1_作画層１
  6
CONTINUOUS
 62
    7
 10
-13.750007629394531
 20
210.2499885559082
 40
2
  0
TEXT
  8
_0-7_注記層１
 62
    7
 10
-22.800000000000011
 20
213.75
 40
2.6000000000000001
 41
1
 50
0
  1
ON
  0
TEXT
  8
_0-7_注記層１
 62
    7
 10
-13.449999999999989
 20
218.75
 40
2.6000000000000001
 41
1
 50
0
  1
OFF
  0
TEXT
  8
_0-7_注記層１
 62
    7
 10
34.475246548323469
 20
139.04832347140038
 40
2.2999999999999998
 41
1
 50
0
  1
日
  0
TEXT
  8
_0-7_注記層１
 62
    7
 10
36.302169625246535
 20
134.78550295857985
 40
2.2999999999999998
 41
1
 50
0
  1
月
  0
TEXT
  8
_0-7_注記層１
 62
    7
 10
49.559072978303746
 20
132.2559171597633
 40
2.2999999999999998
 41
1
 50
0
  1
木
  0
TEXT
  8
_0-7_注記層１
 62
    7
 10
53.166074950690344
 20
135.01972386587772
 40
2.2999999999999998
 41
1
 50
0
  1
金
  0
TEXT
  8
_0-7_注記層１
 62
    7
 10
54.992998027613424
 20
139.84467455621302
 40
2.2999999999999998
 41
1
 50
0
  1
土
  0
TEXT
  8
_0-7_注記層１
 62
    7
 10
45.015187376725834
 20
131.27218934911244
 40
2.2999999999999998
 41
1
 50
0
  1
水
  0
TEXT
  8
_0-7_注記層１
 62
    7
 10
40.190236686390534
 20
132.02169625246549
 40
2.2999999999999998
 41
1
 50
0
  1
火
  0
LINE
  8
_0-d_0_1
  6
CONTINUOUS
 62
    7
 10
167.375
 20
95.896241833999568
 11
167.375
 21
103.08925793433491
  0
LINE
  8
_0-d_0_1
  6
CONTINUOUS
 62
    7
 10
167.375
 20
103.08925793433491
 11
167.35000117570965
 21
103.08900794534998
  0
ARC
  8
_0-d_0_1
  6
CONTINUOUS
 62
    7
 10
167.375
 20
100.58913293671773
 40
2.5
 50
0
 51
90.572940398229505
  0
LINE
  8
_0-d_0_1
  6
CONTINUOUS
 62
    7
 10
169.875
 20
100.58913293671773
 11
169.875
 21
98.396366831616774
  0
LINE
  8
_0-d_0_1
  6
CONTINUOUS
 62
    7
 10
167.375
 20
95.896241833999568
 11
167.39999882429035
 21
95.896491822984501
  0
ARC
  8
_0-d_0_1
  6
CONTINUOUS
 62
    7
 10
167.37499999999994
 20
98.396366831616803
 40
2.5000000000000568
 50
270.5729403982308
 51
359.99999999999937
  0
LINE
  8
_0-d_0_1
  6
CONTINUOUS
 62
    7
 10
164.25000381469727
 20
99.464991779386992
 11
167.375
 21
99.496241833999562
  0
LINE
  8
_0-d_0_1
  6
CONTINUOUS
 62
    7
 10
164.25000381469727
 20
96.364991779386997
 11
167.375
 21
96.396241833999568
  0
LINE
  8
_0-d_0_1
  6
CONTINUOUS
 62
    7
 10
162.25
 20
102.54499168187371
 11
167.375
 21
102.59624183399956
  0
LINE
  8
_0-d_0_1
  6
CONTINUOUS
 62
    7
 10
105.09999237060546
 20
137.5749580383301
 11
105.09999237060546
 21
143.0749580383301
  0
LINE
  8
_0-d_0_1
  6
CONTINUOUS
 62
    7
 10
105.09999237060546
 20
137.5749580383301
 11
105.09999237060546
 21
143.0749580383301
  0
LINE
  8
_0-d_0_1
  6
CONTINUOUS
 62
    7
 10
104.09999237060546
 20
143.05348562810386
 11
113.24998569488525
 21
143.24995803833011
  0
LINE
  8
_0-d_0_1
  6
CONTINUOUS
 62
    7
 10
104.09999237060546
 20
137.59643044855633
 11
104.09999237060546
 21
143.05348562810386
  0
LINE
  8
_0-d_0_1
  6
CONTINUOUS
 62
    7
 10
104.09999237060546
 20
137.59643044855633
 11
104.09999237060546
 21
143.05348562810386
  0
LINE
  8
_0-d_0_1
  6
CONTINUOUS
 62
    7
 10
104.09999237060546
 20
137.59643044855633
 11
113.24998569488525
 21
137.39995803833011
  0
LINE
  8
_0-d_0_1
  6
CONTINUOUS
 62
    7
 10
105.24998378753662
 20
143.07817871556483
 11
105.24998378753662
 21
214.74997711181641
  0
LINE
  8
_0-d_0_1
  6
CONTINUOUS
 62
    7
 10
113.24998569488525
 20
179.74998760223386
 11
105.24995899200439
 21
179.74998760223386
  0
LINE
  8
_0-d_0_1
  6
CONTINUOUS
 62
    7
 10
113.24998569488525
 20
180.74999070167539
 11
105.24995899200439
 21
180.74999070167539
  0
LINE
  8
_0-d_0_1
  6
CONTINUOUS
 62
    7
 10
113.24998569488525
 20
181.74999427795407
 11
105.24995899200439
 21
181.74999427795407
  0
LINE
  8
_0-d_0_1
  6
CONTINUOUS
 62
    7
 10
113.24998569488525
 20
182.74999761581418
 11
105.24995899200439
 21
182.74999761581418
  0
LINE
  8
_0-d_0_1
  6
CONTINUOUS
 62
    7
 10
113.24998569488525
 20
183.75000047683713
 11
105.24995899200439
 21
183.75000047683713
  0
LINE
  8
_0-d_0_1
  6
CONTINUOUS
 62
    7
 10
113.24998569488525
 20
184.75000381469724
 11
105.24995899200439
 21
184.75000381469724
  0
LINE
  8
_0-d_0_1
  6
CONTINUOUS
 62
    7
 10
113.24998569488525
 20
185.7500076293945
 11
105.24995899200439
 21
185.7500076293945
  0
LINE
  8
_0-d_0_1
  6
CONTINUOUS
 62
    7
 10
113.24998569488525
 20
186.75001049041745
 11
105.24995899200439
 21
186.75001049041745
  0
LINE
  8
_0-d_0_1
  6
CONTINUOUS
 62
    7
 10
113.24998569488525
 20
187.74998950958249
 11
105.24995899200439
 21
187.74998950958249
  0
LINE
  8
_0-d_0_1
  6
CONTINUOUS
 62
    7
 10
113.24998569488525
 20
177.74998092651364
 11
105.24995899200439
 21
177.74998092651364
  0
LINE
  8
_0-d_0_1
  6
CONTINUOUS
 62
    7
 10
113.24998569488525
 20
176.74997758865354
 11
105.24995899200439
 21
176.74997758865354
  0
LINE
  8
_0-d_0_1
  6
CONTINUOUS
 62
    7
 10
113.24998569488525
 20
175.74997425079343
 11
105.24995899200439
 21
175.74997425079343
  0
LINE
  8
_0-d_0_1
  6
CONTINUOUS
 62
    7
 10
113.24998569488525
 20
174.7499711513519
 11
105.24995899200439
 21
174.7499711513519
  0
LINE
  8
_0-d_0_1
  6
CONTINUOUS
 62
    7
 10
113.24998569488525
 20
173.74996757507327
 11
105.24995899200439
 21
173.74996757507327
  0
LINE
  8
_0-d_0_1
  6
CONTINUOUS
 62
    7
 10
113.24998569488525
 20
172.74996423721316
 11
105.24995899200439
 21
172.74996423721316
  0
LINE
  8
_0-d_0_1
  6
CONTINUOUS
 62
    7
 10
113.24998569488525
 20
171.74996137619021
 11
105.24995899200439
 21
171.74996137619021
  0
LINE
  8
_0-d_0_1
  6
CONTINUOUS
 62
    7
 10
113.24998569488525
 20
170.74995803833011
 11
105.24995899200439
 21
170.74995803833011
  0
LINE
  8
_0-d_0_1
  6
CONTINUOUS
 62
    7
 10
113.24998569488525
 20
169.74995422363284
 11
105.24995899200439
 21
169.74995422363284
  0
LINE
  8
_0-d_0_1
  6
CONTINUOUS
 62
    7
 10
113.24998569488525
 20
168.74995136260989
 11
105.24995899200439
 21
168.74995136260989
  0
LINE
  8
_0-d_0_1
  6
CONTINUOUS
 62
    7
 10
113.24998569488525
 20
167.74997234344485
 11
105.24995899200439
 21
167.74997234344485
  0
LINE
  8
_0-d_0_1
  6
CONTINUOUS
 62
    7
 10
113.24998569488525
 20
167.74998092651364
 11
105.24995899200439
 21
167.74998092651364
  0
LINE
  8
_0-d_0_1
  6
CONTINUOUS
 62
    7
 10
113.24998569488525
 20
166.74997758865354
 11
105.24995899200439
 21
166.74997758865354
  0
LINE
  8
_0-d_0_1
  6
CONTINUOUS
 62
    7
 10
113.24998569488525
 20
165.74997425079343
 11
105.24995899200439
 21
165.74997425079343
  0
LINE
  8
_0-d_0_1
  6
CONTINUOUS
 62
    7
 10
113.24998569488525
 20
164.7499711513519
 11
105.24995899200439
 21
164.7499711513519
  0
LINE
  8
_0-d_0_1
  6
CONTINUOUS
 62
    7
 10
113.24998569488525
 20
163.74996757507327
 11
105.24995899200439
 21
163.74996757507327
  0
LINE
  8
_0-d_0_1
  6
CONTINUOUS
 62
    7
 10
113.24998569488525
 20
162.74996423721316
 11
105.24995899200439
 21
162.74996423721316
  0
LINE
  8
_0-d_0_1
  6
CONTINUOUS
 62
    7
 10
113.24998569488525
 20
161.74996137619021
 11
105.24995899200439
 21
161.74996137619021
  0
LINE
  8
_0-d_0_1
  6
CONTINUOUS
 62
    7
 10
113.24998569488525
 20
160.74995803833011
 11
105.24995899200439
 21
160.74995803833011
  0
LINE
  8
_0-d_0_1
  6
CONTINUOUS
 62
    7
 10
113.24998569488525
 20
159.74995422363284
 11
105.24995899200439
 21
159.74995422363284
  0
LINE
  8
_0-d_0_1
  6
CONTINUOUS
 62
    7
 10
113.24998569488525
 20
158.74995136260989
 11
105.24995899200439
 21
158.74995136260989
  0
LINE
  8
_0-d_0_1
  6
CONTINUOUS
 62
    7
 10
113.24998569488525
 20
157.74997234344485
 11
105.24995899200439
 21
157.74997234344485
  0
LINE
  8
_0-d_0_1
  6
CONTINUOUS
 62
    7
 10
113.24998569488525
 20
197.74998760223386
 11
105.24995899200439
 21
197.74998760223386
  0
LINE
  8
_0-d_0_1
  6
CONTINUOUS
 62
    7
 10
113.24998569488525
 20
198.74999070167539
 11
105.24995899200439
 21
198.74999070167539
  0
LINE
  8
_0-d_0_1
  6
CONTINUOUS
 62
    7
 10
113.24998569488525
 20
199.74999427795407
 11
105.24995899200439
 21
199.74999427795407
  0
LINE
  8
_0-d_0_1
  6
CONTINUOUS
 62
    7
 10
113.24998569488525
 20
200.74999761581418
 11
105.24995899200439
 21
200.74999761581418
  0
LINE
  8
_0-d_0_1
  6
CONTINUOUS
 62
    7
 10
113.24998569488525
 20
201.75000047683713
 11
105.24995899200439
 21
201.75000047683713
  0
LINE
  8
_0-d_0_1
  6
CONTINUOUS
 62
    7
 10
113.24998569488525
 20
202.75000381469724
 11
105.24995899200439
 21
202.75000381469724
  0
LINE
  8
_0-d_0_1
  6
CONTINUOUS
 62
    7
 10
113.24998569488525
 20
203.7500076293945
 11
105.24995899200439
 21
203.7500076293945
  0
LINE
  8
_0-d_0_1
  6
CONTINUOUS
 62
    7
 10
113.24998569488525
 20
204.75001049041745
 11
105.24995899200439
 21
204.75001049041745
  0
LINE
  8
_0-d_0_1
  6
CONTINUOUS
 62
    7
 10
113.24998569488525
 20
205.74998950958249
 11
105.24995899200439
 21
205.74998950958249
  0
LINE
  8
_0-d_0_1
  6
CONTINUOUS
 62
    7
 10
113.24998569488525
 20
188.74998760223386
 11
105.24995899200439
 21
188.74998760223386
  0
LINE
  8
_0-d_0_1
  6
CONTINUOUS
 62
    7
 10
113.24998569488525
 20
189.74999070167539
 11
105.24995899200439
 21
189.74999070167539
  0
LINE
  8
_0-d_0_1
  6
CONTINUOUS
 62
    7
 10
113.24998569488525
 20
190.74999427795407
 11
105.24995899200439
 21
190.74999427795407
  0
LINE
  8
_0-d_0_1
  6
CONTINUOUS
 62
    7
 10
113.24998569488525
 20
191.74999761581418
 11
105.24995899200439
 21
191.74999761581418
  0
LINE
  8
_0-d_0_1
  6
CONTINUOUS
 62
    7
 10
113.24998569488525
 20
192.75000047683713
 11
105.24995899200439
 21
192.75000047683713
  0
LINE
  8
_0-d_0_1
  6
CONTINUOUS
 62
    7
 10
113.24998569488525
 20
193.75000381469724
 11
105.24995899200439
 21
193.75000381469724
  0
LINE
  8
_0-d_0_1
  6
CONTINUOUS
 62
    7
 10
113.24998569488525
 20
194.7500076293945
 11
105.24995899200439
 21
194.7500076293945
  0
LINE
  8
_0-d_0_1
  6
CONTINUOUS
 62
    7
 10
113.24998569488525
 20
195.75001049041745
 11
105.24995899200439
 21
195.75001049041745
  0
LINE
  8
_0-d_0_1
  6
CONTINUOUS
 62
    7
 10
113.24998569488525
 20
196.74998950958249
 11
105.24995899200439
 21
196.74998950958249
  0
LINE
  8
_0-d_0_1
  6
CONTINUOUS
 62
    7
 10
113.24998569488525
 20
148.74998760223386
 11
105.24995899200439
 21
148.74998760223386
  0
LINE
  8
_0-d_0_1
  6
CONTINUOUS
 62
    7
 10
113.24998569488525
 20
149.74999070167539
 11
105.24995899200439
 21
149.74999070167539
  0
LINE
  8
_0-d_0_1
  6
CONTINUOUS
 62
    7
 10
113.24998569488525
 20
150.74999427795407
 11
105.24995899200439
 21
150.74999427795407
  0
LINE
  8
_0-d_0_1
  6
CONTINUOUS
 62
    7
 10
113.24998569488525
 20
151.74999761581418
 11
105.24995899200439
 21
151.74999761581418
  0
LINE
  8
_0-d_0_1
  6
CONTINUOUS
 62
    7
 10
113.24998569488525
 20
152.75000047683713
 11
105.24995899200439
 21
152.75000047683713
  0
LINE
  8
_0-d_0_1
  6
CONTINUOUS
 62
    7
 10
113.24998569488525
 20
153.75000381469724
 11
105.24995899200439
 21
153.75000381469724
  0
LINE
  8
_0-d_0_1
  6
CONTINUOUS
 62
    7
 10
113.24998569488525
 20
154.7500076293945
 11
105.24995899200439
 21
154.7500076293945
  0
LINE
  8
_0-d_0_1
  6
CONTINUOUS
 62
    7
 10
113.24998569488525
 20
155.75001049041745
 11
105.24995899200439
 21
155.75001049041745
  0
LINE
  8
_0-d_0_1
  6
CONTINUOUS
 62
    7
 10
113.24998569488525
 20
156.74998950958249
 11
105.24995899200439
 21
156.74998950958249
  0
LINE
  8
_0-d_0_1
  6
CONTINUOUS
 62
    7
 10
113.24998569488525
 20
206.74999761581418
 11
105.24995899200439
 21
206.74999761581418
  0
LINE
  8
_0-d_0_1
  6
CONTINUOUS
 62
    7
 10
113.24998569488525
 20
207.75000047683713
 11
105.24995899200439
 21
207.75000047683713
  0
LINE
  8
_0-d_0_1
  6
CONTINUOUS
 62
    7
 10
113.24998569488525
 20
208.75000381469724
 11
105.24995899200439
 21
208.75000381469724
  0
LINE
  8
_0-d_0_1
  6
CONTINUOUS
 62
    7
 10
113.24998569488525
 20
209.7500076293945
 11
105.24995899200439
 21
209.7500076293945
  0
LINE
  8
_0-d_0_1
  6
CONTINUOUS
 62
    7
 10
113.24998569488525
 20
210.75001049041745
 11
105.24995899200439
 21
210.75001049041745
  0
LINE
  8
_0-d_0_1
  6
CONTINUOUS
 62
    7
 10
113.24998569488525
 20
211.74998950958249
 11
105.24995899200439
 21
211.74998950958249
  0
LINE
  8
_0-d_0_1
  6
CONTINUOUS
 62
    7
 10
113.24998569488525
 20
143.75000047683713
 11
105.24995899200439
 21
143.75000047683713
  0
LINE
  8
_0-d_0_1
  6
CONTINUOUS
 62
    7
 10
113.24998569488525
 20
144.75000381469724
 11
105.24995899200439
 21
144.75000381469724
  0
LINE
  8
_0-d_0_1
  6
CONTINUOUS
 62
    7
 10
113.24998569488525
 20
145.7500076293945
 11
105.24995899200439
 21
145.7500076293945
  0
LINE
  8
_0-d_0_1
  6
CONTINUOUS
 62
    7
 10
113.24998569488525
 20
146.75001049041745
 11
105.24995899200439
 21
146.75001049041745
  0
LINE
  8
_0-d_0_1
  6
CONTINUOUS
 62
    7
 10
113.24998569488525
 20
147.74998950958249
 11
105.24995899200439
 21
147.74998950958249
  0
LINE
  8
_0-d_0_1
  6
CONTINUOUS
 62
    7
 10
113.24998569488525
 20
211.7500076293945
 11
105.24995899200439
 21
211.7500076293945
  0
LINE
  8
_0-d_0_1
  6
CONTINUOUS
 62
    7
 10
113.24998569488525
 20
212.75001049041748
 11
105.24995899200439
 21
212.75001049041748
  0
LINE
  8
_0-d_0_1
  6
CONTINUOUS
 62
    7
 10
113.24998569488525
 20
213.74998950958252
 11
105.24995899200439
 21
213.74998950958252
  0
LINE
  8
_0-d_0_1
  6
CONTINUOUS
 62
    7
 10
113.24998569488525
 20
214.74997711181641
 11
105.24998378753662
 21
214.74997711181641
  0
INSERT
  2
-000-_D0
  8
_0-9_寸法線層１
 10
-55.25
 20
-38.75
 41
1
 42
1
 50
0
  0
INSERT
  2
-001-_D1
  8
_0-9_寸法線層１
 10
-55.25
 20
-38.75
 41
1
 42
1
 50
0
  0
INSERT
  2
-002-_D2
  8
_0-9_寸法線層１
 10
-55.25
 20
-38.75
 41
1
 42
1
 50
0
  0
LINE
  8
_0-1_作画層１
  6
CONTINUOUS
 62
    7
 10
62.749999999999986
 20
86.25
 11
-27.25
 21
86.25
  0
LINE
  8
_0-1_作画層１
  6
CONTINUOUS
 62
    7
 10
-30.25
 20
225.25
 11
-30.25
 21
89.25
  0
ARC
  8
_0-1_作画層１
  6
CONTINUOUS
 62
    7
 10
-27.250000000000028
 20
89.249999999999972
 40
2.9999999999999716
 50
179.99999999999946
 51
270.00000000000051
  0
LINE
  8
_0-1_作画層１
  6
CONTINUOUS
 62
    7
 10
-28.25
 20
225.25508260033854
 11
-28.25
 21
90.14442719099992
  0
ARC
  8
_0-1_作画層１
  6
CONTINUOUS
 62
    7
 10
-27.25
 20
90.14442719099992
 40
1
 50
180
 51
270.00000000000063
  0
LINE
  8
_0-1_作画層１
  6
CONTINUOUS
 62
    7
 10
-27.25
 20
89.14442719099992
 11
62.749999999999986
 21
89.14442719099992
  0
ARC
  8
_0-d_0_1
  6
CONTINUOUS
 62
    7
 10
-21.24999994922203
 20
95.249998298936987
 40
4.0000000000000213
 50
0
 51
89.999999999999687
  0
LINE
  8
_0-1_作画層１
  6
CONTINUOUS
 62
    7
 10
-2.7500000000000568
 20
95.64442719099992
 11
-15.250000000000057
 21
95.64442719099992
  0
LINE
  8
_0-1_作画層１
  6
CONTINUOUS
 62
    7
 10
-15.250000000000057
 20
95.64442719099992
 11
-15.250000000000057
 21
103.64442719099992
  0
LINE
  8
_0-1_作画層１
  6
CONTINUOUS
 62
    7
 10
-14.250000000000057
 20
97.14442719099992
 11
-14.250000000000057
 21
102.14442719099992
  0
LINE
  8
_0-1_作画層１
  6
CONTINUOUS
 62
    7
 10
-14.250000000000057
 20
97.14442719099992
 11
-3.7500000000000568
 21
97.14442719099992
  0
LINE
  8
_0-1_作画層１
  6
CONTINUOUS
 62
    7
 10
-9.7500000000000568
 20
102.14442719099992
 11
-9.7500000000000568
 21
97.14442719099992
  0
LINE
  8
_0-1_作画層１
  6
CONTINUOUS
 62
    7
 10
-8.2500000000000568
 20
102.14442719099992
 11
-8.2500000000000568
 21
97.14442719099992
  0
TEXT
  8
_0-7_注記層１
 62
    7
 10
-12.25
 20
91.25
 40
2.6000000000000001
 41
1
 50
0
  1
SPARE
  0
LINE
  8
_0-d_0_1
  6
CONTINUOUS
 62
    7
 10
-17.25
 20
90.39442719099992
 11
-17.25
 21
95.25
  0
LINE
  8
_0-1_作画層１
  6
CONTINUOUS
 62
    7
 10
61.249999999999986
 20
90.39442719099992
 11
-26
 21
90.39442719099992
  0
LINE
  8
_0-1_作画層１
  6
CONTINUOUS
 62
    7
 10
-26.750000000000028
 20
223.75
 11
-26.750000000000028
 21
91.394427190999949
  0
ARC
  8
_0-1_作画層１
  6
CONTINUOUS
 62
    7
 10
-25.750000000000057
 20
91.39442719099992
 40
0.9999999999999783
 50
179.99999999999838
 51
270.00000000000119
  0
LINE
  8
_0-1_作画層１
  6
CONTINUOUS
 62
    7
 10
126.54112377850163
 20
135.86797638436485
 11
156.54112377850163
 21
135.86797638436485
  0
LINE
  8
_0-1_作画層１
  6
CONTINUOUS
 62
    7
 10
156.54112377850163
 20
135.86797638436485
 11
156.54112377850163
 21
195.86797638436485
  0
LINE
  8
_0-1_作画層１
  6
CONTINUOUS
 62
    7
 10
156.54112377850163
 20
195.86797638436485
 11
126.54112377850163
 21
195.86797638436485
  0
LINE
  8
_0-1_作画層１
  6
CONTINUOUS
 62
    7
 10
126.54112377850163
 20
195.86797638436485
 11
126.54112377850163
 21
135.86797638436485
  0
LINE
  8
_0-1_作画層１
  6
CONTINUOUS
 62
    7
 10
137.7911237785016
 20
144.61797638436488
 11
137.7911237785016
 21
187.11797638436488
  0
LINE
  8
_0-1_作画層１
  6
CONTINUOUS
 62
    7
 10
137.7911237785016
 20
187.11797638436488
 11
146.5411237785016
 21
187.11797638436488
  0
LINE
  8
_0-1_作画層１
  6
CONTINUOUS
 62
    7
 10
146.5411237785016
 20
187.11797638436488
 11
146.5411237785016
 21
144.61797638436488
  0
LINE
  8
_0-1_作画層１
  6
CONTINUOUS
 62
    7
 10
146.5411237785016
 20
144.61797638436488
 11
137.7911237785016
 21
144.61797638436488
  0
LINE
  8
_0-1_作画層１
  6
CONTINUOUS
 62
    7
 10
142.1661237785016
 20
148.84132595491533
 11
139.51447334905205
 21
151.49297638436488
  0
LINE
  8
_0-1_作画層１
  6
CONTINUOUS
 62
    7
 10
139.51447334905205
 20
151.49297638436488
 11
142.1661237785016
 21
154.14462681381443
  0
LINE
  8
_0-1_作画層１
  6
CONTINUOUS
 62
    7
 10
142.1661237785016
 20
154.14462681381443
 11
144.81777420795115
 21
151.49297638436488
  0
LINE
  8
_0-1_作画層１
  6
CONTINUOUS
 62
    7
 10
144.81777420795115
 20
151.49297638436488
 11
142.1661237785016
 21
148.84132595491533
  0
TEXT
  8
_0-7_注記層１
 62
    7
 10
142.49112377850159
 20
150.54297638436489
 40
1.8999999999999999
 41
1
 50
90
  1
PS
  0
TEXT
  8
_0-7_注記層１
 62
    7
 10
144.39112377850157
 20
151.01797638436489
 40
1.8999999999999999
 41
1
 50
90
  1
E
  0
TEXT
  8
_0-7_注記層１
 62
    7
 10
145.6661237785016
 20
153.11797638436488
 40
2
 41
1
 50
90
  1
JET
  0
TEXT
  8
_0-7_注記層１
 62
    7
 10
150.19112377850161
 20
145.24297638436488
 40
2.2999999999999998
 41
1
 50
90
  1
製造年月
  0
TEXT
  8
_0-7_注記層１
 62
    7
 10
150.19112377850161
 20
180.24297638436488
 40
2.2999999999999998
 41
1
 50
90
  1
盤内用
  0
CIRCLE
  8
_0-d_0_1
  6
CONTINUOUS
 62
    7
 10
208.00000320475573
 20
56.749998839592948
 40
1
  0
CIRCLE
  8
_0-d_0_1
  6
CONTINUOUS
 62
    7
 10
249.50000320475573
 20
56.749998839592948
 40
1
  0
LINE
  8
_0-1_作画層１
  6
CONTINUOUS
 62
    7
 10
246.23781967163086
 20
24.245292663574219
 11
246.23781967163086
 21
26.745290756225586
  0
LINE
  8
_0-1_作画層１
  6
CONTINUOUS
 62
    7
 10
246.23781967163086
 20
24.245292663574219
 11
246.23781967163086
 21
22.500003814697266
  0
LINE
  8
_0-1_作画層１
  6
CONTINUOUS
 62
    7
 10
211.23782157897949
 20
26.745290756225586
 11
211.23782157897949
 21
22.500003814697266
  0
CIRCLE
  8
_0-1_作画層１
  6
CONTINUOUS
 62
    7
 10
208.9999942779541
 20
26.750017166137695
 40
2.25
  0
CIRCLE
  8
_0-1_作画層１
  6
CONTINUOUS
 62
    7
 10
248.50000190734863
 20
26.750017166137695
 40
2.25
  0
CIRCLE
  8
_0-1_作画層１
  6
CONTINUOUS
 62
    7
 10
208.9999942779541
 20
26.750017166137695
 40
0.75
  0
CIRCLE
  8
_0-1_作画層１
  6
CONTINUOUS
 62
    7
 10
248.50000190734863
 20
26.750017166137695
 40
0.75
  0
LINE
  8
_0-d_0_1
  6
CONTINUOUS
 62
    7
 10
206.24999809265137
 20
22.499988555908203
 11
212.99999618530273
 21
22.499988555908203
  0
ARC
  8
_0-d_0_1
  6
CONTINUOUS
 62
    7
 10
251.25000320475579
 20
23.999979766106605
 40
1.4999999999999929
 50
269.99999999999784
 51
0.0000000000003053
  0
ARC
  8
_0-d_0_1
  6
CONTINUOUS
 62
    7
 10
206.25000320475567
 20
23.999979766106605
 40
1.4999999999999432
 50
179.99999999999974
 51
270.0000000000021
  0
LINE
  8
_0-d_0_1
  6
CONTINUOUS
 62
    7
 10
212.99999618530273
 20
22.499988555908203
 11
251.25000381469727
 21
22.499988555908203
  0
LINE
  8
_0-d_0_1
  6
CONTINUOUS
 62
    7
 10
204.75
 20
90.750011444091797
 11
204.75
 21
23.75
  0
LINE
  8
_0-d_0_1
  6
CONTINUOUS
 62
    7
 10
251.25000381469727
 20
92.250003814697266
 11
206.24999809265137
 21
92.250003814697266
  0
LINE
  8
_0-d_0_1
  6
CONTINUOUS
 62
    7
 10
250.49999618530273
 20
91.000003814697266
 11
207
 21
91.000003814697266
  0
LINE
  8
_0-d_0_1
  6
CONTINUOUS
 62
    7
 10
251.49999809265137
 20
23.499992370605469
 11
251.49999809265137
 21
90.000007629394531
  0
LINE
  8
_0-d_0_1
  6
CONTINUOUS
 62
    7
 10
205.99999809265137
 20
23.499992370605469
 11
205.99999809265137
 21
90.000007629394531
  0
LINE
  8
_0-d_0_1
  6
CONTINUOUS
 62
    7
 10
225.73782658576965
 20
86.745290756225586
 11
225.73782658576965
 21
83.745286941528335
  0
LINE
  8
_0-d_0_1
  6
CONTINUOUS
 62
    7
 10
231.73782157897949
 20
86.745290756225586
 11
231.73782157897949
 21
83.745286941528335
  0
LINE
  8
_0-d_0_1
  6
CONTINUOUS
 62
    7
 10
227.9378325343132
 20
86.749998092651367
 11
227.9378325343132
 21
85.296703338623047
  0
LINE
  8
_0-d_0_1
  6
CONTINUOUS
 62
    7
 10
229.53780937194824
 20
86.749998092651367
 11
229.53780937194824
 21
85.289787292480469
  0
ARC
  8
_0-d_0_1
  6
CONTINUOUS
 62
    7
 10
206.25000320475567
 20
90.750014098382024
 40
1.4999999999999716
 50
89.999999999997826
 51
180.00000000000105
  0
ARC
  8
_0-d_0_1
  6
CONTINUOUS
 62
    7
 10
251.25000320475579
 20
90.750014098382024
 40
1.4999999999999432
 50
359.99999999999892
 51
90.00000000000216
  0
ARC
  8
_0-d_0_1
  6
CONTINUOUS
 62
    7
 10
207.00000320475573
 20
90.000014098382024
 40
0.9999999999999712
 50
90
 51
180.00000000000162
  0
ARC
  8
_0-d_0_1
  6
CONTINUOUS
 62
    7
 10
250.50000320475573
 20
90.000014098382024
 40
1
 50
359.99999999999835
 51
90.000000000000014
  0
ARC
  8
_0-d_0_1
  6
CONTINUOUS
 62
    7
 10
228.7378266910838
 20
86.745283873772621
 40
0.8000000119210124
 50
0.3370971679715826
 51
179.66290283202838
  0
ARC
  8
_0-d_0_1
  6
CONTINUOUS
 62
    7
 10
228.73782669108385
 20
83.745283873772635
 40
1.7500000000000049
 50
117.27784729003849
 51
62.617691040038949
  0
ARC
  8
_0-d_0_1
  6
CONTINUOUS
 62
    7
 10
228.73782669108385
 20
83.745283873772635
 40
3
 50
180
 51
0
  0
ARC
  8
_0-d_0_1
  6
CONTINUOUS
 62
    7
 10
228.73782669108385
 20
86.745283873772621
 40
3
 50
0.0000000000002714
 51
179.99999999999974
  0
INSERT
  2
-003-_D3
  8
_0-9_寸法線層１
 10
-55.25
 20
-38.75
 41
1
 42
1
 50
0
  0
INSERT
  2
-004-_D4
  8
_0-9_寸法線層１
 10
-55.25
 20
-38.75
 41
1
 42
1
 50
0
  0
LINE
  8
_0-d_0_1
  6
CONTINUOUS
 62
    7
 10
252.74999618530273
 20
23.99539083269471
 11
252.74999618530273
 21
90.750011444091797
  0
INSERT
  2
-005-_D5
  8
_0-9_寸法線層１
 10
-55.25
 20
-38.75
 41
1
 42
1
 50
0
  0
CIRCLE
  8
_0-1_作画層１
  6
CONTINUOUS
 62
    7
 10
231.99999809265137
 20
71.300003814697263
 40
1.25
  0
CIRCLE
  8
_0-1_作画層１
  6
CONTINUOUS
 62
    7
 10
231.99999809265137
 20
71.300003814697263
 40
1
  0
LINE
  8
_0-1_作画層１
  6
CONTINUOUS
 62
    7
 10
231.96457654723127
 20
72.252341205211764
 11
231.96457654723127
 21
70.314230456026095
  0
LINE
  8
_0-1_作画層１
  6
CONTINUOUS
 62
    7
 10
232.8124815650504
 20
69.9365877698948
 11
234.18293281849014
 21
68.56613651645506
  0
LINE
  8
_0-1_作画層１
  6
CONTINUOUS
 62
    7
 10
231.96457654723127
 20
69.752341205211764
 11
231.96457654723127
 21
67.814230456026095
  0
TEXT
  8
_0-7_注記層１
 62
    7
 10
231.03422042544446
 20
64.89263121671199
 40
2
 41
1
 50
0
  1
60
  0
TEXT
  8
_0-7_注記層１
 62
    7
 10
234.97925593586535
 20
66.014412954209931
 40
2
 41
1
 50
45
  1
50
  0
LINE
  8
_0-d_0_1
  6
CONTINUOUS
 62
    7
 10
38.500005722045913
 20
27.750000000000028
 11
-3.0000057220458984
 21
27.750000000000028
  0
LINE
  8
_0-d_0_1
  6
CONTINUOUS
 62
    7
 10
-26.75
 20
48.74999427795413
 11
-27.75
 21
27.750000000000028
  0
LINE
  8
_0-d_0_1
  6
CONTINUOUS
 62
    7
 10
65.749996185302749
 20
27.750000000000028
 11
65.749996185302749
 21
25.749997377395658
  0
LINE
  8
_0-d_0_1
  6
CONTINUOUS
 62
    7
 10
-30.249996185302734
 20
25.749997377395658
 11
65.749996185302749
 21
25.749997377395658
  0
LINE
  8
_0-d_0_1
  6
CONTINUOUS
 62
    7
 10
-30.249996185302734
 20
27.750000000000028
 11
65.749996185302749
 21
27.750000000000028
  0
LINE
  8
_0-d_0_1
  6
CONTINUOUS
 62
    7
 10
-30.249996185302734
 20
25.749997377395658
 11
-30.249996185302734
 21
27.750000000000028
  0
LINE
  8
_0-d_0_1
  6
CONTINUOUS
 62
    7
 10
-26.75
 20
48.74999427795413
 11
62.250000000000014
 21
48.74999427795413
  0
LINE
  8
_0-d_0_1
  6
CONTINUOUS
 62
    7
 10
63.250019073486342
 20
20.750008106231718
 11
63.250019073486342
 21
-19.250011444091768
  0
LINE
  8
_0-d_0_1
  6
CONTINUOUS
 62
    7
 10
-27.75
 20
20.750008106231718
 11
-27.75
 21
-19.250011444091768
  0
LINE
  8
_0-d_0_1
  6
CONTINUOUS
 62
    7
 10
65.749996185302749
 20
27.750000000000028
 11
65.749996185302749
 21
20.750008106231718
  0
LINE
  8
_0-d_0_1
  6
CONTINUOUS
 62
    7
 10
-30.249996185302734
 20
20.750008106231718
 11
65.749996185302749
 21
20.750008106231718
  0
LINE
  8
_0-d_0_1
  6
CONTINUOUS
 62
    7
 10
-30.249996185302734
 20
20.750008106231718
 11
-30.249996185302734
 21
27.750000000000028
  0
LINE
  8
_0-d_0_1
  6
CONTINUOUS
 62
    7
 10
-30.249996185302734
 20
27.750000000000028
 11
65.749996185302749
 21
27.750000000000028
  0
LINE
  8
_0-d_0_1
  6
CONTINUOUS
 62
    7
 10
62.773819657412872
 20
37.74999427795413
 11
-27.273809666536323
 21
37.74999427795413
  0
LINE
  8
_0-d_0_1
  6
CONTINUOUS
 62
    7
 10
60.869059595124284
 20
35.749994277954102
 11
61.250019073486342
 21
27.750000000000028
  0
LINE
  8
_0-d_0_1
  6
CONTINUOUS
 62
    7
 10
62.773819657412858
 20
37.749994277954102
 11
62.250000000000014
 21
48.74999427795413
  0
LINE
  8
_0-d_0_1
  6
CONTINUOUS
 62
    7
 10
62.773819657412858
 20
37.749994277954102
 11
63.250019073486342
 21
27.750000000000028
  0
LINE
  8
_0-d_0_1
  6
CONTINUOUS
 62
    7
 10
60.869059595124284
 20
35.74999427795413
 11
-25.369047787724753
 21
35.74999427795413
  0
LINE
  8
_0-d_0_1
  6
CONTINUOUS
 62
    7
 10
-25.369047787724753
 20
35.749994277954102
 11
-25.75
 21
27.750000000000028
  0
LINE
  8
_0-d_0_1
  6
CONTINUOUS
 62
    7
 10
-24.845238121188402
 20
46.749994277954102
 11
-25.273809666536323
 21
37.749994277954102
  0
LINE
  8
_0-d_0_1
  6
CONTINUOUS
 62
    7
 10
60.345239937711455
 20
46.74999427795413
 11
-24.845238121188402
 21
46.74999427795413
  0
LINE
  8
_0-d_0_1
  6
CONTINUOUS
 62
    7
 10
60.34523993771144
 20
46.749994277954102
 11
60.773819657412858
 21
37.749994277954102
  0
LINE
  8
_0-d_0_1
  6
CONTINUOUS
 62
    7
 10
60.750019073486342
 20
-19.250011444091768
 11
60.750019073486342
 21
-21.399991893768288
  0
LINE
  8
_0-d_0_1
  6
CONTINUOUS
 62
    7
 10
-25.250019073486385
 20
-19.250011444091768
 11
-25.250019073486385
 21
-21.399991893768288
  0
LINE
  8
_0-d_0_1
  6
CONTINUOUS
 62
    7
 10
52.750005722045884
 20
-19.250011444091768
 11
63.250019073486342
 21
-19.250011444091768
  0
LINE
  8
_0-d_0_1
  6
CONTINUOUS
 62
    7
 10
52.750005722045884
 20
-21.399991893768288
 11
60.750019073486342
 21
-21.399991893768288
  0
LINE
  8
_0-1_作画層１
  6
CONTINUOUS
 62
    7
 10
52.750005722045884
 20
-21.399991893768288
 11
52.750005722045884
 21
13.749988555908232
  0
ARC
  8
_0-1_作画層１
  6
CONTINUOUS
 62
    7
 10
50.75000572204587
 20
13.749988555908232
 40
2.0000000000000071
 50
0.0000000000002036
 51
89.999999999999588
  0
LINE
  8
_0-d_0_1
  6
CONTINUOUS
 62
    7
 10
-17.250005722045955
 20
-21.399991893768288
 11
-25.250019073486385
 21
-21.399991893768288
  0
LINE
  8
_0-d_0_1
  6
CONTINUOUS
 62
    7
 10
-17.250005722045955
 20
-19.250011444091768
 11
-27.750019073486385
 21
-19.250011444091768
  0
LINE
  8
_0-1_作画層１
  6
CONTINUOUS
 62
    7
 10
50.750005722045884
 20
15.749988555908232
 11
-15.250005722045955
 21
15.749988555908232
  0
LINE
  8
_0-1_作画層１
  6
CONTINUOUS
 62
    7
 10
-17.250005722045955
 20
-21.399991893768288
 11
-17.250005722045927
 21
13.749988555908232
  0
ARC
  8
_0-1_作画層１
  6
CONTINUOUS
 62
    7
 10
-15.250005722045955
 20
13.74998855590826
 40
1.9999999999999645
 50
89.999999999999389
 51
180.00000000000102
  0
LINE
  8
_0-1_作画層１
  6
CENTER
 62
    7
 10
17.75
 20
-28.75
 11
17.75
 21
53.367976384364852
  0
LINE
  8
_0-1_作画層１
  6
CONTINUOUS
 62
    7
 10
-0.7499904632568359
 20
81.250007629394531
 11
-0.7499904632568359
 21
81.750022888183594
  0
LINE
  8
_0-1_作画層１
  6
CONTINUOUS
 62
    7
 10
-0.7499904632568359
 20
81.250007629394531
 11
-0.7499904632568359
 21
80.750007629394531
  0
LINE
  8
_0-1_作画層１
  6
CONTINUOUS
 62
    7
 10
3.2500104904174805
 20
81.250007629394531
 11
3.2500104904174805
 21
80.750007629394531
  0
LINE
  8
_0-1_作画層１
  6
CONTINUOUS
 62
    7
 10
3.2500104904174805
 20
81.250007629394531
 11
3.2500104904174805
 21
81.750022888183594
  0
LINE
  8
_0-1_作画層１
  6
CONTINUOUS
 62
    7
 10
1.2500152587890625
 20
83.250015258789063
 11
1.7500181198120117
 21
83.250015258789063
  0
LINE
  8
_0-1_作画層１
  6
CONTINUOUS
 62
    7
 10
1.2500152587890625
 20
83.250015258789063
 11
0.7500019073486328
 21
83.250015258789063
  0
LINE
  8
_0-1_作画層１
  6
CONTINUOUS
 62
    7
 10
1.2500152587890625
 20
79.250015258789063
 11
0.7500019073486328
 21
79.250015258789063
  0
LINE
  8
_0-1_作画層１
  6
CONTINUOUS
 62
    7
 10
1.2500152587890625
 20
79.250015258789063
 11
1.7500181198120117
 21
79.250015258789063
  0
LINE
  8
_0-1_作画層１
  6
CONTINUOUS
 62
    7
 10
0.2500133514404296
 20
81.750022888183594
 11
-0.7499904632568359
 21
81.750022888183594
  0
LINE
  8
_0-1_作画層１
  6
CONTINUOUS
 62
    7
 10
0.7500019073486328
 20
82.250015258789063
 11
0.7500019073486328
 21
83.250015258789063
  0
LINE
  8
_0-1_作画層１
  6
CONTINUOUS
 62
    7
 10
1.7500181198120117
 20
82.250015258789063
 11
1.7500181198120117
 21
83.250015258789063
  0
LINE
  8
_0-1_作画層１
  6
CONTINUOUS
 62
    7
 10
2.2500190734863281
 20
81.750022888183594
 11
3.2500104904174805
 21
81.750022888183594
  0
LINE
  8
_0-1_作画層１
  6
CONTINUOUS
 62
    7
 10
2.2500190734863281
 20
80.750007629394531
 11
3.2500104904174805
 21
80.750007629394531
  0
LINE
  8
_0-1_作画層１
  6
CONTINUOUS
 62
    7
 10
1.7500181198120117
 20
80.250022888183594
 11
1.7500181198120117
 21
79.250015258789063
  0
LINE
  8
_0-1_作画層１
  6
CONTINUOUS
 62
    7
 10
0.7500019073486328
 20
80.250022888183594
 11
0.7500019073486328
 21
79.250015258789063
  0
LINE
  8
_0-1_作画層１
  6
CONTINUOUS
 62
    7
 10
0.2500133514404296
 20
80.750007629394531
 11
-0.7499904632568359
 21
80.750007629394531
  0
LINE
  8
_0-1_作画層１
  6
CONTINUOUS
 62
    7
 10
10.250008583068848
 20
81.250007629394531
 11
10.250008583068848
 21
81.750022888183594
  0
LINE
  8
_0-1_作画層１
  6
CONTINUOUS
 62
    7
 10
10.250008583068848
 20
81.250007629394531
 11
10.250008583068848
 21
80.750007629394531
  0
LINE
  8
_0-1_作画層１
  6
CONTINUOUS
 62
    7
 10
14.250009298324585
 20
81.250007629394531
 11
14.250009298324585
 21
80.750007629394531
  0
LINE
  8
_0-1_作画層１
  6
CONTINUOUS
 62
    7
 10
14.250009298324585
 20
81.250007629394531
 11
14.250009298324585
 21
81.750022888183594
  0
LINE
  8
_0-1_作画層１
  6
CONTINUOUS
 62
    7
 10
12.250015258789063
 20
83.250015258789063
 11
12.750016689300537
 21
83.250015258789063
  0
LINE
  8
_0-1_作画層１
  6
CONTINUOUS
 62
    7
 10
12.250015258789063
 20
83.250015258789063
 11
11.750000953674316
 21
83.250015258789063
  0
LINE
  8
_0-1_作画層１
  6
CONTINUOUS
 62
    7
 10
12.250015258789063
 20
79.250015258789063
 11
11.750000953674316
 21
79.250015258789063
  0
LINE
  8
_0-1_作画層１
  6
CONTINUOUS
 62
    7
 10
12.250015258789063
 20
79.250015258789063
 11
12.750016689300537
 21
79.250015258789063
  0
LINE
  8
_0-1_作画層１
  6
CONTINUOUS
 62
    7
 10
11.250011920928955
 20
81.750022888183594
 11
10.250008583068848
 21
81.750022888183594
  0
LINE
  8
_0-1_作画層１
  6
CONTINUOUS
 62
    7
 10
11.750000953674316
 20
82.250015258789063
 11
11.750000953674316
 21
83.250015258789063
  0
LINE
  8
_0-1_作画層１
  6
CONTINUOUS
 62
    7
 10
12.750016689300537
 20
82.250015258789063
 11
12.750016689300537
 21
83.250015258789063
  0
LINE
  8
_0-1_作画層１
  6
CONTINUOUS
 62
    7
 10
13.250006198883057
 20
81.750022888183594
 11
14.250009298324585
 21
81.750022888183594
  0
LINE
  8
_0-1_作画層１
  6
CONTINUOUS
 62
    7
 10
13.250006198883057
 20
80.750007629394531
 11
14.250009298324585
 21
80.750007629394531
  0
LINE
  8
_0-1_作画層１
  6
CONTINUOUS
 62
    7
 10
12.750016689300537
 20
80.250022888183594
 11
12.750016689300537
 21
79.250015258789063
  0
LINE
  8
_0-1_作画層１
  6
CONTINUOUS
 62
    7
 10
11.750000953674316
 20
80.250022888183594
 11
11.750000953674316
 21
79.250015258789063
  0
LINE
  8
_0-1_作画層１
  6
CONTINUOUS
 62
    7
 10
11.250011920928955
 20
80.750007629394531
 11
10.250008583068848
 21
80.750007629394531
  0
LINE
  8
_0-1_作画層１
  6
CONTINUOUS
 62
    7
 10
21.250007629394545
 20
81.250007629394531
 11
21.250007629394545
 21
81.750022888183594
  0
LINE
  8
_0-1_作画層１
  6
CONTINUOUS
 62
    7
 10
21.250007629394545
 20
81.250007629394531
 11
21.250007629394545
 21
80.750007629394531
  0
LINE
  8
_0-1_作画層１
  6
CONTINUOUS
 62
    7
 10
25.250008583068862
 20
81.250007629394531
 11
25.250008583068862
 21
80.750007629394531
  0
LINE
  8
_0-1_作画層１
  6
CONTINUOUS
 62
    7
 10
25.250008583068862
 20
81.250007629394531
 11
25.250008583068862
 21
81.750022888183594
  0
LINE
  8
_0-1_作画層１
  6
CONTINUOUS
 62
    7
 10
23.250001907348647
 20
83.250015258789063
 11
23.750015735626235
 21
83.250015258789063
  0
LINE
  8
_0-1_作画層１
  6
CONTINUOUS
 62
    7
 10
23.250001907348647
 20
83.250015258789063
 11
22.750000476837172
 21
83.250015258789063
  0
LINE
  8
_0-1_作画層１
  6
CONTINUOUS
 62
    7
 10
23.250001907348647
 20
79.250015258789063
 11
22.750000476837172
 21
79.250015258789063
  0
LINE
  8
_0-1_作画層１
  6
CONTINUOUS
 62
    7
 10
23.250001907348647
 20
79.250015258789063
 11
23.750015735626235
 21
79.250015258789063
  0
LINE
  8
_0-1_作画層１
  6
CONTINUOUS
 62
    7
 10
22.250010967254653
 20
81.750022888183594
 11
21.250007629394545
 21
81.750022888183594
  0
LINE
  8
_0-1_作画層１
  6
CONTINUOUS
 62
    7
 10
22.750000476837172
 20
82.250015258789063
 11
22.750000476837172
 21
83.250015258789063
  0
LINE
  8
_0-1_作画層１
  6
CONTINUOUS
 62
    7
 10
23.750015735626235
 20
82.250015258789063
 11
23.750015735626235
 21
83.250015258789063
  0
LINE
  8
_0-1_作画層１
  6
CONTINUOUS
 62
    7
 10
24.250005245208754
 20
81.750022888183594
 11
25.250008583068862
 21
81.750022888183594
  0
LINE
  8
_0-1_作画層１
  6
CONTINUOUS
 62
    7
 10
24.250005245208754
 20
80.750007629394531
 11
25.250008583068862
 21
80.750007629394531
  0
LINE
  8
_0-1_作画層１
  6
CONTINUOUS
 62
    7
 10
23.750015735626235
 20
80.250022888183594
 11
23.750015735626235
 21
79.250015258789063
  0
LINE
  8
_0-1_作画層１
  6
CONTINUOUS
 62
    7
 10
22.750000476837172
 20
80.250022888183594
 11
22.750000476837172
 21
79.250015258789063
  0
LINE
  8
_0-1_作画層１
  6
CONTINUOUS
 62
    7
 10
22.250010967254653
 20
80.750007629394531
 11
21.250007629394545
 21
80.750007629394531
  0
LINE
  8
_0-1_作画層１
  6
CONTINUOUS
 62
    7
 10
32.250006675720229
 20
81.250007629394531
 11
32.250006675720229
 21
81.750038146972656
  0
LINE
  8
_0-1_作画層１
  6
CONTINUOUS
 62
    7
 10
32.250006675720229
 20
81.250007629394531
 11
32.250006675720229
 21
80.750007629394531
  0
LINE
  8
_0-1_作画層１
  6
CONTINUOUS
 62
    7
 10
36.250007629394545
 20
81.250007629394531
 11
36.250007629394545
 21
80.750007629394531
  0
LINE
  8
_0-1_作画層１
  6
CONTINUOUS
 62
    7
 10
36.250007629394545
 20
81.250007629394531
 11
36.250007629394545
 21
81.750038146972656
  0
LINE
  8
_0-1_作画層１
  6
CONTINUOUS
 62
    7
 10
34.250001907348647
 20
83.250015258789063
 11
34.750015258789077
 21
83.250015258789063
  0
LINE
  8
_0-1_作画層１
  6
CONTINUOUS
 62
    7
 10
34.250001907348647
 20
83.250015258789063
 11
33.750000000000014
 21
83.250015258789063
  0
LINE
  8
_0-1_作画層１
  6
CONTINUOUS
 62
    7
 10
34.250001907348647
 20
79.250015258789063
 11
33.750000000000014
 21
79.250015258789063
  0
LINE
  8
_0-1_作画層１
  6
CONTINUOUS
 62
    7
 10
34.250001907348647
 20
79.250015258789063
 11
34.750015258789077
 21
79.250015258789063
  0
LINE
  8
_0-1_作画層１
  6
CONTINUOUS
 62
    7
 10
33.249998092651381
 20
81.750038146972656
 11
32.250006675720229
 21
81.750038146972656
  0
LINE
  8
_0-1_作画層１
  6
CONTINUOUS
 62
    7
 10
33.750000000000014
 20
82.250015258789063
 11
33.750000000000014
 21
83.250015258789063
  0
LINE
  8
_0-1_作画層１
  6
CONTINUOUS
 62
    7
 10
34.750015258789077
 20
82.250015258789063
 11
34.750015258789077
 21
83.250015258789063
  0
LINE
  8
_0-1_作画層１
  6
CONTINUOUS
 62
    7
 10
35.25000381469728
 20
81.750038146972656
 11
36.250007629394545
 21
81.750038146972656
  0
LINE
  8
_0-1_作画層１
  6
CONTINUOUS
 62
    7
 10
35.25000381469728
 20
80.750007629394531
 11
36.250007629394545
 21
80.750007629394531
  0
LINE
  8
_0-1_作画層１
  6
CONTINUOUS
 62
    7
 10
34.750015258789077
 20
80.250022888183594
 11
34.750015258789077
 21
79.250015258789063
  0
LINE
  8
_0-1_作画層１
  6
CONTINUOUS
 62
    7
 10
33.750000000000014
 20
80.250022888183594
 11
33.750000000000014
 21
79.250015258789063
  0
LINE
  8
_0-1_作画層１
  6
CONTINUOUS
 62
    7
 10
33.249998092651381
 20
80.750007629394531
 11
32.250006675720229
 21
80.750007629394531
  0
LINE
  8
_0-1_作画層１
  6
CONTINUOUS
 62
    7
 10
-11.749990463256836
 20
83.250007629394531
 11
-11.749990463256836
 21
84.000007629394531
  0
LINE
  8
_0-1_作画層１
  6
CONTINUOUS
 62
    7
 10
-11.749990463256836
 20
83.250007629394531
 11
-11.749990463256836
 21
82.5
  0
LINE
  8
_0-1_作画層１
  6
CONTINUOUS
 62
    7
 10
-5.7499828338623047
 20
83.250007629394531
 11
-5.7499828338623047
 21
82.5
  0
LINE
  8
_0-1_作画層１
  6
CONTINUOUS
 62
    7
 10
-5.7499828338623047
 20
83.250007629394531
 11
-5.7499828338623047
 21
84.000007629394531
  0
LINE
  8
_0-1_作画層１
  6
CONTINUOUS
 62
    7
 10
-8.7499790191650391
 20
80.249992370605469
 11
-9.4999828338623047
 21
80.249992370605469
  0
LINE
  8
_0-1_作画層１
  6
CONTINUOUS
 62
    7
 10
-8.7499790191650391
 20
80.249992370605469
 11
-7.9999904632568359
 21
80.249992370605469
  0
LINE
  8
_0-1_作画層１
  6
CONTINUOUS
 62
    7
 10
-10.249996185302734
 20
84.000007629394531
 11
-11.749990463256836
 21
84.000007629394531
  0
LINE
  8
_0-1_作画層１
  6
CONTINUOUS
 62
    7
 10
-9.4999828338623047
 20
84.750022888183594
 11
-9.4999828338623047
 21
86.25
  0
LINE
  8
_0-1_作画層１
  6
CONTINUOUS
 62
    7
 10
-7.9999904632568359
 20
84.750022888183594
 11
-7.9999904632568359
 21
86.25
  0
LINE
  8
_0-1_作画層１
  6
CONTINUOUS
 62
    7
 10
-7.2499752044677734
 20
84.000007629394531
 11
-5.7499828338623047
 21
84.000007629394531
  0
LINE
  8
_0-1_作画層１
  6
CONTINUOUS
 62
    7
 10
-7.2499752044677734
 20
82.5
 11
-5.7499828338623047
 21
82.5
  0
LINE
  8
_0-1_作画層１
  6
CONTINUOUS
 62
    7
 10
-7.9999904632568359
 20
81.749984741210938
 11
-7.9999904632568359
 21
80.249992370605469
  0
LINE
  8
_0-1_作画層１
  6
CONTINUOUS
 62
    7
 10
-9.4999828338623047
 20
81.749984741210938
 11
-9.4999828338623047
 21
80.249992370605469
  0
LINE
  8
_0-1_作画層１
  6
CONTINUOUS
 62
    7
 10
-10.249996185302734
 20
82.5
 11
-11.749990463256836
 21
82.5
  0
LINE
  8
_0-1_作画層１
  6
CONTINUOUS
 62
    7
 10
43.249994277954116
 20
83.250007629394531
 11
43.249994277954116
 21
83.500007629394531
  0
LINE
  8
_0-1_作画層１
  6
CONTINUOUS
 62
    7
 10
43.249994277954116
 20
83.250007629394531
 11
43.249994277954116
 21
83
  0
LINE
  8
_0-1_作画層１
  6
CONTINUOUS
 62
    7
 10
45.250000000000014
 20
83.250007629394531
 11
45.250000000000014
 21
83
  0
LINE
  8
_0-1_作画層１
  6
CONTINUOUS
 62
    7
 10
45.250000000000014
 20
83.250007629394531
 11
45.250000000000014
 21
83.500007629394531
  0
LINE
  8
_0-1_作画層１
  6
CONTINUOUS
 62
    7
 10
44.249996185302749
 20
84.250007629394531
 11
44.500009536743178
 21
84.250007629394531
  0
LINE
  8
_0-1_作画層１
  6
CONTINUOUS
 62
    7
 10
44.249996185302749
 20
84.250007629394531
 11
43.999996185302749
 21
84.250007629394531
  0
LINE
  8
_0-1_作画層１
  6
CONTINUOUS
 62
    7
 10
44.249996185302749
 20
82.25
 11
43.999996185302749
 21
82.25
  0
LINE
  8
_0-1_作画層１
  6
CONTINUOUS
 62
    7
 10
44.249996185302749
 20
82.25
 11
44.500009536743178
 21
82.25
  0
LINE
  8
_0-1_作画層１
  6
CONTINUOUS
 62
    7
 10
43.749994277954116
 20
83.500007629394531
 11
43.249994277954116
 21
83.500007629394531
  0
LINE
  8
_0-1_作画層１
  6
CONTINUOUS
 62
    7
 10
43.999996185302749
 20
83.750015258789063
 11
43.999996185302749
 21
84.250007629394531
  0
LINE
  8
_0-1_作画層１
  6
CONTINUOUS
 62
    7
 10
44.500009536743178
 20
83.750015258789063
 11
44.500009536743178
 21
84.250007629394531
  0
LINE
  8
_0-1_作画層１
  6
CONTINUOUS
 62
    7
 10
44.750011444091811
 20
83.500007629394531
 11
45.250000000000014
 21
83.500007629394531
  0
LINE
  8
_0-1_作画層１
  6
CONTINUOUS
 62
    7
 10
44.750011444091811
 20
83
 11
45.250000000000014
 21
83
  0
LINE
  8
_0-1_作画層１
  6
CONTINUOUS
 62
    7
 10
44.500009536743178
 20
82.749992370605469
 11
44.500009536743178
 21
82.25
  0
LINE
  8
_0-1_作画層１
  6
CONTINUOUS
 62
    7
 10
43.999996185302749
 20
82.749992370605469
 11
43.999996185302749
 21
82.25
  0
LINE
  8
_0-1_作画層１
  6
CONTINUOUS
 62
    7
 10
43.749994277954116
 20
83
 11
43.249994277954116
 21
83
  0
LINE
  8
_0-1_作画層１
  6
CONTINUOUS
 62
    7
 10
46.421577453613295
 20
77.250007629394531
 11
40.750009536743178
 21
77.250007629394531
  0
LINE
  8
_0-1_作画層１
  6
CONTINUOUS
 62
    7
 10
46.421577453613295
 20
77.250007629394531
 11
49.250013351440444
 21
80.07843017578125
  0
LINE
  8
_0-1_作画層１
  6
CONTINUOUS
 62
    7
 10
-10.921560287475586
 20
77.250007629394531
 11
-5.2499923706054687
 21
77.250007629394531
  0
LINE
  8
_0-1_作画層１
  6
CONTINUOUS
 62
    7
 10
-10.921560287475586
 20
77.250007629394531
 11
-13.749996185302734
 21
80.07843017578125
  0
LINE
  8
_0-1_作画層１
  6
CONTINUOUS
 62
    7
 10
5.7500057220458984
 20
75.750015258789063
 11
-3.2499866485595703
 21
75.750015258789063
  0
LINE
  8
_0-1_作画層１
  6
CONTINUOUS
 62
    7
 10
16.75000524520874
 20
75.750015258789063
 11
7.7500123977661133
 21
75.750015258789063
  0
LINE
  8
_0-1_作画層１
  6
CONTINUOUS
 62
    7
 10
27.750004768371596
 20
75.750015258789063
 11
18.750011801719666
 21
75.750015258789063
  0
LINE
  8
_0-1_作画層１
  6
CONTINUOUS
 62
    7
 10
38.75000381469728
 20
75.750015258789063
 11
29.750010490417495
 21
75.750015258789063
  0
LINE
  8
_0-1_作画層１
  6
CONTINUOUS
 62
    7
 10
49.250013351440444
 20
80.07843017578125
 11
49.250013351440444
 21
86.25
  0
LINE
  8
_0-1_作画層１
  6
CONTINUOUS
 62
    7
 10
-13.749996185302734
 20
80.07843017578125
 11
-13.749996185302734
 21
86.25
  0
LINE
  8
_0-1_作画層１
  6
CONTINUOUS
 62
    7
 10
50.749992370605483
 20
79.457107543945313
 11
50.749992370605483
 21
86.25
  0
LINE
  8
_0-1_作画層１
  6
CONTINUOUS
 62
    7
 10
47.042900085449233
 20
75.750007629394531
 11
50.749992370605483
 21
79.457107543945313
  0
LINE
  8
_0-1_作画層１
  6
CONTINUOUS
 62
    7
 10
47.042900085449233
 20
75.750007629394531
 11
42.250001907348647
 21
75.750007629394531
  0
LINE
  8
_0-1_作画層１
  6
CONTINUOUS
 62
    7
 10
-11.542882919311523
 20
75.750007629394531
 11
-6.7499847412109375
 21
75.750007629394531
  0
LINE
  8
_0-1_作画層１
  6
CONTINUOUS
 62
    7
 10
-11.542882919311523
 20
75.750007629394531
 11
-15.249988555908203
 21
79.457122802734375
  0
LINE
  8
_0-1_作画層１
  6
CONTINUOUS
 62
    7
 10
-15.249988555908203
 20
79.457122802734375
 11
-15.249988555908203
 21
86.25
  0
CIRCLE
  8
_0-1_作画層１
  6
CONTINUOUS
 62
    7
 10
1.2500152587890625
 20
81.250007629394531
 40
3
  0
ARC
  8
_0-1_作画層１
  6
CONTINUOUS
 62
    7
 10
0.2500133514404581
 20
82.250015258789048
 40
0.4999999999999856
 50
269.9999999999992
 51
0.0000000000016284
  0
ARC
  8
_0-1_作画層１
  6
CONTINUOUS
 62
    7
 10
2.2500190734863281
 20
82.250015258789048
 40
0.4999999999999926
 50
179.99999999999838
 51
270.0000000000008
  0
ARC
  8
_0-1_作画層１
  6
CONTINUOUS
 62
    7
 10
2.2500190734863281
 20
80.250022888183608
 40
0.4999999999999856
 50
89.99999999999919
 51
180.00000000000162
  0
ARC
  8
_0-1_作画層１
  6
CONTINUOUS
 62
    7
 10
0.2500133514404581
 20
80.250022888183608
 40
0.4999999999999926
 50
359.99999999999835
 51
90.00000000000081
  0
CIRCLE
  8
_0-1_作画層１
  6
CONTINUOUS
 62
    7
 10
12.250015258789063
 20
81.250007629394531
 40
3
  0
ARC
  8
_0-1_作画層１
  6
CONTINUOUS
 62
    7
 10
11.250011920928983
 20
82.250015258789048
 40
0.4999999999999856
 50
269.99999999999835
 51
0.0000000000016666
  0
ARC
  8
_0-1_作画層１
  6
CONTINUOUS
 62
    7
 10
13.250006198883057
 20
82.250015258789048
 40
0.4999999999999856
 50
179.99999999999838
 51
270.00000000000159
  0
ARC
  8
_0-1_作画層１
  6
CONTINUOUS
 62
    7
 10
13.250006198883057
 20
80.250022888183608
 40
0.4999999999999856
 50
89.99999999999838
 51
180.00000000000162
  0
ARC
  8
_0-1_作画層１
  6
CONTINUOUS
 62
    7
 10
11.250011920928983
 20
80.250022888183608
 40
0.4999999999999856
 50
359.99999999999835
 51
90.000000000001663
  0
CIRCLE
  8
_0-1_作画層１
  6
CONTINUOUS
 62
    7
 10
23.250001907348647
 20
81.250007629394531
 40
3
  0
ARC
  8
_0-1_作画層１
  6
CONTINUOUS
 62
    7
 10
22.250010967254667
 20
82.250015258789048
 40
0.4999999999999856
 50
269.99999999999835
 51
0.0000000000016666
  0
ARC
  8
_0-1_作画層１
  6
CONTINUOUS
 62
    7
 10
24.25000524520874
 20
82.250015258789048
 40
0.4999999999999856
 50
179.99999999999838
 51
270.00000000000159
  0
ARC
  8
_0-1_作画層１
  6
CONTINUOUS
 62
    7
 10
24.25000524520874
 20
80.250022888183608
 40
0.4999999999999856
 50
89.99999999999838
 51
180.00000000000162
  0
ARC
  8
_0-1_作画層１
  6
CONTINUOUS
 62
    7
 10
22.250010967254667
 20
80.250022888183608
 40
0.4999999999999856
 50
359.99999999999835
 51
90.000000000001663
  0
CIRCLE
  8
_0-1_作画層１
  6
CONTINUOUS
 62
    7
 10
34.250001907348647
 20
81.250007629394531
 40
3
  0
ARC
  8
_0-1_作画層１
  6
CONTINUOUS
 62
    7
 10
33.249998092651396
 20
82.250015258789048
 40
0.4999999999999856
 50
269.99999999999835
 51
0.0000000000016666
  0
ARC
  8
_0-1_作画層１
  6
CONTINUOUS
 62
    7
 10
35.250003814697266
 20
82.250015258789048
 40
0.4999999999999856
 50
179.99999999999838
 51
270.00000000000159
  0
ARC
  8
_0-1_作画層１
  6
CONTINUOUS
 62
    7
 10
35.250003814697266
 20
80.250022888183608
 40
0.4999999999999856
 50
89.99999999999838
 51
180.00000000000162
  0
ARC
  8
_0-1_作画層１
  6
CONTINUOUS
 62
    7
 10
33.249998092651396
 20
80.250022888183608
 40
0.4999999999999856
 50
359.99999999999835
 51
90.000000000001663
  0
ARC
  8
_0-1_作画層１
  6
CONTINUOUS
 62
    7
 10
-10.249996185302706
 20
84.750022888183594
 40
0.7499999999999853
 50
269.99999999999886
 51
0.0000000000010941
  0
ARC
  8
_0-1_作画層１
  6
CONTINUOUS
 62
    7
 10
-7.2499752044677734
 20
84.750022888183594
 40
0.7499999999999853
 50
179.99999999999892
 51
270.00000000000114
  0
ARC
  8
_0-1_作画層１
  6
CONTINUOUS
 62
    7
 10
-7.2499752044677734
 20
81.749984741210952
 40
0.7499999999999853
 50
89.99999999999892
 51
180.00000000000108
  0
ARC
  8
_0-1_作画層１
  6
CONTINUOUS
 62
    7
 10
-10.249996185302706
 20
81.749984741210952
 40
0.7499999999999853
 50
359.99999999999892
 51
90.000000000001094
  0
CIRCLE
  8
_0-1_作画層１
  6
CONTINUOUS
 62
    7
 10
44.249996185302749
 20
83.250007629394531
 40
1.5
  0
ARC
  8
_0-1_作画層１
  6
CONTINUOUS
 62
    7
 10
43.749994277954116
 20
83.750015258789063
 40
0.25
 50
270
 51
0
  0
ARC
  8
_0-1_作画層１
  6
CONTINUOUS
 62
    7
 10
44.750011444091811
 20
83.750015258789063
 40
0.25
 50
180
 51
270
  0
ARC
  8
_0-1_作画層１
  6
CONTINUOUS
 62
    7
 10
44.750011444091811
 20
82.749992370605469
 40
0.25
 50
90
 51
180
  0
ARC
  8
_0-1_作画層１
  6
CONTINUOUS
 62
    7
 10
43.749994277954116
 20
82.749992370605469
 40
0.25
 50
0
 51
90
  0
ARC
  8
_0-1_作画層１
  6
CONTINUOUS
 62
    7
 10
-8.7499790191650391
 20
83.250007629394517
 40
4.5000000000000133
 50
139.39877319335918
 51
40.601364135742301
  0
INSERT
  2
-006-_D6
  8
_0-9_寸法線層１
 10
-55.25
 20
-38.75
 41
1
 42
1
 50
0
  0
LINE
  8
_0-1_作画層１
  6
CONTINUOUS
 62
    7
 10
42.167802413695952
 20
73.243219850099663
 11
-6.8321842348636039
 21
73.243219850099663
  0
LINE
  8
_0-1_作画層１
  6
CONTINUOUS
 62
    7
 10
38.75000381469728
 20
73.243219850099663
 11
38.75000381469728
 21
86.25
  0
LINE
  8
_0-1_作画層１
  6
CONTINUOUS
 62
    7
 10
-3.2499866485595703
 20
73.243219850099663
 11
-3.2499866485595703
 21
86.25
  0
LINE
  8
_0-1_作画層１
  6
CONTINUOUS
 62
    7
 10
29.750010490417495
 20
73.243219850099663
 11
29.750010490417495
 21
86.25
  0
LINE
  8
_0-1_作画層１
  6
CONTINUOUS
 62
    7
 10
27.750004768371596
 20
73.243219850099663
 11
27.750004768371596
 21
86.25
  0
LINE
  8
_0-1_作画層１
  6
CONTINUOUS
 62
    7
 10
18.750011801719666
 20
73.243219850099663
 11
18.750011801719666
 21
86.25
  0
LINE
  8
_0-1_作画層１
  6
CONTINUOUS
 62
    7
 10
7.7500123977661133
 20
73.243219850099663
 11
7.7500123977661133
 21
86.25
  0
LINE
  8
_0-1_作画層１
  6
CONTINUOUS
 62
    7
 10
5.7500057220458984
 20
73.243219850099663
 11
5.7500057220458984
 21
86.25
  0
LINE
  8
_0-1_作画層１
  6
CONTINUOUS
 62
    7
 10
16.75000524520874
 20
73.243219850099663
 11
16.75000524520874
 21
86.25
  0
LINE
  8
_0-1_作画層１
  6
CONTINUOUS
 62
    7
 10
40.750009536743178
 20
73.243219850099663
 11
40.750009536743178
 21
86.25
  0
LINE
  8
_0-1_作画層１
  6
CONTINUOUS
 62
    7
 10
-5.2499923706054687
 20
73.243219850099663
 11
-5.2499923706054687
 21
80.42156982421875
  0
LINE
  8
_0-1_作画層１
  6
CONTINUOUS
 62
    7
 10
-6.7499847412109375
 20
73.243219850099663
 11
-6.7499847412109375
 21
75.750007629394531
  0
LINE
  8
_0-1_作画層１
  6
CONTINUOUS
 62
    7
 10
42.250001907348647
 20
73.243219850099663
 11
42.250001907348647
 21
75.750007629394531
  0
LINE
  8
_0-1_作画層１
  6
CENTER
 62
    7
 10
17.75
 20
68.75
 11
17.75
 21
233.25
  0
LINE
  8
_0-1_作画層１
  6
CONTINUOUS
 62
    7
 10
-17.25
 20
91.370000000000005
 11
52.749999999999957
 21
91.370000000000005
  0
INSERT
  2
-007-_D7
  8
_0-9_寸法線層１
 10
-55.25
 20
-38.75
 41
1
 42
1
 50
0
  0
INSERT
  2
-008-_D8
  8
_0-9_寸法線層１
 10
-55.25
 20
-38.75
 41
1
 42
1
 50
0
  0
CIRCLE
  8
_0-1_作画層１
  6
CONTINUOUS
 62
    7
 10
94.75
 20
16.25
 40
5
  0
LINE
  8
_0-1_作画層１
  6
CONTINUOUS
 62
    7
 10
93.5
 20
20.625
 11
96
 21
20.625
  0
LINE
  8
_0-1_作画層１
  6
CONTINUOUS
 62
    7
 10
96
 20
11.875
 11
93.5
 21
11.875
  0
LINE
  8
_0-1_作画層１
  6
CONTINUOUS
 62
    7
 10
99.125
 20
17.5
 11
99.125
 21
15
  0
LINE
  8
_0-1_作画層１
  6
CONTINUOUS
 62
    7
 10
90.375
 20
15
 11
90.375
 21
17.5
  0
ARC
  8
_0-1_作画層１
  6
CONTINUOUS
 62
    7
 10
92.500000000000028
 20
18.499999999999972
 40
0.9999999999999712
 50
269.99999999999835
 51
0.0000000000012086
  0
LINE
  8
_0-1_作画層１
  6
CONTINUOUS
 62
    7
 10
90.375
 20
15
 11
92.5
 21
15
  0
ARC
  8
_0-1_作画層１
  6
CONTINUOUS
 62
    7
 10
92.500000000000028
 20
14.000000000000028
 40
0.9999999999999783
 50
359.99999999999881
 51
90.00000000000162
  0
LINE
  8
_0-1_作画層１
  6
CONTINUOUS
 62
    7
 10
99.125
 20
17.5
 11
97
 21
17.5
  0
ARC
  8
_0-1_作画層１
  6
CONTINUOUS
 62
    7
 10
96.999999999999972
 20
18.499999999999972
 40
0.9999999999999783
 50
179.99999999999878
 51
270.00000000000159
  0
LINE
  8
_0-1_作画層１
  6
CONTINUOUS
 62
    7
 10
92.500000127156596
 20
17.5
 11
90.375
 21
17.5
  0
LINE
  8
_0-1_作画層１
  6
CONTINUOUS
 62
    7
 10
99.125
 20
15
 11
97
 21
15
  0
LINE
  8
_0-1_作画層１
  6
CONTINUOUS
 62
    7
 10
96
 20
11.875
 11
96
 21
14
  0
ARC
  8
_0-1_作画層１
  6
CONTINUOUS
 62
    7
 10
96.999999999999972
 20
14.000000000000028
 40
0.9999999999999783
 50
89.99999999999838
 51
180.00000000000122
  0
LINE
  8
_0-1_作画層１
  6
CONTINUOUS
 62
    7
 10
93.5
 20
18.499999999999986
 11
93.5
 21
20.625
  0
LINE
  8
_0-1_作画層１
  6
CONTINUOUS
 62
    7
 10
93.5
 20
14.000000000000014
 11
93.5
 21
11.875
  0
LINE
  8
_0-1_作画層１
  6
CONTINUOUS
 62
    7
 10
96
 20
18.499999999999986
 11
96
 21
20.625
  0
CIRCLE
  8
_0-1_作画層１
  6
CONTINUOUS
 62
    7
 10
112.25
 20
16.25
 40
5
  0
LINE
  8
_0-1_作画層１
  6
CONTINUOUS
 62
    7
 10
111
 20
20.625
 11
113.5
 21
20.625
  0
LINE
  8
_0-1_作画層１
  6
CONTINUOUS
 62
    7
 10
113.5
 20
11.875
 11
111
 21
11.875
  0
LINE
  8
_0-1_作画層１
  6
CONTINUOUS
 62
    7
 10
116.625
 20
17.5
 11
116.625
 21
15
  0
LINE
  8
_0-1_作画層１
  6
CONTINUOUS
 62
    7
 10
107.875
 20
15
 11
107.875
 21
17.5
  0
ARC
  8
_0-1_作画層１
  6
CONTINUOUS
 62
    7
 10
110.00000000000003
 20
18.499999999999972
 40
0.9999999999999712
 50
269.99999999999835
 51
0.0000000000012086
  0
LINE
  8
_0-1_作画層１
  6
CONTINUOUS
 62
    7
 10
107.875
 20
15
 11
110
 21
15
  0
ARC
  8
_0-1_作画層１
  6
CONTINUOUS
 62
    7
 10
110.00000000000003
 20
14.000000000000028
 40
0.9999999999999783
 50
359.99999999999881
 51
90.00000000000162
  0
LINE
  8
_0-1_作画層１
  6
CONTINUOUS
 62
    7
 10
116.625
 20
17.5
 11
114.5
 21
17.5
  0
ARC
  8
_0-1_作画層１
  6
CONTINUOUS
 62
    7
 10
114.49999999999997
 20
18.499999999999972
 40
0.9999999999999783
 50
179.99999999999878
 51
270.00000000000159
  0
LINE
  8
_0-1_作画層１
  6
CONTINUOUS
 62
    7
 10
110.0000001271566
 20
17.5
 11
107.875
 21
17.5
  0
LINE
  8
_0-1_作画層１
  6
CONTINUOUS
 62
    7
 10
116.625
 20
15
 11
114.5
 21
15
  0
LINE
  8
_0-1_作画層１
  6
CONTINUOUS
 62
    7
 10
113.5
 20
11.875
 11
113.5
 21
14
  0
ARC
  8
_0-1_作画層１
  6
CONTINUOUS
 62
    7
 10
114.49999999999997
 20
14.000000000000028
 40
0.9999999999999783
 50
89.99999999999838
 51
180.00000000000122
  0
LINE
  8
_0-1_作画層１
  6
CONTINUOUS
 62
    7
 10
111
 20
18.499999999999986
 11
111
 21
20.625
  0
LINE
  8
_0-1_作画層１
  6
CONTINUOUS
 62
    7
 10
111
 20
14.000000000000014
 11
111
 21
11.875
  0
LINE
  8
_0-1_作画層１
  6
CONTINUOUS
 62
    7
 10
113.5
 20
18.499999999999986
 11
113.5
 21
20.625
  0
CIRCLE
  8
_0-1_作画層１
  6
CONTINUOUS
 62
    7
 10
129.75
 20
16.25
 40
5
  0
LINE
  8
_0-1_作画層１
  6
CONTINUOUS
 62
    7
 10
128.5
 20
20.625
 11
131
 21
20.625
  0
LINE
  8
_0-1_作画層１
  6
CONTINUOUS
 62
    7
 10
131
 20
11.875
 11
128.5
 21
11.875
  0
LINE
  8
_0-1_作画層１
  6
CONTINUOUS
 62
    7
 10
134.125
 20
17.5
 11
134.125
 21
15
  0
LINE
  8
_0-1_作画層１
  6
CONTINUOUS
 62
    7
 10
125.375
 20
15
 11
125.375
 21
17.5
  0
ARC
  8
_0-1_作画層１
  6
CONTINUOUS
 62
    7
 10
127.50000000000003
 20
18.499999999999972
 40
0.9999999999999712
 50
269.99999999999835
 51
0.0000000000012086
  0
LINE
  8
_0-1_作画層１
  6
CONTINUOUS
 62
    7
 10
125.375
 20
15
 11
127.5
 21
15
  0
ARC
  8
_0-1_作画層１
  6
CONTINUOUS
 62
    7
 10
127.50000000000003
 20
14.000000000000028
 40
0.9999999999999783
 50
359.99999999999881
 51
90.00000000000162
  0
LINE
  8
_0-1_作画層１
  6
CONTINUOUS
 62
    7
 10
134.125
 20
17.5
 11
132
 21
17.5
  0
ARC
  8
_0-1_作画層１
  6
CONTINUOUS
 62
    7
 10
131.99999999999997
 20
18.499999999999972
 40
0.9999999999999783
 50
179.99999999999878
 51
270.00000000000159
  0
LINE
  8
_0-1_作画層１
  6
CONTINUOUS
 62
    7
 10
127.5000001271566
 20
17.5
 11
125.375
 21
17.5
  0
LINE
  8
_0-1_作画層１
  6
CONTINUOUS
 62
    7
 10
134.125
 20
15
 11
132
 21
15
  0
LINE
  8
_0-1_作画層１
  6
CONTINUOUS
 62
    7
 10
131
 20
11.875
 11
131
 21
14
  0
ARC
  8
_0-1_作画層１
  6
CONTINUOUS
 62
    7
 10
131.99999999999997
 20
14.000000000000028
 40
0.9999999999999783
 50
89.99999999999838
 51
180.00000000000122
  0
LINE
  8
_0-1_作画層１
  6
CONTINUOUS
 62
    7
 10
128.5
 20
18.499999999999986
 11
128.5
 21
20.625
  0
LINE
  8
_0-1_作画層１
  6
CONTINUOUS
 62
    7
 10
128.5
 20
14.000000000000014
 11
128.5
 21
11.875
  0
LINE
  8
_0-1_作画層１
  6
CONTINUOUS
 62
    7
 10
131
 20
18.499999999999986
 11
131
 21
20.625
  0
CIRCLE
  8
_0-1_作画層１
  6
CONTINUOUS
 62
    7
 10
147.25
 20
16.25
 40
5
  0
LINE
  8
_0-1_作画層１
  6
CONTINUOUS
 62
    7
 10
146
 20
20.625
 11
148.5
 21
20.625
  0
LINE
  8
_0-1_作画層１
  6
CONTINUOUS
 62
    7
 10
148.5
 20
11.875
 11
146
 21
11.875
  0
LINE
  8
_0-1_作画層１
  6
CONTINUOUS
 62
    7
 10
151.625
 20
17.5
 11
151.625
 21
15
  0
LINE
  8
_0-1_作画層１
  6
CONTINUOUS
 62
    7
 10
142.875
 20
15
 11
142.875
 21
17.5
  0
ARC
  8
_0-1_作画層１
  6
CONTINUOUS
 62
    7
 10
145.00000000000003
 20
18.499999999999972
 40
0.9999999999999712
 50
269.99999999999835
 51
0.0000000000012086
  0
LINE
  8
_0-1_作画層１
  6
CONTINUOUS
 62
    7
 10
142.875
 20
15
 11
145
 21
15
  0
ARC
  8
_0-1_作画層１
  6
CONTINUOUS
 62
    7
 10
145.00000000000003
 20
14.000000000000028
 40
0.9999999999999783
 50
359.99999999999881
 51
90.00000000000162
  0
LINE
  8
_0-1_作画層１
  6
CONTINUOUS
 62
    7
 10
151.625
 20
17.5
 11
149.5
 21
17.5
  0
ARC
  8
_0-1_作画層１
  6
CONTINUOUS
 62
    7
 10
149.49999999999997
 20
18.499999999999972
 40
0.9999999999999783
 50
179.99999999999878
 51
270.00000000000159
  0
LINE
  8
_0-1_作画層１
  6
CONTINUOUS
 62
    7
 10
145.0000001271566
 20
17.5
 11
142.875
 21
17.5
  0
LINE
  8
_0-1_作画層１
  6
CONTINUOUS
 62
    7
 10
151.625
 20
15
 11
149.5
 21
15
  0
LINE
  8
_0-1_作画層１
  6
CONTINUOUS
 62
    7
 10
148.5
 20
11.875
 11
148.5
 21
14
  0
ARC
  8
_0-1_作画層１
  6
CONTINUOUS
 62
    7
 10
149.49999999999997
 20
14.000000000000028
 40
0.9999999999999783
 50
89.99999999999838
 51
180.00000000000122
  0
LINE
  8
_0-1_作画層１
  6
CONTINUOUS
 62
    7
 10
146
 20
18.499999999999986
 11
146
 21
20.625
  0
LINE
  8
_0-1_作画層１
  6
CONTINUOUS
 62
    7
 10
146
 20
14.000000000000014
 11
146
 21
11.875
  0
LINE
  8
_0-1_作画層１
  6
CONTINUOUS
 62
    7
 10
148.5
 20
18.499999999999986
 11
148.5
 21
20.625
  0
LINE
  8
_0-1_作画層１
  6
CONTINUOUS
 62
    7
 10
87.25
 20
23.75
 11
154.75
 21
23.75
  0
LINE
  8
_0-1_作画層１
  6
CONTINUOUS
 62
    7
 10
154.75
 20
23.75
 11
154.75
 21
8.75
  0
LINE
  8
_0-1_作画層１
  6
CONTINUOUS
 62
    7
 10
154.75
 20
8.75
 11
87.25
 21
8.75
  0
LINE
  8
_0-1_作画層１
  6
CONTINUOUS
 62
    7
 10
87.25
 20
8.75
 11
87.25
 21
23.75
  0
LINE
  8
_0-1_作画層１
  6
CONTINUOUS
 62
    7
 10
147.25
 20
1.25
 11
159.75
 21
1.25
  0
CIRCLE
  8
_0-1_作画層１
  6
CONTINUOUS
 62
    7
 10
103.5
 20
-6.25
 40
5
  0
ARC
  8
_0-1_作画層１
  6
CONTINUOUS
 62
    7
 10
101.9375
 20
-6.0900255331710866
 40
1.5706680362308238
 50
185.84578235473452
 51
354.15421764526542
  0
ARC
  8
_0-1_作画層１
  6
CONTINUOUS
 62
    7
 10
105.0625
 20
-6.4099744668289418
 40
1.5706680362308283
 50
5.8457823547360706
 51
174.15421764526394
  0
LINE
  8
_0-1_作画層１
  6
CONTINUOUS
 62
    7
 10
98.5
 20
-6.25
 11
94.75
 21
-6.25
  0
LINE
  8
_0-1_作画層１
  6
CONTINUOUS
 62
    7
 10
112.25
 20
-6.25
 11
108.5
 21
-6.25
  0
LINE
  8
_0-1_作画層１
  6
CONTINUOUS
 62
    7
 10
132.25
 20
-6.25
 11
129.75
 21
-6.25
  0
TEXT
  8
_0-7_注記層１
 62
    7
 10
133.75
 20
-8
 40
3.5
 41
1
 50
0
  1
負荷
  0
LINE
  8
_0-1_作画層１
  6
CONTINUOUS
 62
    7
 10
132.25
 20
-8.75
 11
142.25
 21
-8.75
  0
LINE
  8
_0-1_作画層１
  6
CONTINUOUS
 62
    7
 10
142.25
 20
-8.75
 11
142.25
 21
-3.75
  0
LINE
  8
_0-1_作画層１
  6
CONTINUOUS
 62
    7
 10
142.25
 20
-3.75
 11
132.25
 21
-3.75
  0
LINE
  8
_0-1_作画層１
  6
CONTINUOUS
 62
    7
 10
132.25
 20
-3.75
 11
132.25
 21
-8.75
  0
LINE
  8
_0-1_作画層１
  6
CONTINUOUS
 62
    7
 10
142.25
 20
-6.25
 11
159.75
 21
-6.25
  0
CIRCLE
  8
_0-1_作画層１
  6
CONTINUOUS
 62
    7
 10
133.5
 20
38.75
 40
1.25
  0
CIRCLE
  8
_0-1_作画層１
  6
CONTINUOUS
 62
    7
 10
143.5
 20
38.75
 40
1.25
  0
LINE
  8
_0-1_作画層１
  6
CONTINUOUS
 62
    7
 10
132.25
 20
38.75
 11
129.75
 21
38.75
  0
LINE
  8
_0-1_作画層１
  6
CONTINUOUS
 62
    7
 10
144.75
 20
38.75
 11
147.25
 21
38.75
  0
TEXT
  8
_0-7_注記層１
 62
    7
 10
96.5
 20
37
 40
3.5
 41
1
 50
0
  1
内部回路
  0
LINE
  8
_0-1_作画層１
  6
CONTINUOUS
 62
    7
 10
92.25
 20
36.25
 11
114.75
 21
36.25
  0
LINE
  8
_0-1_作画層１
  6
CONTINUOUS
 62
    7
 10
114.75
 20
36.25
 11
114.75
 21
41.25
  0
LINE
  8
_0-1_作画層１
  6
CONTINUOUS
 62
    7
 10
114.75
 20
41.25
 11
92.25
 21
41.25
  0
LINE
  8
_0-1_作画層１
  6
CONTINUOUS
 62
    7
 10
92.25
 20
41.25
 11
92.25
 21
36.25
  0
LINE
  8
_0-1_作画層１
  6
CONTINUOUS
 62
    7
 10
129.75
 20
23.75
 11
129.75
 21
38.75
  0
LINE
  8
_0-1_作画層１
  6
CONTINUOUS
 62
    7
 10
147.25
 20
23.75
 11
147.25
 21
38.75
  0
LINE
  8
_0-1_作画層１
  6
CONTINUOUS
 62
    7
 10
94.75
 20
23.75
 11
94.75
 21
36.25
  0
LINE
  8
_0-1_作画層１
  6
CONTINUOUS
 62
    7
 10
112.25
 20
23.75
 11
112.25
 21
36.25
  0
LINE
  8
_0-1_作画層１
  6
CONTINUOUS
 62
    7
 10
94.75
 20
8.75
 11
94.75
 21
-6.25
  0
LINE
  8
_0-1_作画層１
  6
CONTINUOUS
 62
    7
 10
112.25
 20
8.75
 11
112.25
 21
-6.25
  0
LINE
  8
_0-1_作画層１
  6
CONTINUOUS
 62
    7
 10
147.25
 20
8.75
 11
147.25
 21
1.25
  0
LINE
  8
_0-1_作画層１
  6
CONTINUOUS
 62
    7
 10
129.75
 20
8.75
 11
129.75
 21
-6.25
  0
TEXT
  8
_0-7_注記層１
 62
    7
 10
161
 20
-3.75
 40
3.5
 41
1
 50
0
  1
負荷用電源
  0
LINE
  8
_0-1_作画層１
  6
CONTINUOUS
 62
    7
 10
134.25
 20
39.75
 11
142.25
 21
43.75
  0
TEXT
  8
_0-7_注記層１
 62
    7
 10
132.75
 20
47
 40
3.5
 41
1
 50
0
  1
接点出力
  0
LINE
  8
_0-1_作画層１
  6
CONTINUOUS
 62
    7
 10
94.75
 20
56.25
 11
119.75
 21
56.25
  0
TEXT
  8
_0-7_注記層１
 62
    7
 10
97.25
 20
56.25
 40
5
 41
1
 50
0
  1
端子接続
  0
LINE
  8
_0-1_作画層１
  6
DASHED
 62
    7
 10
167.25
 20
48.75
 11
167.25
 21
16.25
  0
LINE
  8
_0-1_作画層１
  6
DASHED
 62
    7
 10
167.25
 20
16.25
 11
154.75
 21
16.25
  0
LINE
  8
_0-1_作画層１
  6
DASHED
 62
    7
 10
74.75
 20
48.75
 11
74.75
 21
16.25
  0
LINE
  8
_0-1_作画層１
  6
DASHED
 62
    7
 10
74.75
 20
16.25
 11
87.25
 21
16.25
  0
LINE
  8
_0-1_作画層１
  6
DASHDOT
 62
    7
 10
137.42827033996582
 20
81.410724639892578
 11
162.42830276489258
 21
81.410732269287109
  0
LINE
  8
_0-1_作画層１
  6
CONTINUOUS
 62
    7
 10
141.42828369140625
 20
87.410739898681641
 11
141.42828369140625
 21
75.410739898681641
  0
LINE
  8
_0-1_作画層１
  6
CONTINUOUS
 62
    7
 10
141.42828369140625
 20
79.410739898681641
 11
158.42829132080078
 21
79.410755157470703
  0
LINE
  8
_0-1_作画層１
  6
CONTINUOUS
 62
    7
 10
136.42826843261719
 20
78.410724639892578
 11
136.42826843261719
 21
84.410732269287109
  0
LINE
  8
_0-1_作画層１
  6
CONTINUOUS
 62
    7
 10
137.42827033996582
 20
84.410732269287109
 11
137.42827033996582
 21
87.410739898681641
  0
LINE
  8
_0-1_作画層１
  6
CONTINUOUS
 62
    7
 10
136.42826843261719
 20
78.410724639892578
 11
141.42828369140625
 21
78.410724639892578
  0
LINE
  8
_0-1_作画層１
  6
CONTINUOUS
 62
    7
 10
136.42826843261719
 20
79.410724639892578
 11
141.42828369140625
 21
79.410724639892578
  0
LINE
  8
_0-1_作画層１
  6
CONTINUOUS
 62
    7
 10
136.42826843261719
 20
83.410732269287109
 11
141.42828369140625
 21
83.410732269287109
  0
LINE
  8
_0-1_作画層１
  6
CONTINUOUS
 62
    7
 10
136.42826843261719
 20
84.410732269287109
 11
141.42828369140625
 21
84.410732269287109
  0
LINE
  8
_0-1_作画層１
  6
CONTINUOUS
 62
    7
 10
158.42829132080078
 20
85.410732269287109
 11
162.42830276489258
 21
85.410732269287109
  0
LINE
  8
_0-1_作画層１
  6
CONTINUOUS
 62
    7
 10
162.42830276489258
 20
85.410732269287109
 11
162.42830276489258
 21
74.410732269287109
  0
LINE
  8
_0-1_作画層１
  6
CONTINUOUS
 62
    7
 10
158.42829132080078
 20
72.065738677978516
 11
158.42829132080078
 21
70.910747528076172
  0
LINE
  8
_0-1_作画層１
  6
CONTINUOUS
 62
    7
 10
158.42829132080078
 20
74.410732269287109
 11
162.42830276489258
 21
74.410732269287109
  0
LINE
  8
_0-1_作画層１
  6
CONTINUOUS
 62
    7
 10
141.42828369140625
 20
75.410739898681641
 11
158.42829132080078
 21
75.410739898681641
  0
LINE
  8
_0-1_作画層１
  6
CONTINUOUS
 62
    7
 10
137.42827033996582
 20
72.910739898681641
 11
137.42827033996582
 21
78.410724639892578
  0
LINE
  8
_0-1_作画層１
  6
CONTINUOUS
 62
    7
 10
139.42827796936035
 20
70.910739898681641
 11
158.42829132080078
 21
70.910747528076172
  0
LINE
  8
_0-1_作画層１
  6
CONTINUOUS
 62
    7
 10
141.42828369140625
 20
79.410739898681641
 11
158.42829132080078
 21
79.410755157470703
  0
LINE
  8
_0-1_作画層１
  6
CONTINUOUS
 62
    7
 10
163.42828369140625
 20
78.910739898681641
 11
163.42828369140625
 21
83.910732269287109
  0
LINE
  8
_0-1_作画層１
  6
CONTINUOUS
 62
    7
 10
162.42827987670898
 20
78.910739898681641
 11
162.42827987670898
 21
83.910732269287109
  0
LINE
  8
_0-1_作画層１
  6
CONTINUOUS
 62
    7
 10
163.92828369140625
 20
83.910732269287109
 11
162.42827987670898
 21
83.910732269287109
  0
LINE
  8
_0-1_作画層１
  6
CONTINUOUS
 62
    7
 10
164.92828750610352
 20
79.910739898681641
 11
164.92828750610352
 21
82.910724639892578
  0
LINE
  8
_0-1_作画層１
  6
CONTINUOUS
 62
    7
 10
163.92828369140625
 20
78.910739898681641
 11
162.42827987670898
 21
78.910739898681641
  0
LINE
  8
_0-1_作画層１
  6
CONTINUOUS
 62
    7
 10
165.24528121948242
 20
81.410732269287109
 11
162.02925872802734
 21
81.410732269287109
  0
LINE
  8
_0-1_作画層１
  6
CONTINUOUS
 62
    7
 10
158.42829132080078
 20
87.410739898681641
 11
158.42829132080078
 21
72.065738677978516
  0
LINE
  8
_0-1_作画層１
  6
CONTINUOUS
 62
    7
 10
137.42827033996582
 20
87.410739898681641
 11
158.42829132080078
 21
87.410739898681641
  0
ARC
  8
_0-1_作画層１
  6
CONTINUOUS
 62
    7
 10
139.42827796936032
 20
72.910739898681612
 40
1.9999999999999716
 50
179.99999999999918
 51
270.0000000000008
  0
ARC
  8
_0-1_作画層１
  6
CONTINUOUS
 62
    7
 10
163.92828369140628
 20
82.910724639892592
 40
0.9999999999999712
 50
359.9999999999992
 51
90.000000000001634
  0
ARC
  8
_0-1_作画層１
  6
CONTINUOUS
 62
    7
 10
163.92828369140628
 20
79.910739898681626
 40
0.9999999999999853
 50
269.99999999999835
 51
0.0000000000008142
  0
LINE
  8
_0-1_作画層１
  6
CONTINUOUS
 62
    7
 10
241.49999046325684
 20
19.246330261230469
 11
241.49999046325684
 21
19.371337890625
  0
LINE
  8
_0-1_作画層１
  6
CONTINUOUS
 62
    7
 10
241.49999046325684
 20
19.246330261230469
 11
241.49999046325684
 21
19.121334075927734
  0
LINE
  8
_0-1_作画層１
  6
CONTINUOUS
 62
    7
 10
242.4999942779541
 20
19.246330261230469
 11
242.4999942779541
 21
19.121334075927734
  0
LINE
  8
_0-1_作画層１
  6
CONTINUOUS
 62
    7
 10
242.4999942779541
 20
19.246330261230469
 11
242.4999942779541
 21
19.371337890625
  0
LINE
  8
_0-1_作画層１
  6
CONTINUOUS
 62
    7
 10
241.99999237060547
 20
19.746330261230469
 11
242.12499904632568
 21
19.746330261230469
  0
LINE
  8
_0-1_作画層１
  6
CONTINUOUS
 62
    7
 10
241.99999237060547
 20
19.746330261230469
 11
241.87499141693115
 21
19.746330261230469
  0
LINE
  8
_0-1_作画層１
  6
CONTINUOUS
 62
    7
 10
241.99999237060547
 20
18.746326446533203
 11
241.87499141693115
 21
18.746326446533203
  0
LINE
  8
_0-1_作画層１
  6
CONTINUOUS
 62
    7
 10
241.99999237060547
 20
18.746326446533203
 11
242.12499904632568
 21
18.746326446533203
  0
LINE
  8
_0-1_作画層１
  6
CONTINUOUS
 62
    7
 10
241.74999141693115
 20
19.371337890625
 11
241.49999046325684
 21
19.371337890625
  0
LINE
  8
_0-1_作画層１
  6
CONTINUOUS
 62
    7
 10
241.87499141693115
 20
19.496330261230469
 11
241.87499141693115
 21
19.746330261230469
  0
LINE
  8
_0-1_作画層１
  6
CONTINUOUS
 62
    7
 10
242.12499904632568
 20
19.496330261230469
 11
242.12499904632568
 21
19.746330261230469
  0
LINE
  8
_0-1_作画層１
  6
CONTINUOUS
 62
    7
 10
242.24999904632568
 20
19.371337890625
 11
242.4999942779541
 21
19.371337890625
  0
LINE
  8
_0-1_作画層１
  6
CONTINUOUS
 62
    7
 10
242.24999904632568
 20
19.121334075927734
 11
242.4999942779541
 21
19.121334075927734
  0
LINE
  8
_0-1_作画層１
  6
CONTINUOUS
 62
    7
 10
242.12499904632568
 20
18.996330261230469
 11
242.12499904632568
 21
18.746326446533203
  0
LINE
  8
_0-1_作画層１
  6
CONTINUOUS
 62
    7
 10
241.87499141693115
 20
18.996330261230469
 11
241.87499141693115
 21
18.746326446533203
  0
LINE
  8
_0-1_作画層１
  6
CONTINUOUS
 62
    7
 10
241.74999141693115
 20
19.121334075927734
 11
241.49999046325684
 21
19.121334075927734
  0
LINE
  8
_0-1_作画層１
  6
CONTINUOUS
 62
    7
 10
240.24999904632568
 20
13.996337890625
 11
217.24999713897705
 21
13.996337890625
  0
LINE
  8
_0-1_作画層１
  6
CONTINUOUS
 62
    7
 10
243.08578300476074
 20
16.246330261230469
 11
244.5
 21
17.660549163818359
  0
LINE
  8
_0-1_作画層１
  6
CONTINUOUS
 62
    7
 10
214.41421318054199
 20
16.246330261230469
 11
212.99999618530273
 21
17.660549163818359
  0
LINE
  8
_0-1_作画層１
  6
CONTINUOUS
 62
    7
 10
244.5
 20
17.660549163818359
 11
244.5
 21
21.246337890625
  0
LINE
  8
_0-1_作画層１
  6
CONTINUOUS
 62
    7
 10
215.00000190734863
 20
19.246330261230469
 11
215.00000190734863
 21
19.371337890625
  0
LINE
  8
_0-1_作画層１
  6
CONTINUOUS
 62
    7
 10
215.00000190734863
 20
19.246330261230469
 11
215.00000190734863
 21
19.121334075927734
  0
LINE
  8
_0-1_作画層１
  6
CONTINUOUS
 62
    7
 10
216.0000057220459
 20
19.246330261230469
 11
216.0000057220459
 21
19.121334075927734
  0
LINE
  8
_0-1_作画層１
  6
CONTINUOUS
 62
    7
 10
216.0000057220459
 20
19.246330261230469
 11
216.0000057220459
 21
19.371337890625
  0
LINE
  8
_0-1_作画層１
  6
CONTINUOUS
 62
    7
 10
215.50000381469727
 20
19.746330261230469
 11
215.62500476837158
 21
19.746330261230469
  0
LINE
  8
_0-1_作画層１
  6
CONTINUOUS
 62
    7
 10
215.50000381469727
 20
19.746330261230469
 11
215.37499713897705
 21
19.746330261230469
  0
LINE
  8
_0-1_作画層１
  6
CONTINUOUS
 62
    7
 10
215.50000381469727
 20
18.746326446533203
 11
215.37499713897705
 21
18.746326446533203
  0
LINE
  8
_0-1_作画層１
  6
CONTINUOUS
 62
    7
 10
215.50000381469727
 20
18.746326446533203
 11
215.62500476837158
 21
18.746326446533203
  0
LINE
  8
_0-1_作画層１
  6
CONTINUOUS
 62
    7
 10
215.25000286102295
 20
19.371337890625
 11
215.00000190734863
 21
19.371337890625
  0
LINE
  8
_0-1_作画層１
  6
CONTINUOUS
 62
    7
 10
215.37499713897705
 20
19.496330261230469
 11
215.37499713897705
 21
19.746330261230469
  0
LINE
  8
_0-1_作画層１
  6
CONTINUOUS
 62
    7
 10
215.62500476837158
 20
19.496330261230469
 11
215.62500476837158
 21
19.746330261230469
  0
LINE
  8
_0-1_作画層１
  6
CONTINUOUS
 62
    7
 10
215.75000476837158
 20
19.371337890625
 11
216.0000057220459
 21
19.371337890625
  0
LINE
  8
_0-1_作画層１
  6
CONTINUOUS
 62
    7
 10
215.75000476837158
 20
19.121334075927734
 11
216.0000057220459
 21
19.121334075927734
  0
LINE
  8
_0-1_作画層１
  6
CONTINUOUS
 62
    7
 10
215.62500476837158
 20
18.996330261230469
 11
215.62500476837158
 21
18.746326446533203
  0
LINE
  8
_0-1_作画層１
  6
CONTINUOUS
 62
    7
 10
215.37499713897705
 20
18.996330261230469
 11
215.37499713897705
 21
18.746326446533203
  0
LINE
  8
_0-1_作画層１
  6
CONTINUOUS
 62
    7
 10
215.25000286102295
 20
19.121334075927734
 11
215.00000190734863
 21
19.121334075927734
  0
LINE
  8
_0-1_作画層１
  6
CONTINUOUS
 62
    7
 10
214.41421318054199
 20
16.246330261230469
 11
217.24999713897705
 21
16.246330261230469
  0
LINE
  8
_0-1_作画層１
  6
CONTINUOUS
 62
    7
 10
217.24999713897705
 20
16.246330261230469
 11
217.24999713897705
 21
13.996337890625
  0
LINE
  8
_0-1_作画層１
  6
CONTINUOUS
 62
    7
 10
240.24999904632568
 20
16.246330261230469
 11
240.24999904632568
 21
13.996337890625
  0
LINE
  8
_0-1_作画層１
  6
CONTINUOUS
 62
    7
 10
243.08578300476074
 20
16.246330261230469
 11
240.24999904632568
 21
16.246330261230469
  0
LINE
  8
_0-1_作画層１
  6
CONTINUOUS
 62
    7
 10
239.24999523162842
 20
19.996330261230469
 11
218.2499942779541
 21
19.996330261230469
  0
LINE
  8
_0-1_作画層１
  6
CONTINUOUS
 62
    7
 10
218.2499942779541
 20
19.996330261230469
 11
218.2499942779541
 21
14.996341705322266
  0
LINE
  8
_0-1_作画層１
  6
CONTINUOUS
 62
    7
 10
239.24999523162842
 20
14.996341705322266
 11
218.2499942779541
 21
14.996341705322266
  0
LINE
  8
_0-1_作画層１
  6
CONTINUOUS
 62
    7
 10
239.24999523162842
 20
19.996330261230469
 11
239.24999523162842
 21
14.996341705322266
  0
LINE
  8
_0-1_作画層１
  6
CONTINUOUS
 62
    7
 10
212.99999618530273
 20
17.660549163818359
 11
212.99999618530273
 21
21.246337890625
  0
LINE
  8
_0-1_作画層１
  6
CONTINUOUS
 62
    7
 10
213.99999904632568
 20
21.246337890625
 11
213.99999904632568
 21
17.496337890625
  0
LINE
  8
_0-1_作画層１
  6
CONTINUOUS
 62
    7
 10
243.49999713897705
 20
21.246337890625
 11
243.49999713897705
 21
17.496337890625
  0
LINE
  8
_0-1_作画層１
  6
CONTINUOUS
 62
    7
 10
243.49999713897705
 20
17.496337890625
 11
239.24999523162842
 21
17.496337890625
  0
LINE
  8
_0-1_作画層１
  6
CONTINUOUS
 62
    7
 10
218.2499942779541
 20
17.496337890625
 11
213.99999904632568
 21
17.496337890625
  0
LINE
  8
_0-1_作画層１
  6
CONTINUOUS
 62
    7
 10
212.99999618530273
 20
21.246337890625
 11
212.99999618530273
 21
22.499988555908203
  0
LINE
  8
_0-1_作画層１
  6
CONTINUOUS
 62
    7
 10
244.5
 20
21.246337890625
 11
244.5
 21
22.497020721435547
  0
LINE
  8
_0-1_作画層１
  6
CONTINUOUS
 62
    7
 10
213.99999904632568
 20
21.246337890625
 11
243.5
 21
21.246337890625
  0
LINE
  8
_0-1_作画層１
  6
CONTINUOUS
 62
    7
 10
214.01751804351807
 20
21.246337890625
 11
243.5
 21
21.246337890625
  0
CIRCLE
  8
_0-1_作画層１
  6
CONTINUOUS
 62
    7
 10
241.99999237060547
 20
19.246330261230469
 40
0.75
  0
ARC
  8
_0-1_作画層１
  6
CONTINUOUS
 62
    7
 10
241.74999141693115
 20
19.49633026123044
 40
0.1249999999999716
 50
270
 51
0.0000000000130148
  0
ARC
  8
_0-1_作画層１
  6
CONTINUOUS
 62
    7
 10
242.24999904632568
 20
19.49633026123044
 40
0.125
 50
179.99999999998701
 51
270
  0
ARC
  8
_0-1_作画層１
  6
CONTINUOUS
 62
    7
 10
242.24999904632568
 20
18.996330261230497
 40
0.1249999999999716
 50
90
 51
180.00000000001305
  0
ARC
  8
_0-1_作画層１
  6
CONTINUOUS
 62
    7
 10
241.74999141693115
 20
18.996330261230497
 40
0.125
 50
359.99999999998698
 51
89.999999999999986
  0
CIRCLE
  8
_0-1_作画層１
  6
CONTINUOUS
 62
    7
 10
215.50000381469727
 20
19.246330261230469
 40
0.75
  0
ARC
  8
_0-1_作画層１
  6
CONTINUOUS
 62
    7
 10
215.25000286102295
 20
19.49633026123044
 40
0.1249999999999716
 50
270
 51
0.0000000000130148
  0
ARC
  8
_0-1_作画層１
  6
CONTINUOUS
 62
    7
 10
215.75000476837158
 20
19.49633026123044
 40
0.125
 50
179.99999999998701
 51
270
  0
ARC
  8
_0-1_作画層１
  6
CONTINUOUS
 62
    7
 10
215.75000476837158
 20
18.996330261230497
 40
0.1249999999999716
 50
90
 51
180.00000000001305
  0
ARC
  8
_0-1_作画層１
  6
CONTINUOUS
 62
    7
 10
215.25000286102295
 20
18.996330261230497
 40
0.125
 50
359.99999999998698
 51
89.999999999999986
  0
CIRCLE
  8
_0-1_作画層１
  6
CONTINUOUS
 62
    7
 10
236.9999942779541
 20
18.246337890625
 40
0.75
  0
CIRCLE
  8
_0-1_作画層１
  6
CONTINUOUS
 62
    7
 10
231.49999475479126
 20
18.246337890625
 40
0.75
  0
CIRCLE
  8
_0-1_作画層１
  6
CONTINUOUS
 62
    7
 10
226.00000143051147
 20
18.246337890625
 40
0.75
  0
CIRCLE
  8
_0-1_作画層１
  6
CONTINUOUS
 62
    7
 10
220.50000190734863
 20
18.246337890625
 40
0.75
  0
LINE
  8
_0-1_作画層１
  6
CONTINUOUS
 62
    7
 10
247.50000381469727
 20
36.249988555908203
 11
209.99999237060547
 21
36.249988555908203
  0
LINE
  8
_0-1_作画層１
  6
CONTINUOUS
 62
    7
 10
248.50000190734863
 20
35.24998664855957
 11
248.50000190734863
 21
28.249988555908203
  0
LINE
  8
_0-1_作画層１
  6
CONTINUOUS
 62
    7
 10
208.9999942779541
 20
35.24998664855957
 11
208.9999942779541
 21
28.249988555908203
  0
LINE
  8
_0-1_作画層１
  6
CONTINUOUS
 62
    7
 10
209.95000267028809
 20
35.049993515014648
 11
209.95000267028809
 21
35.24998664855957
  0
LINE
  8
_0-1_作画層１
  6
CONTINUOUS
 62
    7
 10
209.95000267028809
 20
35.049993515014648
 11
209.95000267028809
 21
34.850000381469727
  0
LINE
  8
_0-1_作画層１
  6
CONTINUOUS
 62
    7
 10
211.54999923706055
 20
35.049993515014648
 11
211.54999923706055
 21
34.850000381469727
  0
LINE
  8
_0-1_作画層１
  6
CONTINUOUS
 62
    7
 10
211.54999923706055
 20
35.049993515014648
 11
211.54999923706055
 21
35.24998664855957
  0
LINE
  8
_0-1_作画層１
  6
CONTINUOUS
 62
    7
 10
210.75
 20
35.849990844726563
 11
210.94999313354492
 21
35.849990844726563
  0
LINE
  8
_0-1_作画層１
  6
CONTINUOUS
 62
    7
 10
210.75
 20
35.849990844726563
 11
210.55000114440918
 21
35.849990844726563
  0
LINE
  8
_0-1_作画層１
  6
CONTINUOUS
 62
    7
 10
210.75
 20
34.249994277954102
 11
210.55000114440918
 21
34.249994277954102
  0
LINE
  8
_0-1_作画層１
  6
CONTINUOUS
 62
    7
 10
210.75
 20
34.249994277954102
 11
210.94999313354492
 21
34.249994277954102
  0
LINE
  8
_0-1_作画層１
  6
CONTINUOUS
 62
    7
 10
210.35000228881836
 20
35.24998664855957
 11
209.95000267028809
 21
35.24998664855957
  0
LINE
  8
_0-1_作画層１
  6
CONTINUOUS
 62
    7
 10
210.55000114440918
 20
35.449991226196289
 11
210.55000114440918
 21
35.849990844726563
  0
LINE
  8
_0-1_作画層１
  6
CONTINUOUS
 62
    7
 10
210.94999313354492
 20
35.449991226196289
 11
210.94999313354492
 21
35.849990844726563
  0
LINE
  8
_0-1_作画層１
  6
CONTINUOUS
 62
    7
 10
211.14999961853027
 20
35.24998664855957
 11
211.54999923706055
 21
35.24998664855957
  0
LINE
  8
_0-1_作画層１
  6
CONTINUOUS
 62
    7
 10
211.14999961853027
 20
34.850000381469727
 11
211.54999923706055
 21
34.850000381469727
  0
LINE
  8
_0-1_作画層１
  6
CONTINUOUS
 62
    7
 10
210.94999313354492
 20
34.649993896484375
 11
210.94999313354492
 21
34.249994277954102
  0
LINE
  8
_0-1_作画層１
  6
CONTINUOUS
 62
    7
 10
210.55000114440918
 20
34.649993896484375
 11
210.55000114440918
 21
34.249994277954102
  0
LINE
  8
_0-1_作画層１
  6
CONTINUOUS
 62
    7
 10
210.35000228881836
 20
34.850000381469727
 11
209.95000267028809
 21
34.850000381469727
  0
LINE
  8
_0-1_作画層１
  6
CONTINUOUS
 62
    7
 10
209.95000267028809
 20
30.04998779296875
 11
209.95000267028809
 21
30.249994277954102
  0
LINE
  8
_0-1_作画層１
  6
CONTINUOUS
 62
    7
 10
209.95000267028809
 20
30.04998779296875
 11
209.95000267028809
 21
29.850008010864258
  0
LINE
  8
_0-1_作画層１
  6
CONTINUOUS
 62
    7
 10
211.54999923706055
 20
30.04998779296875
 11
211.54999923706055
 21
29.850008010864258
  0
LINE
  8
_0-1_作画層１
  6
CONTINUOUS
 62
    7
 10
211.54999923706055
 20
30.04998779296875
 11
211.54999923706055
 21
30.249994277954102
  0
LINE
  8
_0-1_作画層１
  6
CONTINUOUS
 62
    7
 10
210.75
 20
30.849987030029297
 11
210.94999313354492
 21
30.849987030029297
  0
LINE
  8
_0-1_作画層１
  6
CONTINUOUS
 62
    7
 10
210.75
 20
30.849987030029297
 11
210.55000114440918
 21
30.849987030029297
  0
LINE
  8
_0-1_作画層１
  6
CONTINUOUS
 62
    7
 10
210.75
 20
29.250003814697266
 11
210.55000114440918
 21
29.250003814697266
  0
LINE
  8
_0-1_作画層１
  6
CONTINUOUS
 62
    7
 10
210.75
 20
29.250003814697266
 11
210.94999313354492
 21
29.250003814697266
  0
LINE
  8
_0-1_作画層１
  6
CONTINUOUS
 62
    7
 10
210.35000228881836
 20
30.249994277954102
 11
209.95000267028809
 21
30.249994277954102
  0
LINE
  8
_0-1_作画層１
  6
CONTINUOUS
 62
    7
 10
210.55000114440918
 20
30.450000762939453
 11
210.55000114440918
 21
30.849987030029297
  0
LINE
  8
_0-1_作画層１
  6
CONTINUOUS
 62
    7
 10
210.94999313354492
 20
30.450000762939453
 11
210.94999313354492
 21
30.849987030029297
  0
LINE
  8
_0-1_作画層１
  6
CONTINUOUS
 62
    7
 10
211.14999961853027
 20
30.249994277954102
 11
211.54999923706055
 21
30.249994277954102
  0
LINE
  8
_0-1_作画層１
  6
CONTINUOUS
 62
    7
 10
211.14999961853027
 20
29.850008010864258
 11
211.54999923706055
 21
29.850008010864258
  0
LINE
  8
_0-1_作画層１
  6
CONTINUOUS
 62
    7
 10
210.94999313354492
 20
29.649990081787109
 11
210.94999313354492
 21
29.250003814697266
  0
LINE
  8
_0-1_作画層１
  6
CONTINUOUS
 62
    7
 10
210.55000114440918
 20
29.649990081787109
 11
210.55000114440918
 21
29.250003814697266
  0
LINE
  8
_0-1_作画層１
  6
CONTINUOUS
 62
    7
 10
210.35000228881836
 20
29.850008010864258
 11
209.95000267028809
 21
29.850008010864258
  0
LINE
  8
_0-1_作画層１
  6
CONTINUOUS
 62
    7
 10
245.93782997131348
 20
29.995279312133789
 11
245.93782997131348
 21
30.195285797119141
  0
LINE
  8
_0-1_作画層１
  6
CONTINUOUS
 62
    7
 10
245.93782997131348
 20
29.995279312133789
 11
245.93782997131348
 21
29.795286178588867
  0
LINE
  8
_0-1_作画層１
  6
CONTINUOUS
 62
    7
 10
247.53781890869141
 20
29.995279312133789
 11
247.53781890869141
 21
29.795286178588867
  0
LINE
  8
_0-1_作画層１
  6
CONTINUOUS
 62
    7
 10
247.53781890869141
 20
29.995279312133789
 11
247.53781890869141
 21
30.195285797119141
  0
LINE
  8
_0-1_作画層１
  6
CONTINUOUS
 62
    7
 10
246.73782730102539
 20
30.795276641845703
 11
246.93782615661621
 21
30.795276641845703
  0
LINE
  8
_0-1_作画層１
  6
CONTINUOUS
 62
    7
 10
246.73782730102539
 20
30.795276641845703
 11
246.53782844543457
 21
30.795276641845703
  0
LINE
  8
_0-1_作画層１
  6
CONTINUOUS
 62
    7
 10
246.73782730102539
 20
29.195281982421875
 11
246.53782844543457
 21
29.195281982421875
  0
LINE
  8
_0-1_作画層１
  6
CONTINUOUS
 62
    7
 10
246.73782730102539
 20
29.195281982421875
 11
246.93782615661621
 21
29.195281982421875
  0
LINE
  8
_0-1_作画層１
  6
CONTINUOUS
 62
    7
 10
246.33782196044922
 20
30.195285797119141
 11
245.93782997131348
 21
30.195285797119141
  0
LINE
  8
_0-1_作画層１
  6
CONTINUOUS
 62
    7
 10
246.53782844543457
 20
30.395290374755859
 11
246.53782844543457
 21
30.795276641845703
  0
LINE
  8
_0-1_作画層１
  6
CONTINUOUS
 62
    7
 10
246.93782615661621
 20
30.395290374755859
 11
246.93782615661621
 21
30.795276641845703
  0
LINE
  8
_0-1_作画層１
  6
CONTINUOUS
 62
    7
 10
247.13783264160156
 20
30.195285797119141
 11
247.53781890869141
 21
30.195285797119141
  0
LINE
  8
_0-1_作画層１
  6
CONTINUOUS
 62
    7
 10
247.13783264160156
 20
29.795286178588867
 11
247.53781890869141
 21
29.795286178588867
  0
LINE
  8
_0-1_作画層１
  6
CONTINUOUS
 62
    7
 10
246.93782615661621
 20
29.595281600952148
 11
246.93782615661621
 21
29.195281982421875
  0
LINE
  8
_0-1_作画層１
  6
CONTINUOUS
 62
    7
 10
246.53782844543457
 20
29.595281600952148
 11
246.53782844543457
 21
29.195281982421875
  0
LINE
  8
_0-1_作画層１
  6
CONTINUOUS
 62
    7
 10
246.33782196044922
 20
29.795286178588867
 11
245.93782997131348
 21
29.795286178588867
  0
LINE
  8
_0-1_作画層１
  6
CONTINUOUS
 62
    7
 10
245.93782997131348
 20
34.995283126831055
 11
245.93782997131348
 21
35.195276260375977
  0
LINE
  8
_0-1_作画層１
  6
CONTINUOUS
 62
    7
 10
245.93782997131348
 20
34.995283126831055
 11
245.93782997131348
 21
34.795278549194336
  0
LINE
  8
_0-1_作画層１
  6
CONTINUOUS
 62
    7
 10
247.53781890869141
 20
34.995283126831055
 11
247.53781890869141
 21
34.795278549194336
  0
LINE
  8
_0-1_作画層１
  6
CONTINUOUS
 62
    7
 10
247.53781890869141
 20
34.995283126831055
 11
247.53781890869141
 21
35.195276260375977
  0
LINE
  8
_0-1_作画層１
  6
CONTINUOUS
 62
    7
 10
246.73782730102539
 20
35.795269012451172
 11
246.93782615661621
 21
35.795269012451172
  0
LINE
  8
_0-1_作画層１
  6
CONTINUOUS
 62
    7
 10
246.73782730102539
 20
35.795269012451172
 11
246.53782844543457
 21
35.795269012451172
  0
LINE
  8
_0-1_作画層１
  6
CONTINUOUS
 62
    7
 10
246.73782730102539
 20
34.195285797119141
 11
246.53782844543457
 21
34.195285797119141
  0
LINE
  8
_0-1_作画層１
  6
CONTINUOUS
 62
    7
 10
246.73782730102539
 20
34.195285797119141
 11
246.93782615661621
 21
34.195285797119141
  0
LINE
  8
_0-1_作画層１
  6
CONTINUOUS
 62
    7
 10
246.33782196044922
 20
35.195276260375977
 11
245.93782997131348
 21
35.195276260375977
  0
LINE
  8
_0-1_作画層１
  6
CONTINUOUS
 62
    7
 10
246.53782844543457
 20
35.395282745361328
 11
246.53782844543457
 21
35.795269012451172
  0
LINE
  8
_0-1_作画層１
  6
CONTINUOUS
 62
    7
 10
246.93782615661621
 20
35.395282745361328
 11
246.93782615661621
 21
35.795269012451172
  0
LINE
  8
_0-1_作画層１
  6
CONTINUOUS
 62
    7
 10
247.13783264160156
 20
35.195276260375977
 11
247.53781890869141
 21
35.195276260375977
  0
LINE
  8
_0-1_作画層１
  6
CONTINUOUS
 62
    7
 10
247.13783264160156
 20
34.795278549194336
 11
247.53781890869141
 21
34.795278549194336
  0
LINE
  8
_0-1_作画層１
  6
CONTINUOUS
 62
    7
 10
246.93782615661621
 20
34.595272064208984
 11
246.93782615661621
 21
34.195285797119141
  0
LINE
  8
_0-1_作画層１
  6
CONTINUOUS
 62
    7
 10
246.53782844543457
 20
34.595272064208984
 11
246.53782844543457
 21
34.195285797119141
  0
LINE
  8
_0-1_作画層１
  6
CONTINUOUS
 62
    7
 10
246.33782196044922
 20
34.795278549194336
 11
245.93782997131348
 21
34.795278549194336
  0
ARC
  8
_0-1_作画層１
  6
CONTINUOUS
 62
    7
 10
209.99999237060547
 20
35.249986648559585
 40
0.9999999999999853
 50
90
 51
180.00000000000082
  0
ARC
  8
_0-1_作画層１
  6
CONTINUOUS
 62
    7
 10
247.50000381469727
 20
35.249986648559585
 40
1
 50
359.9999999999992
 51
89.999999999999986
  0
CIRCLE
  8
_0-1_作画層１
  6
CONTINUOUS
 62
    7
 10
210.75
 20
35.049993515014648
 40
1.2000000476837158
  0
ARC
  8
_0-1_作画層１
  6
CONTINUOUS
 62
    7
 10
210.3500022888183
 20
35.449991226196317
 40
0.2000000029802606
 50
270.00000000001626
 51
359.99999999999187
  0
ARC
  8
_0-1_作画層１
  6
CONTINUOUS
 62
    7
 10
211.14999961853033
 20
35.449991226196317
 40
0.2000000029802891
 50
180.00000000000816
 51
269.99999999998369
  0
ARC
  8
_0-1_作画層１
  6
CONTINUOUS
 62
    7
 10
211.14999961853033
 20
34.649993896484347
 40
0.2000000029802606
 50
90.000000000016286
 51
179.99999999999184
  0
ARC
  8
_0-1_作画層１
  6
CONTINUOUS
 62
    7
 10
210.3500022888183
 20
34.649993896484347
 40
0.2000000029802891
 50
0.0000000000081422
 51
89.999999999983714
  0
CIRCLE
  8
_0-1_作画層１
  6
CONTINUOUS
 62
    7
 10
210.75
 20
30.04998779296875
 40
1.2000000476837158
  0
ARC
  8
_0-1_作画層１
  6
CONTINUOUS
 62
    7
 10
210.3500022888183
 20
30.450000762939482
 40
0.2000000029802606
 50
270.00000000001626
 51
359.99999999999187
  0
ARC
  8
_0-1_作画層１
  6
CONTINUOUS
 62
    7
 10
211.14999961853033
 20
30.450000762939482
 40
0.2000000029802891
 50
180.00000000000816
 51
269.99999999998369
  0
ARC
  8
_0-1_作画層１
  6
CONTINUOUS
 62
    7
 10
211.14999961853033
 20
29.649990081787081
 40
0.2000000029802606
 50
90.000000000016286
 51
179.99999999999184
  0
ARC
  8
_0-1_作画層１
  6
CONTINUOUS
 62
    7
 10
210.3500022888183
 20
29.649990081787081
 40
0.2000000029802891
 50
0.0000000000081422
 51
89.999999999983714
  0
CIRCLE
  8
_0-1_作画層１
  6
CONTINUOUS
 62
    7
 10
246.73782730102539
 20
29.995279312133789
 40
1.2000000476837158
  0
ARC
  8
_0-1_作画層１
  6
CONTINUOUS
 62
    7
 10
246.33782196044916
 20
30.395290374755888
 40
0.2000000029802606
 50
270.00000000001626
 51
359.99999999999187
  0
ARC
  8
_0-1_作画層１
  6
CONTINUOUS
 62
    7
 10
247.13783264160162
 20
30.395290374755888
 40
0.2000000029802891
 50
180.00000000000816
 51
269.99999999998369
  0
ARC
  8
_0-1_作画層１
  6
CONTINUOUS
 62
    7
 10
247.13783264160162
 20
29.59528160095212
 40
0.2000000029802606
 50
90.000000000016286
 51
179.99999999999184
  0
ARC
  8
_0-1_作画層１
  6
CONTINUOUS
 62
    7
 10
246.33782196044916
 20
29.59528160095212
 40
0.2000000029802891
 50
0.0000000000081422
 51
89.999999999983714
  0
CIRCLE
  8
_0-1_作画層１
  6
CONTINUOUS
 62
    7
 10
246.73782730102539
 20
34.995283126831055
 40
1.2000000476837158
  0
ARC
  8
_0-1_作画層１
  6
CONTINUOUS
 62
    7
 10
246.33782196044916
 20
35.395282745361357
 40
0.2000000029802606
 50
270.00000000001626
 51
359.99999999999187
  0
ARC
  8
_0-1_作画層１
  6
CONTINUOUS
 62
    7
 10
247.13783264160162
 20
35.395282745361357
 40
0.2000000029802891
 50
180.00000000000816
 51
269.99999999998369
  0
ARC
  8
_0-1_作画層１
  6
CONTINUOUS
 62
    7
 10
247.13783264160162
 20
34.595272064208956
 40
0.2000000029802606
 50
90.000000000016286
 51
179.99999999999184
  0
ARC
  8
_0-1_作画層１
  6
CONTINUOUS
 62
    7
 10
246.33782196044916
 20
34.595272064208956
 40
0.2000000029802891
 50
0.0000000000081422
 51
89.999999999983714
  0
INSERT
  2
-009-_D9
  8
_0-9_寸法線層１
 10
-55.25
 20
-38.75
 41
1
 42
1
 50
0
  0
INSERT
  2
-010-_D10
  8
_0-9_寸法線層１
 10
-55.25
 20
-38.75
 41
1
 42
1
 50
0
  0
TEXT
  8
_0-7_注記層１
 62
    7
 10
284.75
 20
8.75
 40
5
 41
1
 50
0
  1
 1/2
  0
LINE
  8
_0-1_作画層１
  6
CONTINUOUS
 62
    7
 10
282.25
 20
8.75
 11
299.75
 21
8.75
  0
TEXT
  8
_0-7_注記層１
 62
    7
 10
140.9161237785016
 20
160.24297638436488
 40
2.5
 41
1
 50
90
  1
スナオ電気株式会社
  0
TEXT
  8
_0-7_注記層１
 62
    7
 10
145.9161237785016
 20
160.24297638436488
 40
2.5
 41
1
 50
90
  1
AC250V 7A
  0
LINE
  8
_0-1_作画層１
  6
CONTINUOUS
 62
    7
 10
17.75
 20
-1.5001030900191097
 11
17.75
 21
31.812290575294611
  0
LINE
  8
_0-1_作画層１
  6
CONTINUOUS
 62
    7
 10
3.7499980926513672
 20
-7.8136311509321956
 11
-1.2499904632568359
 21
-7.8136311509321956
  0
LINE
  8
_0-1_作画層１
  6
CONTINUOUS
 62
    7
 10
3.7499980926513672
 20
-8.8136349656294612
 11
-1.2499904632568359
 21
-8.8136349656294612
  0
LINE
  8
_0-1_作画層１
  6
CONTINUOUS
 62
    7
 10
-1.2499904632568359
 20
-7.3136425950239925
 11
-1.2499904632568359
 21
-8.8136349656294612
  0
LINE
  8
_0-1_作画層１
  6
CONTINUOUS
 62
    7
 10
2.7499971389770508
 20
-6.3136216141890316
 11
-0.2499885559082031
 21
-6.3136216141890316
  0
LINE
  8
_0-1_作画層１
  6
CONTINUOUS
 62
    7
 10
3.7499980926513672
 20
-7.3136425950239925
 11
3.7499980926513672
 21
-8.8136349656294612
  0
LINE
  8
_0-1_作画層１
  6
CONTINUOUS
 62
    7
 10
14.749995946884155
 20
-7.8136311509321956
 11
9.7500066757202148
 21
-7.8136311509321956
  0
LINE
  8
_0-1_作画層１
  6
CONTINUOUS
 62
    7
 10
14.749995946884155
 20
-8.8136349656294612
 11
9.7500066757202148
 21
-8.8136349656294612
  0
LINE
  8
_0-1_作画層１
  6
CONTINUOUS
 62
    7
 10
9.7500066757202148
 20
-7.3136425950239925
 11
9.7500066757202148
 21
-8.8136349656294612
  0
LINE
  8
_0-1_作画層１
  6
CONTINUOUS
 62
    7
 10
13.74999475479126
 20
-6.3136216141890316
 11
10.750008106231689
 21
-6.3136216141890316
  0
LINE
  8
_0-1_作画層１
  6
CONTINUOUS
 62
    7
 10
14.749995946884155
 20
-7.3136425950239925
 11
14.749995946884155
 21
-8.8136349656294612
  0
LINE
  8
_0-1_作画層１
  6
CONTINUOUS
 62
    7
 10
36.749990463256822
 20
-7.8136311509321956
 11
31.750001907348619
 21
-7.8136311509321956
  0
LINE
  8
_0-1_作画層１
  6
CONTINUOUS
 62
    7
 10
31.750001907348619
 20
-7.3136425950239925
 11
31.750001907348619
 21
-8.8136349656294612
  0
LINE
  8
_0-1_作画層１
  6
CONTINUOUS
 62
    7
 10
35.749988555908189
 20
-6.3136216141890316
 11
32.750002861022935
 21
-6.3136216141890316
  0
LINE
  8
_0-1_作画層１
  6
CONTINUOUS
 62
    7
 10
36.749990463256822
 20
-7.3136425950239925
 11
36.749990463256822
 21
-8.8136349656294612
  0
LINE
  8
_0-1_作画層１
  6
CONTINUOUS
 62
    7
 10
25.749993324279771
 20
-7.8136311509321956
 11
20.750004053115831
 21
-7.8136311509321956
  0
LINE
  8
_0-1_作画層１
  6
CONTINUOUS
 62
    7
 10
25.749993324279771
 20
-8.8136349656294612
 11
20.750004053115831
 21
-8.8136349656294612
  0
LINE
  8
_0-1_作画層１
  6
CONTINUOUS
 62
    7
 10
20.750004053115831
 20
-7.3136425950239925
 11
20.750004053115831
 21
-8.8136349656294612
  0
LINE
  8
_0-1_作画層１
  6
CONTINUOUS
 62
    7
 10
24.749991893768296
 20
-6.3136216141890316
 11
21.750005245208726
 21
-6.3136216141890316
  0
LINE
  8
_0-1_作画層１
  6
CONTINUOUS
 62
    7
 10
25.749993324279771
 20
-7.3136425950239925
 11
25.749993324279771
 21
-8.8136349656294612
  0
LINE
  8
_0-1_作画層１
  6
CONTINUOUS
 62
    7
 10
38.500005722045884
 20
-8.8136349656294612
 11
31.750001907348619
 21
-8.8136349656294612
  0
LINE
  8
_0-1_作画層１
  6
CONTINUOUS
 62
    7
 10
-3.0000057220458984
 20
-8.8136349656294612
 11
5.4999961853027344
 21
-8.8136349656294612
  0
LINE
  8
_0-1_作画層１
  6
CONTINUOUS
 62
    7
 10
-3.0000057220458984
 20
-10.31362733623493
 11
5.4999961853027344
 21
-10.31362733623493
  0
LINE
  8
_0-1_作画層１
  6
CONTINUOUS
 62
    7
 10
-3.0000057220458984
 20
-11.31362733623493
 11
5.4999961853027344
 21
-11.31362733623493
  0
LINE
  8
_0-1_作画層１
  6
CONTINUOUS
 62
    7
 10
7.9999914169311523
 20
-8.8136349656294612
 11
16.499993920326233
 21
-8.8136349656294612
  0
LINE
  8
_0-1_作画層１
  6
CONTINUOUS
 62
    7
 10
7.9999914169311523
 20
-10.31362733623493
 11
16.499993920326233
 21
-10.31362733623493
  0
LINE
  8
_0-1_作画層１
  6
CONTINUOUS
 62
    7
 10
7.9999914169311523
 20
-11.31362733623493
 11
16.499993920326233
 21
-11.31362733623493
  0
LINE
  8
_0-1_作画層１
  6
CONTINUOUS
 62
    7
 10
19.000006079673767
 20
-8.8136349656294612
 11
27.500008583068833
 21
-8.8136349656294612
  0
LINE
  8
_0-1_作画層１
  6
CONTINUOUS
 62
    7
 10
30.000003814697251
 20
-8.8136349656294612
 11
38.500005722045884
 21
-8.8136349656294612
  0
LINE
  8
_0-1_作画層１
  6
CONTINUOUS
 62
    7
 10
19.000006079673767
 20
-10.31362733623493
 11
27.500008583068833
 21
-10.31362733623493
  0
LINE
  8
_0-1_作画層１
  6
CONTINUOUS
 62
    7
 10
30.000003814697251
 20
-10.31362733623493
 11
38.500005722045884
 21
-10.31362733623493
  0
LINE
  8
_0-1_作画層１
  6
CONTINUOUS
 62
    7
 10
19.000006079673767
 20
-11.31362733623493
 11
27.500008583068833
 21
-11.31362733623493
  0
LINE
  8
_0-1_作画層１
  6
CONTINUOUS
 62
    7
 10
30.000003814697251
 20
-11.31362733623493
 11
38.500005722045884
 21
-11.31362733623493
  0
LINE
  8
_0-1_作画層１
  6
CONTINUOUS
 62
    7
 10
41.250005722045884
 20
-19.313638780326727
 11
-5.7500057220458984
 21
-19.313638780326727
  0
LINE
  8
_0-1_作画層１
  6
CONTINUOUS
 62
    7
 10
41.250005722045884
 20
-19.313638780326727
 11
49.249998092651353
 21
-19.313638780326727
  0
LINE
  8
_0-1_作画層１
  6
CONTINUOUS
 62
    7
 10
-5.7500057220458984
 20
-19.313638780326727
 11
-13.749998092651367
 21
-19.313638780326727
  0
LINE
  8
_0-1_作画層１
  6
CONTINUOUS
 62
    7
 10
-11.250003814697266
 20
-20.313642595023992
 11
-6.2500152587890625
 21
-20.313642595023992
  0
LINE
  8
_0-1_作画層１
  6
CONTINUOUS
 62
    7
 10
-11.250003814697266
 20
-19.313638780326727
 11
-6.2500152587890625
 21
-19.313638780326727
  0
LINE
  8
_0-1_作画層１
  6
CONTINUOUS
 62
    7
 10
-6.2500152587890625
 20
-20.813650224418524
 11
-6.2500152587890625
 21
-19.313638780326727
  0
LINE
  8
_0-1_作画層１
  6
CONTINUOUS
 62
    7
 10
-10.250003814697266
 20
-21.813634965629461
 11
-7.2500171661376953
 21
-21.813634965629461
  0
LINE
  8
_0-1_作画層１
  6
CONTINUOUS
 62
    7
 10
-11.250003814697266
 20
-20.813650224418524
 11
-11.250003814697266
 21
-19.313638780326727
  0
LINE
  8
_0-1_作画層１
  6
CONTINUOUS
 62
    7
 10
41.749980926513658
 20
-20.313642595023992
 11
46.749986648559556
 21
-20.313642595023992
  0
LINE
  8
_0-1_作画層１
  6
CONTINUOUS
 62
    7
 10
41.749980926513658
 20
-19.313638780326727
 11
46.749986648559556
 21
-19.313638780326727
  0
LINE
  8
_0-1_作画層１
  6
CONTINUOUS
 62
    7
 10
46.749986648559556
 20
-20.813650224418524
 11
46.749986648559556
 21
-19.313638780326727
  0
LINE
  8
_0-1_作画層１
  6
CONTINUOUS
 62
    7
 10
42.749980926513658
 20
-21.813634965629461
 11
45.749967575073228
 21
-21.813634965629461
  0
LINE
  8
_0-1_作画層１
  6
CONTINUOUS
 62
    7
 10
41.749980926513658
 20
-20.813650224418524
 11
41.749980926513658
 21
-19.313638780326727
  0
LINE
  8
_0-1_作画層１
  6
CONTINUOUS
 62
    7
 10
-13.250007629394531
 20
4.6863936446000309
 11
-13.250007629394531
 21
5.6863936446000309
  0
LINE
  8
_0-1_作画層１
  6
CONTINUOUS
 62
    7
 10
-13.250007629394531
 20
5.6863936446000309
 11
-4.2500114440917969
 21
5.6863936446000309
  0
LINE
  8
_0-1_作画層１
  6
CONTINUOUS
 62
    7
 10
-4.2500114440917969
 20
4.6863936446000309
 11
-4.2500114440917969
 21
5.6863936446000309
  0
LINE
  8
_0-1_作画層１
  6
CONTINUOUS
 62
    7
 10
-13.250007629394531
 20
4.6863936446000309
 11
-7.7611885070800781
 21
4.6863936446000309
  0
LINE
  8
_0-1_作画層１
  6
CONTINUOUS
 62
    7
 10
-7.7611885070800781
 20
4.6863936446000309
 11
-4.2500114440917969
 21
4.6863936446000309
  0
LINE
  8
_0-1_作画層１
  6
CONTINUOUS
 62
    7
 10
38.500005722045884
 20
-22.813634965629461
 11
-3.0000057220458984
 21
-22.813634965629461
  0
LINE
  8
_0-1_作画層１
  6
CONTINUOUS
 62
    7
 10
-3.0000057220458984
 20
-19.313638780326727
 11
-3.0000057220458984
 21
-22.813634965629461
  0
LINE
  8
_0-1_作画層１
  6
CONTINUOUS
 62
    7
 10
38.500005722045884
 20
-19.313638780326727
 11
38.500005722045884
 21
-22.813634965629461
  0
LINE
  8
_0-1_作画層１
  6
CONTINUOUS
 62
    7
 10
-5.0000095367431641
 20
5.6863936446000309
 11
-12.500009536743164
 21
5.6863936446000309
  0
LINE
  8
_0-1_作画層１
  6
CONTINUOUS
 62
    7
 10
-12.500009536743164
 20
7.9364012739945622
 11
-12.500009536743164
 21
5.6863936446000309
  0
LINE
  8
_0-1_作画層１
  6
CONTINUOUS
 62
    7
 10
-6.5000190734863281
 20
9.4363955519486638
 11
-11
 21
9.4363955519486638
  0
LINE
  8
_0-1_作画層１
  6
CONTINUOUS
 62
    7
 10
-5.0000095367431641
 20
7.9364012739945622
 11
-5.0000095367431641
 21
5.6863936446000309
  0
ARC
  8
_0-1_作画層１
  6
CONTINUOUS
 62
    7
 10
-0.2499885559082031
 20
-7.3136425950239925
 40
1
 50
90
 51
180
  0
ARC
  8
_0-1_作画層１
  6
CONTINUOUS
 62
    7
 10
2.7499971389770508
 20
-7.3136425950239925
 40
1
 50
0.0000000000002036
 51
90
  0
ARC
  8
_0-1_作画層１
  6
CONTINUOUS
 62
    7
 10
10.750008106231661
 20
-7.3136425950239783
 40
0.9999999999999893
 50
89.99999999999919
 51
180.0000000000006
  0
ARC
  8
_0-1_作画層１
  6
CONTINUOUS
 62
    7
 10
13.74999475479126
 20
-7.3136425950239925
 40
0.9999999999999853
 50
359.9999999999996
 51
90.000000000000782
  0
ARC
  8
_0-1_作画層１
  6
CONTINUOUS
 62
    7
 10
32.750002861022921
 20
-7.3136425950239783
 40
0.9999999999999893
 50
89.99999999999919
 51
180.0000000000006
  0
ARC
  8
_0-1_作画層１
  6
CONTINUOUS
 62
    7
 10
35.74998855590816
 20
-7.3136425950240067
 40
1.0000000000000284
 50
0.0000000000010178
 51
89.999999999998352
  0
ARC
  8
_0-1_作画層１
  6
CONTINUOUS
 62
    7
 10
21.750005245208712
 20
-7.3136425950239783
 40
0.9999999999999893
 50
89.99999999999919
 51
180.0000000000006
  0
ARC
  8
_0-1_作画層１
  6
CONTINUOUS
 62
    7
 10
24.749991893768311
 20
-7.3136425950239925
 40
0.9999999999999853
 50
359.9999999999996
 51
90.000000000000782
  0
ARC
  8
_0-1_作画層１
  6
CONTINUOUS
 62
    7
 10
-7.2500171661376953
 20
-20.813650224418524
 40
1.0000000000000036
 50
270
 51
359.99999999999977
  0
ARC
  8
_0-1_作画層１
  6
CONTINUOUS
 62
    7
 10
-10.250003814697266
 20
-20.813650224418524
 40
1
 50
180.0000000000002
 51
270
  0
ARC
  8
_0-1_作画層１
  6
CONTINUOUS
 62
    7
 10
45.7499675750732
 20
-20.81365022441851
 40
1.0000000000000178
 50
270.00000000000159
 51
359.99999999999898
  0
ARC
  8
_0-1_作画層１
  6
CONTINUOUS
 62
    7
 10
42.749980926513686
 20
-20.81365022441851
 40
1.0000000000000284
 50
180.00000000000105
 51
269.99999999999835
  0
ARC
  8
_0-1_作画層１
  6
CONTINUOUS
 62
    7
 10
-11.000000000000028
 20
7.9364012739945622
 40
1.4999999999999929
 50
89.99999999999973
 51
180.00000000000026
  0
ARC
  8
_0-1_作画層１
  6
CONTINUOUS
 62
    7
 10
-6.5000190734863281
 20
7.9364012739945622
 40
1.4999999999999929
 50
359.99999999999977
 51
90.00000000000027
  0
LINE
  8
_0-1_作画層１
  6
CONTINUOUS
 62
    7
 10
-17.250005722045955
 20
10.749988555908232
 11
52.750005722045884
 21
10.749988555908232
  0
LINE
  8
_0-1_作画層１
  6
CONTINUOUS
 62
    7
 10
-16.249998092651367
 20
-11.813623521537664
 11
-3.0000057220458984
 21
-11.813623521537664
  0
LINE
  8
_0-1_作画層１
  6
CONTINUOUS
 62
    7
 10
-16.249998092651367
 20
4.6863802931596013
 11
-16.249998092651367
 21
-11.813623521537664
  0
LINE
  8
_0-1_作画層１
  6
CONTINUOUS
 62
    7
 10
-13.749998092651367
 20
-11.813623521537664
 11
-13.749998092651367
 21
-19.313638780326727
  0
LINE
  8
_0-1_作画層１
  6
CONTINUOUS
 62
    7
 10
16.499993920326233
 20
-11.813623521537664
 11
19.000006079673767
 21
-11.813623521537664
  0
LINE
  8
_0-1_作画層１
  6
CONTINUOUS
 62
    7
 10
5.4999961853027344
 20
-11.813623521537664
 11
7.9999914169311523
 21
-11.813623521537664
  0
LINE
  8
_0-1_作画層１
  6
CONTINUOUS
 62
    7
 10
27.500008583068833
 20
-11.813623521537664
 11
30.000003814697251
 21
-11.813623521537664
  0
LINE
  8
_0-1_作画層１
  6
CONTINUOUS
 62
    7
 10
-5.7500057220458984
 20
-11.813623521537664
 11
-5.7500057220458984
 21
-19.313638780326727
  0
LINE
  8
_0-1_作画層１
  6
CONTINUOUS
 62
    7
 10
-7.2500057220458984
 20
-11.813623521537664
 11
-7.2500057220458984
 21
4.6863936446000309
  0
LINE
  8
_0-1_作画層１
  6
CONTINUOUS
 62
    7
 10
-3.0000057220458984
 20
-12.813623521537664
 11
-3.0000057220458984
 21
-6.3136197068403987
  0
ARC
  8
_0-1_作画層１
  6
CONTINUOUS
 62
    7
 10
-2.0000057220458984
 20
-6.3136197068403987
 40
1
 50
90
 51
180
  0
LINE
  8
_0-1_作画層１
  6
CONTINUOUS
 62
    7
 10
-2.0000057220458984
 20
-5.3136197068403987
 11
4.4999961853027344
 21
-5.3136197068403987
  0
LINE
  8
_0-1_作画層１
  6
CONTINUOUS
 62
    7
 10
5.4999961853027344
 20
-12.813623521537664
 11
5.4999961853027344
 21
-6.3136197068403987
  0
ARC
  8
_0-1_作画層１
  6
CONTINUOUS
 62
    7
 10
4.4999961853027344
 20
-6.3136197068403987
 40
1
 50
0
 51
90
  0
LINE
  8
_0-1_作画層１
  6
CONTINUOUS
 62
    7
 10
7.9999914169311523
 20
-12.813623521537664
 11
7.9999914169311523
 21
-6.3136197068403987
  0
ARC
  8
_0-1_作画層１
  6
CONTINUOUS
 62
    7
 10
8.9999914169311523
 20
-6.3136197068403987
 40
1
 50
90
 51
180
  0
LINE
  8
_0-1_作画層１
  6
CONTINUOUS
 62
    7
 10
8.9999914169311523
 20
-5.3136197068403987
 11
15.499993920326233
 21
-5.3136197068403987
  0
LINE
  8
_0-1_作画層１
  6
CONTINUOUS
 62
    7
 10
16.499993920326233
 20
-12.813623521537664
 11
16.499993920326233
 21
-6.3136197068403987
  0
ARC
  8
_0-1_作画層１
  6
CONTINUOUS
 62
    7
 10
15.499993920326233
 20
-6.3136197068403845
 40
0.9999999999999853
 50
359.9999999999992
 51
90.000000000000782
  0
LINE
  8
_0-1_作画層１
  6
CONTINUOUS
 62
    7
 10
19.000006079673767
 20
-12.813623521537664
 11
19.000006079673767
 21
-6.3136197068403987
  0
ARC
  8
_0-1_作画層１
  6
CONTINUOUS
 62
    7
 10
20.000006079673739
 20
-6.3136197068403845
 40
0.9999999999999853
 50
89.99999999999919
 51
180.0000000000008
  0
LINE
  8
_0-1_作画層１
  6
CONTINUOUS
 62
    7
 10
20.000006079673767
 20
-5.3136197068403987
 11
26.500008583068833
 21
-5.3136197068403987
  0
LINE
  8
_0-1_作画層１
  6
CONTINUOUS
 62
    7
 10
27.500008583068833
 20
-12.813623521537664
 11
27.500008583068833
 21
-6.3136197068403987
  0
ARC
  8
_0-1_作画層１
  6
CONTINUOUS
 62
    7
 10
26.500008583068848
 20
-6.3136197068403845
 40
0.9999999999999853
 50
359.9999999999992
 51
90.000000000000782
  0
LINE
  8
_0-1_作画層１
  6
CONTINUOUS
 62
    7
 10
30.000003814697251
 20
-12.813623521537664
 11
30.000003814697251
 21
-6.3136197068403987
  0
ARC
  8
_0-1_作画層１
  6
CONTINUOUS
 62
    7
 10
31.000003814697237
 20
-6.3136197068403845
 40
0.9999999999999853
 50
89.99999999999919
 51
180.0000000000008
  0
LINE
  8
_0-1_作画層１
  6
CONTINUOUS
 62
    7
 10
31.000003814697251
 20
-5.3136197068403987
 11
37.500005722045884
 21
-5.3136197068403987
  0
LINE
  8
_0-1_作画層１
  6
CONTINUOUS
 62
    7
 10
38.500005722045884
 20
-12.813623521537664
 11
38.500005722045884
 21
-6.3136197068403987
  0
ARC
  8
_0-1_作画層１
  6
CONTINUOUS
 62
    7
 10
37.500005722045898
 20
-6.3136197068403845
 40
0.9999999999999853
 50
359.9999999999992
 51
90.000000000000782
  0
LINE
  8
_0-1_作画層１
  6
CONTINUOUS
 62
    7
 10
51.749998092651367
 20
4.6863802931596013
 11
-16.249998092651367
 21
4.6863802931596013
  0
LINE
  8
_0-1_作画層１
  6
CONTINUOUS
 62
    7
 10
51.749998092651353
 20
-12.813623521537664
 11
51.749998092651367
 21
4.6863802931596013
  0
LINE
  8
_0-1_作画層１
  6
CONTINUOUS
 62
    7
 10
42.750005722045884
 20
-12.813623521537664
 11
42.750005722045898
 21
4.6863936446000309
  0
LINE
  8
_0-1_作画層１
  6
CONTINUOUS
 62
    7
 10
41.250005722045884
 20
-12.813623521537664
 11
41.250005722045884
 21
-19.313638780326727
  0
LINE
  8
_0-1_作画層１
  6
CONTINUOUS
 62
    7
 10
49.249998092651353
 20
-12.813623521537664
 11
49.249998092651339
 21
-19.313638780326755
  0
LINE
  8
_0-1_作画層１
  6
CONTINUOUS
 62
    7
 10
46.749986648559556
 20
5.6863822005082341
 11
41.749980926513658
 21
5.6863822005082341
  0
LINE
  8
_0-1_作画層１
  6
CONTINUOUS
 62
    7
 10
41.749980926513658
 20
6.1863917372513981
 11
41.749980926513658
 21
4.6863802931596013
  0
LINE
  8
_0-1_作画層１
  6
CONTINUOUS
 62
    7
 10
45.749967575073228
 20
7.1863745711137028
 11
42.749980926513658
 21
7.1863745711137028
  0
LINE
  8
_0-1_作画層１
  6
CONTINUOUS
 62
    7
 10
46.749986648559556
 20
6.1863917372513981
 11
46.749986648559556
 21
4.6863802931596013
  0
ARC
  8
_0-1_作画層１
  6
CONTINUOUS
 62
    7
 10
42.749980926513686
 20
6.1863917372513839
 40
1.0000000000000142
 50
90.000000000001634
 51
179.99999999999918
  0
ARC
  8
_0-1_作画層１
  6
CONTINUOUS
 62
    7
 10
45.7499675750732
 20
6.1863917372513839
 40
1.0000000000000284
 50
0.0000000000008142
 51
89.99999999999838
  0
LINE
  8
_0-1_作画層１
  6
CONTINUOUS
 62
    7
 10
30.000003814697251
 20
-12.813623521537664
 11
51.749998092651367
 21
-12.813623521537664
  0
LINE
  8
_0-1_作画層１
  6
CONTINUOUS
 62
    7
 10
19.000006079673767
 20
-12.813623521537664
 11
27.500008583068833
 21
-12.813623521537664
  0
LINE
  8
_0-1_作画層１
  6
CONTINUOUS
 62
    7
 10
7.9999914169311523
 20
-12.813623521537664
 11
16.499993920326233
 21
-12.813623521537664
  0
LINE
  8
_0-1_作画層１
  6
CONTINUOUS
 62
    7
 10
5.4999961853027344
 20
-12.813623521537664
 11
-3.0000057220458984
 21
-12.813623521537664
  0
TEXT
  8
_0-7_注記層１
 62
    7
 10
5
 20
6.25
 40
3.5
 41
1
 50
0
  1
電源　　  負荷
  0
LINE
  8
_0-1_作画層１
  6
CONTINUOUS
 62
    7
 10
-1.5
 20
6.875
 11
0.375
 21
6.875
  0
LINE
  8
_0-1_作画層１
  6
CONTINUOUS
 62
    7
 10
-0.875
 20
6.25
 11
-0.25
 21
6.25
  0
LINE
  8
_0-1_作画層１
  6
CONTINUOUS
 62
    7
 10
-2.125
 20
7.5
 11
1
 21
7.5
  0
LINE
  8
_0-1_作画層１
  6
CONTINUOUS
 62
    7
 10
-0.5625
 20
7.5
 11
-0.5625
 21
9.375
  0
TEXT
  8
_0-7_注記層１
 62
    7
 10
244.75
 20
214.5
 40
3.5
 41
1
 50
0
  1
AC100V
  0
TEXT
  8
_0-7_注記層１
 62
    7
 10
132.69112377850161
 20
144.61797638436488
 40
2.2999999999999998
 41
1
 50
90
  1
カレンダータイマー　　　ET-100S
  0
TEXT
  8
_0-7_注記層１
 62
    7
 10
134.99112377850162
 20
144.61797638436488
 40
2.2999999999999998
 41
1
 50
90
  1
操作電圧　　AC100V     50/60Hz共用
  0
TEXT
  8
_0-7_注記層１
 62
    7
 10
244.75
 20
141
 40
3.5
 41
1
 50
0
  1
端子台カバー、（赤）（白）色設定子各３個
  0
TEXT
  8
_0-7_注記層１
 62
    7
 10
98.75
 20
-15.5
 40
3.5
 41
1
 50
0
  1
電源
  0
TEXT
  8
_0-7_注記層１
 62
    7
 10
97
 20
-19
 40
3.5
 41
1
 50
0
  1
AC100V
  0
LINE
  8
_0-1_作画層１
  6
CONTINUOUS
 62
    7
 10
241.11000022888186
 20
61.000003814697266
 11
241.11000022888186
 21
61.160009002685541
  0
LINE
  8
_0-1_作画層１
  6
CONTINUOUS
 62
    7
 10
241.11000022888186
 20
61.000003814697266
 11
241.11000022888186
 21
60.840009307861322
  0
LINE
  8
_0-1_作画層１
  6
CONTINUOUS
 62
    7
 10
242.3899913787842
 20
61.000003814697266
 11
242.3899913787842
 21
60.840009307861322
  0
LINE
  8
_0-1_作画層１
  6
CONTINUOUS
 62
    7
 10
242.3899913787842
 20
61.000003814697266
 11
242.3899913787842
 21
61.160009002685541
  0
LINE
  8
_0-1_作画層１
  6
CONTINUOUS
 62
    7
 10
241.74999809265137
 20
61.640003204345703
 11
241.90999717712401
 21
61.640003204345703
  0
LINE
  8
_0-1_作画層１
  6
CONTINUOUS
 62
    7
 10
241.74999809265137
 20
61.640003204345703
 11
241.58999900817872
 21
61.640003204345703
  0
LINE
  8
_0-1_作画層１
  6
CONTINUOUS
 62
    7
 10
241.74999809265137
 20
60.360005950927729
 11
241.58999900817872
 21
60.360005950927729
  0
LINE
  8
_0-1_作画層１
  6
CONTINUOUS
 62
    7
 10
241.74999809265137
 20
60.360005950927729
 11
241.90999717712401
 21
60.360005950927729
  0
LINE
  8
_0-1_作画層１
  6
CONTINUOUS
 62
    7
 10
241.42999382019042
 20
61.160009002685541
 11
241.11000022888186
 21
61.160009002685541
  0
LINE
  8
_0-1_作画層１
  6
CONTINUOUS
 62
    7
 10
241.58999900817872
 20
61.320012664794916
 11
241.58999900817872
 21
61.640003204345703
  0
LINE
  8
_0-1_作画層１
  6
CONTINUOUS
 62
    7
 10
241.90999717712401
 20
61.320012664794916
 11
241.90999717712401
 21
61.640003204345703
  0
LINE
  8
_0-1_作画層１
  6
CONTINUOUS
 62
    7
 10
242.07000236511232
 20
61.160009002685541
 11
242.3899913787842
 21
61.160009002685541
  0
LINE
  8
_0-1_作画層１
  6
CONTINUOUS
 62
    7
 10
242.07000236511232
 20
60.840009307861322
 11
242.3899913787842
 21
60.840009307861322
  0
LINE
  8
_0-1_作画層１
  6
CONTINUOUS
 62
    7
 10
241.90999717712401
 20
60.680005645751947
 11
241.90999717712401
 21
60.360005950927729
  0
LINE
  8
_0-1_作画層１
  6
CONTINUOUS
 62
    7
 10
241.58999900817872
 20
60.680005645751947
 11
241.58999900817872
 21
60.360005950927729
  0
LINE
  8
_0-1_作画層１
  6
CONTINUOUS
 62
    7
 10
241.42999382019042
 20
60.840009307861322
 11
241.11000022888186
 21
60.840009307861322
  0
CIRCLE
  8
_0-1_作画層１
  6
CONTINUOUS
 62
    7
 10
241.74999809265137
 20
61.000003814697266
 40
0.9600000381469725
  0
ARC
  8
_0-1_作画層１
  6
CONTINUOUS
 62
    7
 10
241.42999382019042
 20
61.320012664794916
 40
0.1600000023841801
 50
270
 51
0
  0
ARC
  8
_0-1_作画層１
  6
CONTINUOUS
 62
    7
 10
242.07000236511226
 20
61.32001266479493
 40
0.1600000023841517
 50
180.00000000000512
 51
270.00000000002035
  0
ARC
  8
_0-1_作画層１
  6
CONTINUOUS
 62
    7
 10
242.07000236511232
 20
60.680005645751947
 40
0.1600000023841942
 50
90
 51
180
  0
ARC
  8
_0-1_作画層１
  6
CONTINUOUS
 62
    7
 10
241.42999382019048
 20
60.680005645751947
 40
0.1600000023841517
 50
0
 51
90.000000000020364
  0
TEXT
  8
_0-7_注記層１
 62
    7
 10
282.25
 20
-16.25
 40
4
 41
1
 50
0
  1
平野
  0
TEXT
  8
_0-7_注記層１
 62
    7
 10
244.75
 20
209.5
 40
3.5
 41
1
 50
0
  1
AC85V～AC115V
  0
TEXT
  8
_0-7_注記層１
 62
    7
 10
244.75
 20
204.5
 40
3.5
 41
1
 50
0
  1
50Hz/60Hz共用(切換)
  0
TEXT
  8
_0-7_注記層１
 62
    7
 10
244.75
 20
189.5
 40
3.5
 41
1
 50
0
  1
35%RH～85％RH
  0
TEXT
  8
_0-7_注記層１
 62
    7
 10
244.75
 20
174.5
 40
3.5
 41
1
 50
0
  1
48回　ON-OFF動作
  0
TEXT
  8
_0-7_注記層１
 62
    7
 10
244.75
 20
149.5
 40
3.5
 41
1
 50
0
  1
H155×W96×D70mm
  0
TEXT
  8
_0-7_注記層１
 62
    7
 10
244.75
 20
144.5
 40
3.5
 41
1
 50
0
  1
前面カバー、取付けビス３本
  0
TEXT
  8
_0-7_注記層１
 62
    7
 10
211
 20
-15.5
 40
3.5
 41
1
 50
0
  1
2020.04.22
  0
TEXT
  8
_0-7_注記層１
 62
    7
 10
211
 20
-7.5000000000000142
 40
3.5
 41
1
 50
0
  1
2020.04.22：〇削除
  0
ENDSEC
  0
EOF
