  0
SECTION
  2
HEADER
  9
$ACADVER
  1
AC1009
  9
$INSBASE
 10
0
 20
0
 30
0
  9
$EXTMIN
 10
0
 20
0
  9
$EXTMAX
 10
420
 20
297
  9
$LIMMIN
 10
0
 20
0
  9
$LIMMAX
 10
420
 20
297
  9
$LTSCALE
 40
1
  0
ENDSEC
  0
SECTION
  2
TABLES
  0
TABLE
  2
LTYPE
 70
     9
  0
LTYPE
  2
CONTINUOUS
 70
    64
  3
実線
 72
    65
 73
     0
 40
0.0
  0
LTYPE
  2
DASHED1
 70
    64
  3
--  --  --  --  --  --  --  --  
 72
    65
 73
     2
 40
2.5
 49
1.25
 49
-1.25
  0
LTYPE
  2
DASHED2
 70
    64
  3
----    ----    ----    ----    
 72
    65
 73
     2
 40
5.0
 49
2.5
 49
-2.5
  0
LTYPE
  2
DASHED3
 70
    64
  3
------  ------  ------  ------  
 72
    65
 73
     2
 40
5.0
 49
3.75
 49
-1.25
  0
LTYPE
  2
CENTER1
 70
    64
  3
----- - ----- - ----- - ----- - 
 72
    65
 73
     4
 40
10.0
 49
6.25
 49
-1.25
 49
1.25
 49
-1.25
  0
LTYPE
  2
CENTER2
 70
    64
  3
----------  --  ----------  --  
 72
    65
 73
     4
 40
20.0
 49
12.5
 49
-2.5
 49
2.5
 49
-2.5
  0
LTYPE
  2
PHANTOM1
 70
    64
  3
--- - - --- - - --- - - --- - - 
 72
    65
 73
     6
 40
10.0
 49
3.25
 49
-1.25
 49
1.25
 49
-1.25
 49
1.25
 49
-1.25
  0
LTYPE
  2
PHANTOM2
 70
    64
  3
--------  -  -  --------  -  -  
 72
    65
 73
     6
 40
20.0
 49
10.0
 49
-2.5
 49
1.25
 49
-2.5
 49
1.25
 49
-2.5
  0
LTYPE
  2
DOT
 70
    64
  3
-   -   -   -   -   -   -   -   
 72
    65
 73
     2
 40
2.5
 49
0.625
 49
-1.875
  0
LTYPE
  2
DUMMY
 70
    64
  3
ダミー
 72
    65
 73
     0
 40
0.0
  0
LTYPE
  2
RAND1
 70
    64
  3
ランダム線1
 72
    65
 73
     4
 40
10.0
 49
1.0
 49
-2.0
 49
3.0
 49
-4.0
  0
LTYPE
  2
RAND2
 70
    64
  3
ランダム線2
 72
    65
 73
     4
 40
14.0
 49
2.0
 49
-3.0
 49
4.0
 49
-5.0
  0
LTYPE
  2
RAND3
 70
    64
  3
ランダム線3
 72
    65
 73
     4
 40
18.0
 49
3.0
 49
-4.0
 49
5.0
 49
-6.0
  0
LTYPE
  2
RAND4
 70
    64
  3
ランダム線4
 72
    65
 73
     4
 40
22.0
 49
4.0
 49
-5.0
 49
6.0
 49
-7.0
  0
LTYPE
  2
RAND5
 70
    64
  3
ランダム線5
 72
    65
 73
     4
 40
26.0
 49
5.0
 49
-6.0
 49
7.0
 49
-8.0
  0
LTYPE
  2
LONG1
 70
    64
  3
----------  --  ----------  --  
 72
    65
 73
     4
 40
40.0
 49
32.5
 49
-2.5
 49
2.5
 49
-2.5
  0
LTYPE
  2
LONG2
 70
    64
  3
--------  -  -  --------  -  -  
 72
    65
 73
     6
 40
40.0
 49
30.0
 49
-2.5
 49
1.25
 49
-2.5
 49
1.25
 49
-2.5
  0
LTYPE
  2
LONG3
 70
    64
  3
+++++++++++++++..+++++++++++++++
 72
    65
 73
     2
 40
40.0
 49
37.5
 49
-2.5
  0
LTYPE
  2
LONG4
 70
    64
  3
+++++++++++++++..+++++++++++++++
 72
    65
 73
     2
 40
80.0
 49
75.0
 49
-5.0
  0
LTYPE
  2
LONG5
 70
    64
  3
----------  --  ----------  --  
 72
    65
 73
     4
 40
60.0
 49
37.5
 49
-7.5
 49
7.5
 49
-7.5
  0
LTYPE
  2
dashed
 70
   64
  3
-------   -------------   ------
 72
   65
 73
    2
 40
7.5
 49
6
 49
-1.5
  0
LTYPE
  2
dashed_spaced
 70
   64
  3
----        --------        ----
 72
   65
 73
    2
 40
12
 49
6
 49
-6
  0
LTYPE
  2
long_dashed_dotted
 70
   64
  3
------------- --- --------------
 72
   65
 73
    4
 40
15.25
 49
12
 49
-1.5
 49
0.25
 49
-1.5
  0
LTYPE
  2
long_dashed_double-dotted
 70
   64
  3
----------- --- --- ------------
 72
   65
 73
    6
 40
17
 49
12
 49
-1.5
 49
0.25
 49
-1.5
 49
0.25
 49
-1.5
  0
LTYPE
  2
long_dashed_triplicate-dotted
 70
   64
  3
--------- --- --- --- ----------
 72
   65
 73
    8
 40
18.75
 49
12
 49
-1.5
 49
0.25
 49
-1.5
 49
0.25
 49
-1.5
 49
0.25
 49
-1.5
  0
LTYPE
  2
dotted
 70
   64
  3
   -       -       -       -    
 72
   65
 73
    2
 40
1.75
 49
0.25
 49
-1.5
  0
LTYPE
  2
chain
 70
   64
  3
-------------- -- --------------
 72
   65
 73
    4
 40
18.5
 49
12
 49
-1.5
 49
3.5
 49
-1.5
  0
LTYPE
  2
chain_double_dash
 70
   64
  3
------------ -- -- -------------
 72
   65
 73
    6
 40
23.5
 49
12
 49
-1.5
 49
3.5
 49
-1.5
 49
3.5
 49
-1.5
  0
LTYPE
  2
dashed_dotted
 70
   64
  3
-----------     -     ----------
 72
   65
 73
    4
 40
9.25
 49
6
 49
-1.5
 49
0.25
 49
-1.5
  0
LTYPE
  2
double-dashed_dotted
 70
   64
  3
------   -----------   -   -----
 72
   65
 73
    6
 40
16.75
 49
6
 49
-1.5
 49
6
 49
-1.5
 49
0.25
 49
-1.5
  0
LTYPE
  2
dashed_double-dotted
 70
   64
  3
---------    -    -    ---------
 72
   65
 73
    6
 40
11
 49
6
 49
-1.5
 49
0.25
 49
-1.5
 49
0.25
 49
-1.5
  0
LTYPE
  2
double-dashed_double-dotted
 70
   64
  3
-----   ---------   -   -   ----
 72
   65
 73
    8
 40
18.5
 49
6
 49
-1.5
 49
6
 49
-1.5
 49
0.25
 49
-1.5
 49
0.25
 49
-1.5
  0
LTYPE
  2
dashed_triplicate-dotted
 70
   64
  3
-------    -    -    -    ------
 72
   65
 73
    8
 40
12.75
 49
6
 49
-1.5
 49
0.25
 49
-1.5
 49
0.25
 49
-1.5
 49
0.25
 49
-1.5
  0
LTYPE
  2
double-dashed_triplicate-dotted
 70
   64
  3
-----  ---------  -  -  -  -----
 72
   65
 73
   10
 40
20.25
 49
6
 49
-1.5
 49
6
 49
-1.5
 49
0.25
 49
-1.5
 49
0.25
 49
-1.5
 49
0.25
 49
-1.5
  0
LTYPE
  2
undefined
 70
   64
  3
--------------------------------
 72
   65
 73
    0
 40
0
  0
LTYPE
  2
DASHED
 70
   64
  3
----        --------        ----
 72
   65
 73
    2
 40
4
 49
2
 49
-2
  0
LTYPE
  2
DOT_18
 70
   64
  3
---           -----           --
 72
   65
 73
    2
 40
3
 49
1
 49
-2
  0
LTYPE
  2
DASHDOT
 70
   64
  3
---------    ------    ---------
 72
   65
 73
    4
 40
17
 49
10
 49
-2
 49
3
 49
-2
  0
LTYPE
  2
DIVIDE
 70
   64
  3
-----------  --  --  -----------
 72
   65
 73
    6
 40
30
 49
20
 49
-2
 49
2
 49
-2
 49
2
 49
-2
  0
LTYPE
  2
CENTER
 70
   64
  3
-------------  --  -------------
 72
   65
 73
    4
 40
13
 49
10
 49
-1
 49
1
 49
-1
  0
LTYPE
  2
_
 70
   64
  3
                                
 72
   65
 73
    0
 40
0
  0
LTYPE
  2
__23
 70
   64
  3
                                
 72
   65
 73
    0
 40
0
  0
LTYPE
  2
__24
 70
   64
  3
                                
 72
   65
 73
    0
 40
0
  0
LTYPE
  2
__25
 70
   64
  3
                                
 72
   65
 73
    0
 40
0
  0
LTYPE
  2
__26
 70
   64
  3
                                
 72
   65
 73
    0
 40
0
  0
LTYPE
  2
__27
 70
   64
  3
                                
 72
   65
 73
    0
 40
0
  0
LTYPE
  2
__28
 70
   64
  3
                                
 72
   65
 73
    0
 40
0
  0
LTYPE
  2
__29
 70
   64
  3
                                
 72
   65
 73
    0
 40
0
  0
LTYPE
  2
__30
 70
   64
  3
                                
 72
   65
 73
    0
 40
0
  0
LTYPE
  2
__31
 70
   64
  3
                                
 72
   65
 73
    0
 40
0
  0
LTYPE
  2
__32
 70
   64
  3
                                
 72
   65
 73
    0
 40
0
  0
ENDTAB
  0
TABLE
  2
STYLE
  5
3
100
AcDbSymbolTable
 70
     1
  0
STYLE
  5
10
100
AcDbSymbolTableRecord
100
AcDbTextStyleTableRecord
  2
STANDARD
 70
     0
 40
0.0
 41
1.0
 50
0.0
 71
     0
 42
0.2
  3
txt
  4
bigfont.shx
  0
STYLE
  5
26
100
AcDbSymbolTableRecord
100
AcDbTextStyleTableRecord
  2
TATEGAKI
 70
    68
 40
0.0
 41
1.0
 50
0.0
 71
     0
 42
1.0
  3
txt
  4
bigfont.shx
  0
ENDTAB
  0
TABLE
  2
LAYER
 70
    5
  0
LAYER
  2
_0-1_作画層１
 70
   64
 62
    7
  6
CONTINUOUS
  0
LAYER
  2
_0-7_注記層１
 70
   64
 62
    7
  6
CONTINUOUS
  0
LAYER
  2
_0-9_寸法線層１
 70
   64
 62
    7
  6
CONTINUOUS
  0
LAYER
  2
_0-d_0_1
 70
   64
 62
    7
  6
CONTINUOUS
  0
LAYER
  2
ADD_LINE
 70
   64
 62
    7
  6
CONTINUOUS
  0
ENDTAB
  0
ENDSEC
  0
SECTION
  2
BLOCKS
  0
ENDSEC
  0
SECTION
  2
ENTITIES
  0
TEXT
  8
_0-7_注記層１
 62
    7
 10
271.25
 20
263
 40
3.5
 41
1
 50
0
  1
型　　 　番
  0
TEXT
  8
_0-7_注記層１
 62
    7
 10
271.25
 20
253
 40
3.5
 41
1
 50
0
  1
許容電圧変動範囲
  0
TEXT
  8
_0-7_注記層１
 62
    7
 10
271.25
 20
248
 40
3.5
 41
1
 50
0
  1
周　　波　　数
  0
TEXT
  8
_0-7_注記層１
 62
    7
 10
271.25
 20
243
 40
3.5
 41
1
 50
0
  1
停　電　補　償
  0
TEXT
  8
_0-7_注記層１
 62
    7
 10
271.25
 20
258
 40
3.5
 41
1
 50
0
  1
電  源  電  圧
  0
TEXT
  8
_0-7_注記層１
 62
    7
 10
268.75
 20
272.25
 40
5
 41
1
 50
0
  1
規　格
  0
LINE
  8
_0-1_作画層１
  6
CONTINUOUS
 62
    7
 10
266.25
 20
272.25
 11
286.25
 21
272.25
  0
TEXT
  8
_0-7_注記層１
 62
    7
 10
301.125
 20
28
 40
3.5
 41
1
 50
0
  1
1/1
  0
TEXT
  8
_0-7_注記層１
 62
    7
 10
335.25
 20
30.5
 40
3.5
 41
1
 50
0
  1
承認
  0
LINE
  8
_0-1_作画層１
  6
CONTINUOUS
 62
    7
 10
268.75
 20
34.75
 11
268.75
 21
14.75
  0
LINE
  8
_0-1_作画層１
  6
CONTINUOUS
 62
    7
 10
293.75
 20
34.75
 11
293.75
 21
24.75
  0
LINE
  8
_0-1_作画層１
  6
CONTINUOUS
 62
    7
 10
313.75
 20
34.75
 11
313.75
 21
24.75
  0
LINE
  8
_0-1_作画層１
  6
CONTINUOUS
 62
    7
 10
333.75
 20
34.75
 11
333.75
 21
24.75
  0
LINE
  8
_0-1_作画層１
  6
CONTINUOUS
 62
    7
 10
358.75
 20
14.75
 11
358.75
 21
34.75
  0
LINE
  8
_0-1_作画層１
  6
CONTINUOUS
 62
    7
 10
413.75
 20
292.25
 11
16.25
 21
292.25
  0
LINE
  8
_0-1_作画層１
  6
CONTINUOUS
 62
    7
 10
16.25
 20
14.75
 11
16.25
 21
292.25
  0
LINE
  8
_0-1_作画層１
  6
CONTINUOUS
 62
    7
 10
413.75
 20
14.75
 11
16.25
 21
14.75
  0
LINE
  8
_0-1_作画層１
  6
CONTINUOUS
 62
    7
 10
413.75
 20
34.75
 11
268.75
 21
34.75
  0
LINE
  8
_0-1_作画層１
  6
CONTINUOUS
 62
    7
 10
413.75
 20
24.75
 11
268.75
 21
24.75
  0
LINE
  8
_0-1_作画層１
  6
CONTINUOUS
 62
    7
 10
413.75
 20
14.75
 11
413.75
 21
292.25
  0
TEXT
  8
_0-7_注記層１
 62
    7
 10
318.5
 20
28
 40
3.5
 41
1
 50
0
  1
ゴトウ
  0
LINE
  8
_0-1_作画層１
  6
CONTINUOUS
 62
    7
 10
381.25
 20
267.25
 11
268.75
 21
267.25
  0
LINE
  8
_0-1_作画層１
  6
CONTINUOUS
 62
    7
 10
381.25
 20
262.25
 11
268.75
 21
262.25
  0
LINE
  8
_0-1_作画層１
  6
CONTINUOUS
 62
    7
 10
381.25
 20
257.25
 11
268.75
 21
257.25
  0
LINE
  8
_0-1_作画層１
  6
CONTINUOUS
 62
    7
 10
381.25
 20
252.25
 11
268.75
 21
252.25
  0
LINE
  8
_0-1_作画層１
  6
CONTINUOUS
 62
    7
 10
381.25
 20
247.25
 11
268.75
 21
247.25
  0
LINE
  8
_0-1_作画層１
  6
CONTINUOUS
 62
    7
 10
381.25
 20
242.25
 11
268.75
 21
242.25
  0
TEXT
  8
_0-7_注記層１
 62
    7
 10
43.75
 20
277.25
 40
5
 41
1
 50
0
  1
外形寸法
  0
LINE
  8
_0-1_作画層１
  6
CONTINUOUS
 62
    7
 10
41.25
 20
277.25
 11
66.25
 21
277.25
  0
LINE
  8
_0-d_0_1
  6
CONTINUOUS
 62
    7
 10
223.75
 20
246.74996566772458
 11
225.75000381469727
 21
246.74996566772458
  0
LINE
  8
_0-1_作画層１
  6
CENTER
 62
    7
 10
232.25
 20
222.25
 11
148.75
 21
222.25
  0
LINE
  8
_0-1_作画層１
  6
CONTINUOUS
 62
    7
 10
188.04112377850163
 20
179.36797638436485
 11
218.04112377850163
 21
179.36797638436485
  0
LINE
  8
_0-1_作画層１
  6
CONTINUOUS
 62
    7
 10
218.04112377850163
 20
179.36797638436485
 11
218.04112377850163
 21
239.36797638436485
  0
LINE
  8
_0-1_作画層１
  6
CONTINUOUS
 62
    7
 10
218.04112377850163
 20
239.36797638436485
 11
188.04112377850163
 21
239.36797638436485
  0
LINE
  8
_0-1_作画層１
  6
CONTINUOUS
 62
    7
 10
188.04112377850163
 20
239.36797638436485
 11
188.04112377850163
 21
179.36797638436485
  0
LINE
  8
_0-1_作画層１
  6
CONTINUOUS
 62
    7
 10
199.2911237785016
 20
188.11797638436488
 11
199.2911237785016
 21
230.61797638436488
  0
LINE
  8
_0-1_作画層１
  6
CONTINUOUS
 62
    7
 10
199.2911237785016
 20
230.61797638436488
 11
208.0411237785016
 21
230.61797638436488
  0
LINE
  8
_0-1_作画層１
  6
CONTINUOUS
 62
    7
 10
208.0411237785016
 20
230.61797638436488
 11
208.0411237785016
 21
188.11797638436488
  0
LINE
  8
_0-1_作画層１
  6
CONTINUOUS
 62
    7
 10
208.0411237785016
 20
188.11797638436488
 11
199.2911237785016
 21
188.11797638436488
  0
LINE
  8
_0-1_作画層１
  6
CONTINUOUS
 62
    7
 10
203.6661237785016
 20
192.34132595491533
 11
201.01447334905205
 21
194.99297638436488
  0
LINE
  8
_0-1_作画層１
  6
CONTINUOUS
 62
    7
 10
201.01447334905205
 20
194.99297638436488
 11
203.6661237785016
 21
197.64462681381443
  0
LINE
  8
_0-1_作画層１
  6
CONTINUOUS
 62
    7
 10
203.6661237785016
 20
197.64462681381443
 11
206.31777420795115
 21
194.99297638436488
  0
LINE
  8
_0-1_作画層１
  6
CONTINUOUS
 62
    7
 10
206.31777420795115
 20
194.99297638436488
 11
203.6661237785016
 21
192.34132595491533
  0
TEXT
  8
_0-7_注記層１
 62
    7
 10
203.99112377850159
 20
194.04297638436489
 40
1.8999999999999999
 41
1
 50
90
  1
PS
  0
TEXT
  8
_0-7_注記層１
 62
    7
 10
205.89112377850157
 20
194.51797638436489
 40
1.8999999999999999
 41
1
 50
90
  1
E
  0
TEXT
  8
_0-7_注記層１
 62
    7
 10
207.1661237785016
 20
196.61797638436488
 40
2
 41
1
 50
90
  1
JET
  0
TEXT
  8
_0-7_注記層１
 62
    7
 10
211.69112377850161
 20
188.74297638436488
 40
2.2999999999999998
 41
1
 50
90
  1
製造年月
  0
TEXT
  8
_0-7_注記層１
 62
    7
 10
346.25
 20
52.25
 40
5
 41
1
 50
0
  1
 1/2
  0
LINE
  8
_0-1_作画層１
  6
CONTINUOUS
 62
    7
 10
343.75
 20
52.25
 11
361.25
 21
52.25
  0
TEXT
  8
_0-7_注記層１
 62
    7
 10
271.25
 20
233
 40
3.5
 41
1
 50
0
  1
使 用 周 囲 温 度
  0
TEXT
  8
_0-7_注記層１
 62
    7
 10
271.25
 20
228
 40
3.5
 41
1
 50
0
  1
使 用 周 囲 湿 度
  0
TEXT
  8
_0-7_注記層１
 62
    7
 10
271.25
 20
223
 40
3.5
 41
1
 50
0
  1
接　点　定　格
  0
TEXT
  8
_0-7_注記層１
 62
    7
 10
271.25
 20
218
 40
3.5
 41
1
 50
0
  1
出　　　　　力
  0
TEXT
  8
_0-7_注記層１
 62
    7
 10
271.25
 20
213
 40
3.5
 41
1
 50
0
  1
設　定　回　数
  0
TEXT
  8
_0-7_注記層１
 62
    7
 10
271.25
 20
208
 40
3.5
 41
1
 50
0
  1
最 小 設 定 時 間
  0
TEXT
  8
_0-7_注記層１
 62
    7
 10
271.25
 20
203
 40
3.5
 41
1
 50
0
  1
時　間　精　度
  0
TEXT
  8
_0-7_注記層１
 62
    7
 10
271.25
 20
198
 40
3.5
 41
1
 50
0
  1
消　費　電　力　
  0
TEXT
  8
_0-7_注記層１
 62
    7
 10
271.25
 20
193
 40
3.5
 41
1
 50
0
  1
重　　　  　量
  0
TEXT
  8
_0-7_注記層１
 62
    7
 10
271.25
 20
188
 40
3.5
 41
1
 50
0
  1
外　形　寸　法
  0
TEXT
  8
_0-7_注記層１
 62
    7
 10
271.25
 20
183
 40
3.5
 41
1
 50
0
  1
付　　属　　品
  0
LINE
  8
_0-1_作画層１
  6
CONTINUOUS
 62
    7
 10
381.25
 20
232.25
 11
268.75
 21
232.25
  0
LINE
  8
_0-1_作画層１
  6
CONTINUOUS
 62
    7
 10
381.25
 20
232.25
 11
268.75
 21
232.25
  0
LINE
  8
_0-1_作画層１
  6
CONTINUOUS
 62
    7
 10
381.25
 20
227.25
 11
268.75
 21
227.25
  0
LINE
  8
_0-1_作画層１
  6
CONTINUOUS
 62
    7
 10
381.25
 20
222.25
 11
268.75
 21
222.25
  0
LINE
  8
_0-1_作画層１
  6
CONTINUOUS
 62
    7
 10
381.25
 20
217.25
 11
268.75
 21
217.25
  0
LINE
  8
_0-1_作画層１
  6
CONTINUOUS
 62
    7
 10
381.25
 20
212.25
 11
268.75
 21
212.25
  0
LINE
  8
_0-1_作画層１
  6
CONTINUOUS
 62
    7
 10
381.25
 20
207.25
 11
268.75
 21
207.25
  0
LINE
  8
_0-1_作画層１
  6
CONTINUOUS
 62
    7
 10
381.25
 20
202.25
 11
268.75
 21
202.25
  0
LINE
  8
_0-1_作画層１
  6
CONTINUOUS
 62
    7
 10
381.25
 20
197.25
 11
268.75
 21
197.25
  0
LINE
  8
_0-1_作画層１
  6
CONTINUOUS
 62
    7
 10
381.25
 20
192.25
 11
268.75
 21
192.25
  0
LINE
  8
_0-1_作画層１
  6
CONTINUOUS
 62
    7
 10
381.25
 20
187.25
 11
268.75
 21
187.25
  0
LINE
  8
_0-1_作画層１
  6
CONTINUOUS
 62
    7
 10
381.25
 20
178.5
 11
268.75
 21
178.5
  0
LINE
  8
_0-1_作画層１
  6
CONTINUOUS
 62
    7
 10
381.25
 20
237.25
 11
268.75
 21
237.25
  0
TEXT
  8
_0-7_注記層１
 62
    7
 10
271.25
 20
238
 40
3.5
 41
1
 50
0
  1
充　電　時　間
  0
LINE
  8
_0-1_作画層１
  6
CONTINUOUS
 62
    7
 10
268.75
 20
267.25
 11
268.75
 21
178.5
  0
LINE
  8
_0-1_作画層１
  6
CONTINUOUS
 62
    7
 10
303.75
 20
267.25
 11
303.75
 21
178.5
  0
LINE
  8
_0-1_作画層１
  6
CONTINUOUS
 62
    7
 10
381.25
 20
267.25
 11
381.25
 21
178.5
  0
LINE
  8
_0-1_作画層１
  6
CONTINUOUS
 62
    7
 10
163.75
 20
112.25
 11
188.75
 21
112.25
  0
TEXT
  8
_0-7_注記層１
 62
    7
 10
166.25
 20
112.25
 40
5
 41
1
 50
0
  1
端子接続
  0
TEXT
  8
_0-7_注記層１
 62
    7
 10
306.25
 20
238
 40
3.5
 41
1
 50
0
  1
－
  0
TEXT
  8
_0-7_注記層１
 62
    7
 10
306.25
 20
233
 40
3.5
 41
1
 50
0
  1
-10℃～50℃
  0
TEXT
  8
_0-7_注記層１
 62
    7
 10
273.75
 20
17.25
 40
5
 41
1
 50
0
  1
スナオ電気株式会社
  0
TEXT
  8
_0-7_注記層１
 62
    7
 10
306.25
 20
263
 40
3.5
 41
1
 50
0
  1
FV1D-100S
  0
TEXT
  8
_0-7_注記層１
 62
    7
 10
306.25
 20
223
 40
3.5
 41
1
 50
0
  1
抵抗負荷　AC250V  7A
  0
TEXT
  8
_0-7_注記層１
 62
    7
 10
306.25
 20
218
 40
3.5
 41
1
 50
0
  1
接点出力（1a）
  0
TEXT
  8
_0-7_注記層１
 62
    7
 10
306.25
 20
258
 40
3.5
 41
1
 50
0
  1
AC100V
  0
TEXT
  8
_0-7_注記層１
 62
    7
 10
306.25
 20
208
 40
3.5
 41
1
 50
0
  1
45分
  0
TEXT
  8
_0-7_注記層１
 62
    7
 10
306.25
 20
203
 40
3.5
 41
1
 50
0
  1
電源周波数に同期
  0
TEXT
  8
_0-7_注記層１
 62
    7
 10
306.25
 20
198
 40
3.5
 41
1
 50
0
  1
約5VA
  0
TEXT
  8
_0-7_注記層１
 62
    7
 10
306.25
 20
193
 40
3.5
 41
1
 50
0
  1
530g
  0
CIRCLE
  8
_0-1_作画層１
  6
CONTINUOUS
 62
    7
 10
168.75756702580807
 20
69.76170132798795
 40
5
  0
LINE
  8
_0-1_作画層１
  6
CONTINUOUS
 62
    7
 10
167.50756702580807
 20
74.13670132798795
 11
170.00756702580807
 21
74.13670132798795
  0
LINE
  8
_0-1_作画層１
  6
CONTINUOUS
 62
    7
 10
170.00756702580807
 20
65.38670132798795
 11
167.50756702580807
 21
65.38670132798795
  0
LINE
  8
_0-1_作画層１
  6
CONTINUOUS
 62
    7
 10
173.13256702580807
 20
71.01170132798795
 11
173.13256702580807
 21
68.51170132798795
  0
LINE
  8
_0-1_作画層１
  6
CONTINUOUS
 62
    7
 10
164.38256702580807
 20
68.51170132798795
 11
164.38256702580807
 21
71.01170132798795
  0
ARC
  8
_0-1_作画層１
  6
CONTINUOUS
 62
    7
 10
166.5075670258081
 20
72.011701327987936
 40
0.9999999999999712
 50
269.99999999999835
 51
0.0000000000008142
  0
LINE
  8
_0-1_作画層１
  6
CONTINUOUS
 62
    7
 10
164.38256702580807
 20
68.51170132798795
 11
166.50756702580807
 21
68.51170132798795
  0
ARC
  8
_0-1_作画層１
  6
CONTINUOUS
 62
    7
 10
166.5075670258081
 20
67.511701327987964
 40
0.9999999999999783
 50
359.99999999999881
 51
90.00000000000162
  0
LINE
  8
_0-1_作画層１
  6
CONTINUOUS
 62
    7
 10
173.13256702580807
 20
71.01170132798795
 11
171.00756702580807
 21
71.01170132798795
  0
ARC
  8
_0-1_作画層１
  6
CONTINUOUS
 62
    7
 10
171.00756702580804
 20
72.011701327987936
 40
0.9999999999999853
 50
179.99999999999918
 51
270.00000000000171
  0
LINE
  8
_0-1_作画層１
  6
CONTINUOUS
 62
    7
 10
166.50756715296467
 20
71.01170132798795
 11
164.38256702580807
 21
71.01170132798795
  0
LINE
  8
_0-1_作画層１
  6
CONTINUOUS
 62
    7
 10
173.13256702580807
 20
68.51170132798795
 11
171.00756702580807
 21
68.51170132798795
  0
LINE
  8
_0-1_作画層１
  6
CONTINUOUS
 62
    7
 10
170.00756702580807
 20
65.38670132798795
 11
170.00756702580807
 21
67.51170132798795
  0
ARC
  8
_0-1_作画層１
  6
CONTINUOUS
 62
    7
 10
171.00756702580804
 20
67.511701327987964
 40
0.9999999999999783
 50
89.99999999999838
 51
180.00000000000122
  0
LINE
  8
_0-1_作画層１
  6
CONTINUOUS
 62
    7
 10
167.50756702580807
 20
72.011701327987936
 11
167.50756702580807
 21
74.13670132798795
  0
LINE
  8
_0-1_作画層１
  6
CONTINUOUS
 62
    7
 10
167.50756702580807
 20
67.511701327987964
 11
167.50756702580807
 21
65.38670132798795
  0
LINE
  8
_0-1_作画層１
  6
CONTINUOUS
 62
    7
 10
170.00756702580807
 20
72.011701327987936
 11
170.00756702580807
 21
74.13670132798795
  0
CIRCLE
  8
_0-1_作画層１
  6
CONTINUOUS
 62
    7
 10
186.25756702580807
 20
69.76170132798795
 40
5
  0
LINE
  8
_0-1_作画層１
  6
CONTINUOUS
 62
    7
 10
185.00756702580807
 20
74.13670132798795
 11
187.50756702580807
 21
74.13670132798795
  0
LINE
  8
_0-1_作画層１
  6
CONTINUOUS
 62
    7
 10
187.50756702580807
 20
65.38670132798795
 11
185.00756702580807
 21
65.38670132798795
  0
LINE
  8
_0-1_作画層１
  6
CONTINUOUS
 62
    7
 10
190.63256702580807
 20
71.01170132798795
 11
190.63256702580807
 21
68.51170132798795
  0
LINE
  8
_0-1_作画層１
  6
CONTINUOUS
 62
    7
 10
181.88256702580807
 20
68.51170132798795
 11
181.88256702580807
 21
71.01170132798795
  0
ARC
  8
_0-1_作画層１
  6
CONTINUOUS
 62
    7
 10
184.0075670258081
 20
72.011701327987936
 40
0.9999999999999712
 50
269.99999999999835
 51
0.0000000000008142
  0
LINE
  8
_0-1_作画層１
  6
CONTINUOUS
 62
    7
 10
181.88256702580807
 20
68.51170132798795
 11
184.00756702580807
 21
68.51170132798795
  0
ARC
  8
_0-1_作画層１
  6
CONTINUOUS
 62
    7
 10
184.0075670258081
 20
67.511701327987964
 40
0.9999999999999783
 50
359.99999999999881
 51
90.00000000000162
  0
LINE
  8
_0-1_作画層１
  6
CONTINUOUS
 62
    7
 10
190.63256702580807
 20
71.01170132798795
 11
188.50756702580807
 21
71.01170132798795
  0
ARC
  8
_0-1_作画層１
  6
CONTINUOUS
 62
    7
 10
188.50756702580804
 20
72.011701327987936
 40
0.9999999999999853
 50
179.99999999999918
 51
270.00000000000171
  0
LINE
  8
_0-1_作画層１
  6
CONTINUOUS
 62
    7
 10
184.00756715296467
 20
71.01170132798795
 11
181.88256702580807
 21
71.01170132798795
  0
LINE
  8
_0-1_作画層１
  6
CONTINUOUS
 62
    7
 10
190.63256702580807
 20
68.51170132798795
 11
188.50756702580807
 21
68.51170132798795
  0
LINE
  8
_0-1_作画層１
  6
CONTINUOUS
 62
    7
 10
187.50756702580807
 20
65.38670132798795
 11
187.50756702580807
 21
67.51170132798795
  0
ARC
  8
_0-1_作画層１
  6
CONTINUOUS
 62
    7
 10
188.50756702580804
 20
67.511701327987964
 40
0.9999999999999783
 50
89.99999999999838
 51
180.00000000000122
  0
LINE
  8
_0-1_作画層１
  6
CONTINUOUS
 62
    7
 10
185.00756702580807
 20
72.011701327987936
 11
185.00756702580807
 21
74.13670132798795
  0
LINE
  8
_0-1_作画層１
  6
CONTINUOUS
 62
    7
 10
185.00756702580807
 20
67.511701327987964
 11
185.00756702580807
 21
65.38670132798795
  0
LINE
  8
_0-1_作画層１
  6
CONTINUOUS
 62
    7
 10
187.50756702580807
 20
72.011701327987936
 11
187.50756702580807
 21
74.13670132798795
  0
CIRCLE
  8
_0-1_作画層１
  6
CONTINUOUS
 62
    7
 10
203.75756702580807
 20
69.76170132798795
 40
5
  0
LINE
  8
_0-1_作画層１
  6
CONTINUOUS
 62
    7
 10
202.50756702580807
 20
74.13670132798795
 11
205.00756702580807
 21
74.13670132798795
  0
LINE
  8
_0-1_作画層１
  6
CONTINUOUS
 62
    7
 10
205.00756702580807
 20
65.38670132798795
 11
202.50756702580807
 21
65.38670132798795
  0
LINE
  8
_0-1_作画層１
  6
CONTINUOUS
 62
    7
 10
208.13256702580807
 20
71.01170132798795
 11
208.13256702580807
 21
68.51170132798795
  0
LINE
  8
_0-1_作画層１
  6
CONTINUOUS
 62
    7
 10
199.38256702580807
 20
68.51170132798795
 11
199.38256702580807
 21
71.01170132798795
  0
ARC
  8
_0-1_作画層１
  6
CONTINUOUS
 62
    7
 10
201.5075670258081
 20
72.011701327987936
 40
0.9999999999999712
 50
269.99999999999835
 51
0.0000000000008142
  0
LINE
  8
_0-1_作画層１
  6
CONTINUOUS
 62
    7
 10
199.38256702580807
 20
68.51170132798795
 11
201.50756702580807
 21
68.51170132798795
  0
ARC
  8
_0-1_作画層１
  6
CONTINUOUS
 62
    7
 10
201.5075670258081
 20
67.511701327987964
 40
0.9999999999999783
 50
359.99999999999881
 51
90.00000000000162
  0
LINE
  8
_0-1_作画層１
  6
CONTINUOUS
 62
    7
 10
208.13256702580807
 20
71.01170132798795
 11
206.00756702580807
 21
71.01170132798795
  0
ARC
  8
_0-1_作画層１
  6
CONTINUOUS
 62
    7
 10
206.00756702580804
 20
72.011701327987936
 40
0.9999999999999853
 50
179.99999999999918
 51
270.00000000000171
  0
LINE
  8
_0-1_作画層１
  6
CONTINUOUS
 62
    7
 10
201.50756715296467
 20
71.01170132798795
 11
199.38256702580807
 21
71.01170132798795
  0
LINE
  8
_0-1_作画層１
  6
CONTINUOUS
 62
    7
 10
208.13256702580807
 20
68.51170132798795
 11
206.00756702580807
 21
68.51170132798795
  0
LINE
  8
_0-1_作画層１
  6
CONTINUOUS
 62
    7
 10
205.00756702580807
 20
65.38670132798795
 11
205.00756702580807
 21
67.51170132798795
  0
ARC
  8
_0-1_作画層１
  6
CONTINUOUS
 62
    7
 10
206.00756702580804
 20
67.511701327987964
 40
0.9999999999999783
 50
89.99999999999838
 51
180.00000000000122
  0
LINE
  8
_0-1_作画層１
  6
CONTINUOUS
 62
    7
 10
202.50756702580807
 20
72.011701327987936
 11
202.50756702580807
 21
74.13670132798795
  0
LINE
  8
_0-1_作画層１
  6
CONTINUOUS
 62
    7
 10
202.50756702580807
 20
67.511701327987964
 11
202.50756702580807
 21
65.38670132798795
  0
LINE
  8
_0-1_作画層１
  6
CONTINUOUS
 62
    7
 10
205.00756702580807
 20
72.011701327987936
 11
205.00756702580807
 21
74.13670132798795
  0
CIRCLE
  8
_0-1_作画層１
  6
CONTINUOUS
 62
    7
 10
221.25756702580807
 20
69.76170132798795
 40
5
  0
LINE
  8
_0-1_作画層１
  6
CONTINUOUS
 62
    7
 10
220.00756702580807
 20
74.13670132798795
 11
222.50756702580807
 21
74.13670132798795
  0
LINE
  8
_0-1_作画層１
  6
CONTINUOUS
 62
    7
 10
222.50756702580807
 20
65.38670132798795
 11
220.00756702580807
 21
65.38670132798795
  0
LINE
  8
_0-1_作画層１
  6
CONTINUOUS
 62
    7
 10
225.63256702580807
 20
71.01170132798795
 11
225.63256702580807
 21
68.51170132798795
  0
LINE
  8
_0-1_作画層１
  6
CONTINUOUS
 62
    7
 10
216.88256702580807
 20
68.51170132798795
 11
216.88256702580807
 21
71.01170132798795
  0
ARC
  8
_0-1_作画層１
  6
CONTINUOUS
 62
    7
 10
219.0075670258081
 20
72.011701327987936
 40
0.9999999999999712
 50
269.99999999999835
 51
0.0000000000008142
  0
LINE
  8
_0-1_作画層１
  6
CONTINUOUS
 62
    7
 10
216.88256702580807
 20
68.51170132798795
 11
219.00756702580807
 21
68.51170132798795
  0
ARC
  8
_0-1_作画層１
  6
CONTINUOUS
 62
    7
 10
219.0075670258081
 20
67.511701327987964
 40
0.9999999999999783
 50
359.99999999999881
 51
90.00000000000162
  0
LINE
  8
_0-1_作画層１
  6
CONTINUOUS
 62
    7
 10
225.63256702580807
 20
71.01170132798795
 11
223.50756702580807
 21
71.01170132798795
  0
ARC
  8
_0-1_作画層１
  6
CONTINUOUS
 62
    7
 10
223.50756702580804
 20
72.011701327987936
 40
0.9999999999999853
 50
179.99999999999918
 51
270.00000000000171
  0
LINE
  8
_0-1_作画層１
  6
CONTINUOUS
 62
    7
 10
219.00756715296467
 20
71.01170132798795
 11
216.88256702580807
 21
71.01170132798795
  0
LINE
  8
_0-1_作画層１
  6
CONTINUOUS
 62
    7
 10
225.63256702580807
 20
68.51170132798795
 11
223.50756702580807
 21
68.51170132798795
  0
LINE
  8
_0-1_作画層１
  6
CONTINUOUS
 62
    7
 10
222.50756702580807
 20
65.38670132798795
 11
222.50756702580807
 21
67.51170132798795
  0
ARC
  8
_0-1_作画層１
  6
CONTINUOUS
 62
    7
 10
223.50756702580804
 20
67.511701327987964
 40
0.9999999999999783
 50
89.99999999999838
 51
180.00000000000122
  0
LINE
  8
_0-1_作画層１
  6
CONTINUOUS
 62
    7
 10
220.00756702580807
 20
72.011701327987936
 11
220.00756702580807
 21
74.13670132798795
  0
LINE
  8
_0-1_作画層１
  6
CONTINUOUS
 62
    7
 10
220.00756702580807
 20
67.511701327987964
 11
220.00756702580807
 21
65.38670132798795
  0
LINE
  8
_0-1_作画層１
  6
CONTINUOUS
 62
    7
 10
222.50756702580807
 20
72.011701327987936
 11
222.50756702580807
 21
74.13670132798795
  0
LINE
  8
_0-1_作画層１
  6
CONTINUOUS
 62
    7
 10
161.25756702580807
 20
77.26170132798795
 11
228.75756702580807
 21
77.26170132798795
  0
LINE
  8
_0-1_作画層１
  6
CONTINUOUS
 62
    7
 10
228.75756702580807
 20
77.26170132798795
 11
228.75756702580807
 21
62.26170132798795
  0
LINE
  8
_0-1_作画層１
  6
CONTINUOUS
 62
    7
 10
228.75756702580807
 20
62.26170132798795
 11
161.25756702580807
 21
62.26170132798795
  0
LINE
  8
_0-1_作画層１
  6
CONTINUOUS
 62
    7
 10
161.25756702580807
 20
62.26170132798795
 11
161.25756702580807
 21
77.26170132798795
  0
LINE
  8
_0-1_作画層１
  6
CONTINUOUS
 62
    7
 10
221.25756702580807
 20
54.76170132798795
 11
233.75756702580807
 21
54.76170132798795
  0
CIRCLE
  8
_0-1_作画層１
  6
CONTINUOUS
 62
    7
 10
177.50756702580807
 20
47.26170132798795
 40
5
  0
ARC
  8
_0-1_作画層１
  6
CONTINUOUS
 62
    7
 10
175.9450670258081
 20
47.421675794816849
 40
1.5706680362307956
 50
185.84578235473438
 51
354.15421764526531
  0
ARC
  8
_0-1_作画層１
  6
CONTINUOUS
 62
    7
 10
179.07006702580807
 20
47.101726861158994
 40
1.5706680362308283
 50
5.8457823547360706
 51
174.15421764526394
  0
LINE
  8
_0-1_作画層１
  6
CONTINUOUS
 62
    7
 10
172.50756702580807
 20
47.26170132798795
 11
168.75756702580807
 21
47.26170132798795
  0
LINE
  8
_0-1_作画層１
  6
CONTINUOUS
 62
    7
 10
186.25756702580807
 20
47.26170132798795
 11
182.50756702580807
 21
47.26170132798795
  0
LINE
  8
_0-1_作画層１
  6
CONTINUOUS
 62
    7
 10
206.25756702580807
 20
47.26170132798795
 11
203.75756702580807
 21
47.26170132798795
  0
TEXT
  8
_0-7_注記層１
 62
    7
 10
207.75756702580807
 20
45.51170132798795
 40
3.5
 41
1
 50
0
  1
負荷
  0
LINE
  8
_0-1_作画層１
  6
CONTINUOUS
 62
    7
 10
206.25756702580807
 20
44.76170132798795
 11
216.25756702580807
 21
44.76170132798795
  0
LINE
  8
_0-1_作画層１
  6
CONTINUOUS
 62
    7
 10
216.25756702580807
 20
44.76170132798795
 11
216.25756702580807
 21
49.76170132798795
  0
LINE
  8
_0-1_作画層１
  6
CONTINUOUS
 62
    7
 10
216.25756702580807
 20
49.76170132798795
 11
206.25756702580807
 21
49.76170132798795
  0
LINE
  8
_0-1_作画層１
  6
CONTINUOUS
 62
    7
 10
206.25756702580807
 20
49.76170132798795
 11
206.25756702580807
 21
44.76170132798795
  0
LINE
  8
_0-1_作画層１
  6
CONTINUOUS
 62
    7
 10
216.25756702580807
 20
47.26170132798795
 11
233.75756702580807
 21
47.26170132798795
  0
CIRCLE
  8
_0-1_作画層１
  6
CONTINUOUS
 62
    7
 10
207.50756702580807
 20
92.26170132798795
 40
1.25
  0
CIRCLE
  8
_0-1_作画層１
  6
CONTINUOUS
 62
    7
 10
217.50756702580807
 20
92.26170132798795
 40
1.25
  0
LINE
  8
_0-1_作画層１
  6
CONTINUOUS
 62
    7
 10
206.25756702580807
 20
92.26170132798795
 11
203.75756702580807
 21
92.26170132798795
  0
LINE
  8
_0-1_作画層１
  6
CONTINUOUS
 62
    7
 10
218.75756702580807
 20
92.26170132798795
 11
221.25756702580807
 21
92.26170132798795
  0
TEXT
  8
_0-7_注記層１
 62
    7
 10
170.50756702580807
 20
90.51170132798795
 40
3.5
 41
1
 50
0
  1
内部回路
  0
LINE
  8
_0-1_作画層１
  6
CONTINUOUS
 62
    7
 10
166.25756702580807
 20
89.76170132798795
 11
188.75756702580807
 21
89.76170132798795
  0
LINE
  8
_0-1_作画層１
  6
CONTINUOUS
 62
    7
 10
188.75756702580807
 20
89.76170132798795
 11
188.75756702580807
 21
94.76170132798795
  0
LINE
  8
_0-1_作画層１
  6
CONTINUOUS
 62
    7
 10
188.75756702580807
 20
94.76170132798795
 11
166.25756702580807
 21
94.76170132798795
  0
LINE
  8
_0-1_作画層１
  6
CONTINUOUS
 62
    7
 10
166.25756702580807
 20
94.76170132798795
 11
166.25756702580807
 21
89.76170132798795
  0
LINE
  8
_0-1_作画層１
  6
CONTINUOUS
 62
    7
 10
203.75756702580807
 20
77.26170132798795
 11
203.75756702580807
 21
92.26170132798795
  0
LINE
  8
_0-1_作画層１
  6
CONTINUOUS
 62
    7
 10
221.25756702580807
 20
77.26170132798795
 11
221.25756702580807
 21
92.26170132798795
  0
LINE
  8
_0-1_作画層１
  6
CONTINUOUS
 62
    7
 10
168.75756702580807
 20
77.26170132798795
 11
168.75756702580807
 21
89.76170132798795
  0
LINE
  8
_0-1_作画層１
  6
CONTINUOUS
 62
    7
 10
186.25756702580807
 20
77.26170132798795
 11
186.25756702580807
 21
89.76170132798795
  0
LINE
  8
_0-1_作画層１
  6
CONTINUOUS
 62
    7
 10
168.75756702580807
 20
62.26170132798795
 11
168.75756702580807
 21
47.26170132798795
  0
LINE
  8
_0-1_作画層１
  6
CONTINUOUS
 62
    7
 10
186.25756702580807
 20
62.26170132798795
 11
186.25756702580807
 21
47.26170132798795
  0
LINE
  8
_0-1_作画層１
  6
CONTINUOUS
 62
    7
 10
221.25756702580807
 20
62.26170132798795
 11
221.25756702580807
 21
54.76170132798795
  0
LINE
  8
_0-1_作画層１
  6
CONTINUOUS
 62
    7
 10
203.75756702580807
 20
62.26170132798795
 11
203.75756702580807
 21
47.26170132798795
  0
TEXT
  8
_0-7_注記層１
 62
    7
 10
235.00756702580807
 20
49.76170132798795
 40
3.5
 41
1
 50
0
  1
負荷用電源
  0
LINE
  8
_0-1_作画層１
  6
CONTINUOUS
 62
    7
 10
208.25756702580807
 20
93.26170132798795
 11
216.25756702580807
 21
97.26170132798795
  0
TEXT
  8
_0-7_注記層１
 62
    7
 10
206.75756702580807
 20
100.51170132798795
 40
3.5
 41
1
 50
0
  1
接点出力
  0
LINE
  8
_0-1_作画層１
  6
DASHED
 62
    7
 10
241.25756702580807
 20
102.26170132798795
 11
241.25756702580807
 21
69.76170132798795
  0
LINE
  8
_0-1_作画層１
  6
DASHED
 62
    7
 10
241.25756702580807
 20
69.76170132798795
 11
228.75756702580807
 21
69.76170132798795
  0
LINE
  8
_0-1_作画層１
  6
DASHED
 62
    7
 10
148.75756702580807
 20
102.26170132798795
 11
148.75756702580807
 21
69.76170132798795
  0
LINE
  8
_0-1_作画層１
  6
DASHED
 62
    7
 10
148.75756702580807
 20
69.76170132798795
 11
161.25756702580807
 21
69.76170132798795
  0
LINE
  8
_0-d_0_1
  6
CONTINUOUS
 62
    7
 10
176.75755939641354
 20
271.96167920274377
 11
183.75753317036984
 21
271.96167920274377
  0
LINE
  8
_0-d_0_1
  6
CONTINUOUS
 62
    7
 10
176.75755939641354
 20
271.96167920274377
 11
176.75755939641354
 21
129.96169827623015
  0
LINE
  8
_0-d_0_1
  6
CONTINUOUS
 62
    7
 10
183.75753317036984
 20
271.96167920274377
 11
183.75753317036984
 21
129.96169827623015
  0
LINE
  8
_0-d_0_1
  6
CONTINUOUS
 62
    7
 10
176.75755939641354
 20
129.96169827623015
 11
183.75753317036984
 21
129.96169827623015
  0
LINE
  8
_0-d_0_1
  6
CONTINUOUS
 62
    7
 10
176.75755939641354
 20
129.96170590562468
 11
183.75753317036984
 21
129.96170590562468
  0
LINE
  8
_0-d_0_1
  6
CONTINUOUS
 62
    7
 10
225.75757084050534
 20
144.46168301744109
 11
225.75757084050534
 21
135.46169827623015
  0
LINE
  8
_0-d_0_1
  6
CONTINUOUS
 62
    7
 10
183.75753317036984
 20
131.86169980210906
 11
223.75756702580807
 21
132.26170132798796
  0
LINE
  8
_0-d_0_1
  6
CONTINUOUS
 62
    7
 10
223.75756702580807
 20
144.46168301744109
 11
225.75757084050534
 21
144.46168301744109
  0
LINE
  8
_0-d_0_1
  6
CONTINUOUS
 62
    7
 10
223.75756702580807
 20
135.46169827623015
 11
225.75757084050534
 21
135.46169827623015
  0
LINE
  8
_0-d_0_1
  6
CONTINUOUS
 62
    7
 10
225.75757084050534
 20
263.96170209092736
 11
225.75757084050534
 21
247.9616753880465
  0
LINE
  8
_0-d_0_1
  6
CONTINUOUS
 62
    7
 10
183.75753317036984
 20
270.06168912095666
 11
223.75756702580807
 21
269.66170285386681
  0
LINE
  8
_0-d_0_1
  6
CONTINUOUS
 62
    7
 10
223.75756702580807
 20
269.66170285386681
 11
223.75756702580807
 21
132.26170132798796
  0
LINE
  8
_0-d_0_1
  6
CONTINUOUS
 62
    7
 10
223.75756702580807
 20
263.96170209092736
 11
225.75757084050534
 21
263.96170209092736
  0
LINE
  8
_0-d_0_1
  6
CONTINUOUS
 62
    7
 10
223.75756702580807
 20
247.9616753880465
 11
225.75757084050534
 21
247.9616753880465
  0
LINE
  8
_0-d_0_1
  6
CONTINUOUS
 62
    7
 10
224.75756702580807
 20
203.96170399827605
 11
224.75756702580807
 21
199.96169064683562
  0
LINE
  8
_0-d_0_1
  6
CONTINUOUS
 62
    7
 10
223.75756702580807
 20
199.96169064683562
 11
224.75756702580807
 21
199.96169064683562
  0
LINE
  8
_0-d_0_1
  6
CONTINUOUS
 62
    7
 10
223.75756702580807
 20
203.96170399827605
 11
224.75756702580807
 21
203.96170399827605
  0
LINE
  8
_0-d_0_1
  6
CONTINUOUS
 62
    7
 10
176.75755939641354
 20
272.96170972032189
 11
176.75755939641354
 21
130.96168301744109
  0
LINE
  8
_0-d_0_1
  6
CONTINUOUS
 62
    7
 10
174.75755272069333
 20
272.96170972032189
 11
176.75755939641354
 21
272.96170972032189
  0
LINE
  8
_0-d_0_1
  6
CONTINUOUS
 62
    7
 10
176.75755939641354
 20
130.96168301744109
 11
174.75755272069333
 21
130.96168301744109
  0
LINE
  8
_0-d_0_1
  6
CONTINUOUS
 62
    7
 10
174.75755272069333
 20
272.96170972032189
 11
174.75755272069333
 21
130.96168301744109
  0
LINE
  8
_0-d_0_1
  6
CONTINUOUS
 62
    7
 10
174.75755272069333
 20
270.96170209092736
 11
155.75754032292721
 21
269.29942486924767
  0
LINE
  8
_0-d_0_1
  6
CONTINUOUS
 62
    7
 10
174.75755272069333
 20
132.96169064683562
 11
166.75755081334469
 21
133.66162655992156
  0
LINE
  8
_0-d_0_1
  6
CONTINUOUS
 62
    7
 10
155.75754032292721
 20
177.46169064683562
 11
155.75754032292721
 21
269.29942486924767
  0
LINE
  8
_0-d_0_1
  6
CONTINUOUS
 62
    7
 10
166.75755081334469
 20
168.96168683213835
 11
166.75755081334469
 21
133.66162655992156
  0
LINE
  8
_0-d_0_1
  6
CONTINUOUS
 62
    7
 10
155.75756511845944
 20
177.46169064683562
 11
161.51942310490963
 21
175.91779111070281
  0
LINE
  8
_0-d_0_1
  6
CONTINUOUS
 62
    7
 10
166.75755081334469
 20
259.4616868321383
 11
166.75755081334469
 21
185.46166775865203
  0
LINE
  8
_0-d_0_1
  6
CONTINUOUS
 62
    7
 10
166.75755081334469
 20
185.46166775865203
 11
175.25752971330044
 21
185.46166775865203
  0
LINE
  8
_0-d_0_1
  6
CONTINUOUS
 62
    7
 10
175.25755450883267
 20
259.4616868321383
 11
166.75755081334469
 21
259.4616868321383
  0
LINE
  8
_0-d_0_1
  6
CONTINUOUS
 62
    7
 10
175.25752971330044
 20
185.46166775865203
 11
175.25755450883267
 21
259.4616868321383
  0
LINE
  8
_0-d_0_1
  6
CONTINUOUS
 62
    7
 10
176.75753465243147
 20
187.46167538804656
 11
176.75753465243147
 21
257.46170590562463
  0
LINE
  8
_0-d_0_1
  6
CONTINUOUS
 62
    7
 10
158.75754985967038
 20
213.96168778581267
 11
164.75754509129879
 21
213.46168587846404
  0
LINE
  8
_0-d_0_1
  6
CONTINUOUS
 62
    7
 10
158.75754985967038
 20
230.96169350785851
 11
164.75754509129879
 21
231.46167061967492
  0
LINE
  8
_0-d_0_1
  6
CONTINUOUS
 62
    7
 10
163.2575393692529
 20
248.96170399827599
 11
162.25753650822995
 21
231.25335095567345
  0
LINE
  8
_0-d_0_1
  6
CONTINUOUS
 62
    7
 10
163.2575393692529
 20
248.96170399827599
 11
163.2575393692529
 21
231.33668873948693
  0
LINE
  8
_0-d_0_1
  6
CONTINUOUS
 62
    7
 10
163.2575393692529
 20
248.96170399827599
 11
164.75754509129879
 21
248.96170399827599
  0
LINE
  8
_0-d_0_1
  6
CONTINUOUS
 62
    7
 10
164.75754509129879
 20
226.21169064683556
 11
166.75755081334469
 21
226.21169064683556
  0
LINE
  8
_0-d_0_1
  6
CONTINUOUS
 62
    7
 10
164.75754509129879
 20
218.71169064683556
 11
166.75755081334469
 21
218.71169064683556
  0
LINE
  8
_0-d_0_1
  6
CONTINUOUS
 62
    7
 10
175.25755450883267
 20
257.46170590562463
 11
176.75753465243147
 21
257.46170590562463
  0
LINE
  8
_0-d_0_1
  6
CONTINUOUS
 62
    7
 10
175.25752971330044
 20
187.46167538804656
 11
176.75753465243147
 21
187.46167538804656
  0
LINE
  8
_0-d_0_1
  6
CONTINUOUS
 62
    7
 10
164.75754509129879
 20
248.96170399827599
 11
164.75754509129879
 21
213.46168587846404
  0
LINE
  8
_0-d_0_1
  6
CONTINUOUS
 62
    7
 10
166.75752601781247
 20
222.46169064683556
 11
175.25755450883267
 21
222.46169064683556
  0
LINE
  8
_0-d_0_1
  6
CONTINUOUS
 62
    7
 10
166.75752601781247
 20
221.46168730897546
 11
175.25755450883267
 21
221.46168730897546
  0
LINE
  8
_0-d_0_1
  6
CONTINUOUS
 62
    7
 10
166.75752601781247
 20
220.46168397111535
 11
175.25755450883267
 21
220.46168397111535
  0
LINE
  8
_0-d_0_1
  6
CONTINUOUS
 62
    7
 10
166.75752601781247
 20
219.46168087167382
 11
175.25755450883267
 21
219.46168087167382
  0
LINE
  8
_0-d_0_1
  6
CONTINUOUS
 62
    7
 10
166.75752601781247
 20
218.46167729539519
 11
175.25755450883267
 21
218.46167729539519
  0
LINE
  8
_0-d_0_1
  6
CONTINUOUS
 62
    7
 10
166.75752601781247
 20
217.46167395753508
 11
175.25755450883267
 21
217.46167395753508
  0
LINE
  8
_0-d_0_1
  6
CONTINUOUS
 62
    7
 10
166.75752601781247
 20
216.46167109651213
 11
175.25755450883267
 21
216.46167109651213
  0
LINE
  8
_0-d_0_1
  6
CONTINUOUS
 62
    7
 10
166.75752601781247
 20
215.46166775865203
 11
175.25755450883267
 21
215.46166775865203
  0
LINE
  8
_0-d_0_1
  6
CONTINUOUS
 62
    7
 10
166.75752601781247
 20
214.46166394395476
 11
175.25755450883267
 21
214.46166394395476
  0
LINE
  8
_0-d_0_1
  6
CONTINUOUS
 62
    7
 10
166.75752601781247
 20
213.46166108293181
 11
175.25755450883267
 21
213.46166108293181
  0
LINE
  8
_0-d_0_1
  6
CONTINUOUS
 62
    7
 10
166.75752601781247
 20
212.46168206376677
 11
175.25755450883267
 21
212.46168206376677
  0
LINE
  8
_0-d_0_1
  6
CONTINUOUS
 62
    7
 10
166.75752601781247
 20
223.46169398469567
 11
175.25755450883267
 21
223.46169398469567
  0
LINE
  8
_0-d_0_1
  6
CONTINUOUS
 62
    7
 10
166.75752601781247
 20
224.46169732255578
 11
175.25755450883267
 21
224.46169732255578
  0
LINE
  8
_0-d_0_1
  6
CONTINUOUS
 62
    7
 10
166.75752601781247
 20
225.46170042199731
 11
175.25755450883267
 21
225.46170042199731
  0
LINE
  8
_0-d_0_1
  6
CONTINUOUS
 62
    7
 10
166.75752601781247
 20
226.46170399827599
 11
175.25755450883267
 21
226.46170399827599
  0
LINE
  8
_0-d_0_1
  6
CONTINUOUS
 62
    7
 10
166.75752601781247
 20
227.4617073361361
 11
175.25755450883267
 21
227.4617073361361
  0
LINE
  8
_0-d_0_1
  6
CONTINUOUS
 62
    7
 10
166.75752601781247
 20
228.46171019715905
 11
175.25755450883267
 21
228.46171019715905
  0
LINE
  8
_0-d_0_1
  6
CONTINUOUS
 62
    7
 10
166.75752601781247
 20
229.46171353501916
 11
175.25755450883267
 21
229.46171353501916
  0
LINE
  8
_0-d_0_1
  6
CONTINUOUS
 62
    7
 10
166.75752601781247
 20
230.46171734971642
 11
175.25755450883267
 21
230.46171734971642
  0
LINE
  8
_0-d_0_1
  6
CONTINUOUS
 62
    7
 10
166.75752601781247
 20
231.46172021073937
 11
175.25755450883267
 21
231.46172021073937
  0
LINE
  8
_0-d_0_1
  6
CONTINUOUS
 62
    7
 10
166.75752601781247
 20
232.46169922990441
 11
175.25755450883267
 21
232.46169922990441
  0
LINE
  8
_0-d_0_1
  6
CONTINUOUS
 62
    7
 10
157.25754413762448
 20
222.46169064683556
 11
157.95755252995846
 21
214.96169064683562
  0
LINE
  8
_0-d_0_1
  6
CONTINUOUS
 62
    7
 10
157.95755252995846
 20
229.96169064683556
 11
157.25754413762448
 21
222.46169064683556
  0
LINE
  8
_0-d_0_1
  6
CONTINUOUS
 62
    7
 10
158.75754985967038
 20
229.96169064683556
 11
157.95755252995846
 21
229.96169064683556
  0
LINE
  8
_0-d_0_1
  6
CONTINUOUS
 62
    7
 10
158.75754985967038
 20
214.96169064683562
 11
157.95755252995846
 21
214.96169064683562
  0
LINE
  8
_0-d_0_1
  6
CONTINUOUS
 62
    7
 10
202.93585071721432
 20
132.12244961900359
 11
202.93585071721432
 21
120.12244961900358
  0
LINE
  8
_0-d_0_1
  6
CONTINUOUS
 62
    7
 10
202.93585071721432
 20
124.12244961900358
 11
219.93585834660885
 21
124.12246487779264
  0
LINE
  8
_0-d_0_1
  6
CONTINUOUS
 62
    7
 10
198.93583736577389
 20
129.12244198960906
 11
198.93583736577389
 21
132.12244961900359
  0
LINE
  8
_0-d_0_1
  6
CONTINUOUS
 62
    7
 10
197.93583545842526
 20
123.12243436021451
 11
202.93585071721432
 21
123.12243436021451
  0
LINE
  8
_0-d_0_1
  6
CONTINUOUS
 62
    7
 10
197.93583545842526
 20
124.12243436021451
 11
202.93585071721432
 21
124.12243436021451
  0
LINE
  8
_0-d_0_1
  6
CONTINUOUS
 62
    7
 10
197.93583545842526
 20
128.12244198960906
 11
202.93585071721432
 21
128.12244198960906
  0
LINE
  8
_0-d_0_1
  6
CONTINUOUS
 62
    7
 10
197.93583545842526
 20
129.12244198960906
 11
202.93585071721432
 21
129.12244198960906
  0
LINE
  8
_0-d_0_1
  6
CONTINUOUS
 62
    7
 10
219.93585834660885
 20
130.12244198960906
 11
223.93586979070065
 21
130.12244198960906
  0
LINE
  8
_0-d_0_1
  6
CONTINUOUS
 62
    7
 10
223.93586979070065
 20
130.12244198960906
 11
223.93586979070065
 21
119.12244198960904
  0
LINE
  8
_0-d_0_1
  6
CONTINUOUS
 62
    7
 10
219.93585834660885
 20
116.77744839830045
 11
219.93585834660885
 21
115.62245724839811
  0
LINE
  8
_0-d_0_1
  6
CONTINUOUS
 62
    7
 10
219.93585834660885
 20
119.12244198960904
 11
223.93586979070065
 21
119.12244198960904
  0
LINE
  8
_0-d_0_1
  6
CONTINUOUS
 62
    7
 10
202.93585071721432
 20
120.12244961900358
 11
219.93585834660885
 21
120.12244961900358
  0
LINE
  8
_0-d_0_1
  6
CONTINUOUS
 62
    7
 10
198.93583736577389
 20
117.62244961900358
 11
198.93583736577389
 21
123.12243436021451
  0
LINE
  8
_0-d_0_1
  6
CONTINUOUS
 62
    7
 10
200.93584499516842
 20
115.62244961900358
 11
219.93585834660885
 21
115.62245724839811
  0
LINE
  8
_0-d_0_1
  6
CONTINUOUS
 62
    7
 10
202.93585071721432
 20
124.12244961900358
 11
219.93585834660885
 21
124.12246487779264
  0
LINE
  8
_0-d_0_1
  6
CONTINUOUS
 62
    7
 10
224.93585071721432
 20
123.62244961900358
 11
224.93585071721432
 21
128.62244198960906
  0
LINE
  8
_0-d_0_1
  6
CONTINUOUS
 62
    7
 10
223.93584690251706
 20
123.62244961900358
 11
223.93584690251706
 21
128.62244198960906
  0
LINE
  8
_0-d_0_1
  6
CONTINUOUS
 62
    7
 10
225.43585071721432
 20
128.62244198960906
 11
223.93584690251706
 21
128.62244198960906
  0
LINE
  8
_0-d_0_1
  6
CONTINUOUS
 62
    7
 10
226.43585453191159
 20
124.62244961900358
 11
226.43585453191159
 21
127.62243436021451
  0
LINE
  8
_0-d_0_1
  6
CONTINUOUS
 62
    7
 10
225.43585071721432
 20
123.62244961900358
 11
223.93584690251706
 21
123.62244961900358
  0
LINE
  8
_0-d_0_1
  6
CONTINUOUS
 62
    7
 10
219.93585834660885
 20
132.12244961900359
 11
219.93585834660885
 21
116.77744839830045
  0
LINE
  8
_0-d_0_1
  6
CONTINUOUS
 62
    7
 10
198.93583736577389
 20
132.12244961900359
 11
219.93585834660885
 21
132.12244961900359
  0
LINE
  8
_0-d_0_1
  6
CONTINUOUS
 62
    7
 10
158.75754985967038
 20
230.94462083024621
 11
158.75754985967038
 21
213.96168778581267
  0
ARC
  8
_0-d_0_1
  6
CONTINUOUS
 62
    7
 10
159.76621976365894
 20
169.13788599777459
 40
6.9999999999998632
 50
356.81216430664011
 51
76.243179321289816
  0
ARC
  8
_0-d_0_1
  6
CONTINUOUS
 62
    7
 10
200.93583646287755
 20
117.62244410324323
 40
1.9999999999999716
 50
179.99999999999878
 51
270.0000000000008
  0
ARC
  8
_0-d_0_1
  6
CONTINUOUS
 62
    7
 10
225.4358364628776
 20
127.62242884445422
 40
0.9999999999999712
 50
359.9999999999992
 51
90.000000000001634
  0
ARC
  8
_0-d_0_1
  6
CONTINUOUS
 62
    7
 10
225.4358364628776
 20
124.62244410324325
 40
0.9999999999999853
 50
269.99999999999835
 51
0.0000000000008142
  0
LINE
  8
_0-d_0_1
  6
CONTINUOUS
 62
    7
 10
197.93583545842526
 20
122.12243817491178
 11
197.93583545842526
 21
130.12243817491179
  0
LINE
  8
_0-d_0_1
  6
CONTINUOUS
 62
    7
 10
197.43583545842526
 20
122.12243817491178
 11
197.93583545842526
 21
122.12243817491178
  0
ARC
  8
_0-d_0_1
  6
CONTINUOUS
 62
    7
 10
197.43583646287755
 20
124.12244410324323
 40
1.9999999999999716
 50
179.99999999999878
 51
270.0000000000008
  0
LINE
  8
_0-d_0_1
  6
CONTINUOUS
 62
    7
 10
195.43583545842526
 20
128.12243817491179
 11
195.43583545842526
 21
124.12243817491178
  0
LINE
  8
_0-d_0_1
  6
CONTINUOUS
 62
    7
 10
197.43583545842526
 20
130.12243817491179
 11
197.93583545842526
 21
130.12243817491179
  0
ARC
  8
_0-d_0_1
  6
CONTINUOUS
 62
    7
 10
197.43583646287755
 20
128.12244410324331
 40
1.9999999999999574
 50
89.99999999999919
 51
180.00000000000122
  0
LINE
  8
_0-d_0_1
  6
CONTINUOUS
 62
    7
 10
340.25757084050531
 20
135.76170514268523
 11
295.25756511845941
 21
135.76170514268523
  0
LINE
  8
_0-d_0_1
  6
CONTINUOUS
 62
    7
 10
341.75756321111078
 20
66.261693698593405
 11
341.75756321111078
 21
134.26171277207976
  0
LINE
  8
_0-d_0_1
  6
CONTINUOUS
 62
    7
 10
293.75756702580804
 20
66.261693698593405
 11
293.75756702580804
 21
134.26171277207976
  0
LINE
  8
_0-d_0_1
  6
CONTINUOUS
 62
    7
 10
293.7453866974389
 20
66.255407077499655
 11
293.7453866974389
 21
64.756986362167623
  0
LINE
  8
_0-d_0_1
  6
CONTINUOUS
 62
    7
 10
295.16423664250726
 20
64.756986362167623
 11
293.7453866974389
 21
64.756986362167623
  0
LINE
  8
_0-d_0_1
  6
CONTINUOUS
 62
    7
 10
339.50756321111078
 20
134.51170514268523
 11
296.00756702580804
 21
134.51170514268523
  0
LINE
  8
_0-d_0_1
  6
CONTINUOUS
 62
    7
 10
340.50756511845941
 20
67.011693698593405
 11
340.50756511845941
 21
133.5117089573825
  0
LINE
  8
_0-d_0_1
  6
CONTINUOUS
 62
    7
 10
295.00756511845941
 20
67.011693698593405
 11
295.00756511845941
 21
133.5117089573825
  0
LINE
  8
_0-d_0_1
  6
CONTINUOUS
 62
    7
 10
336.50757084050531
 20
80.511701327987936
 11
299.00755939641351
 21
80.511701327987936
  0
LINE
  8
_0-d_0_1
  6
CONTINUOUS
 62
    7
 10
335.2453866974389
 20
67.756993991562155
 11
335.2453866974389
 21
70.256978732773092
  0
LINE
  8
_0-d_0_1
  6
CONTINUOUS
 62
    7
 10
335.2453866974389
 20
67.756993991562155
 11
335.2453866974389
 21
66.011689883896139
  0
LINE
  8
_0-d_0_1
  6
CONTINUOUS
 62
    7
 10
300.24538860478754
 20
70.256978732773092
 11
300.24538860478754
 21
66.011689883896139
  0
LINE
  8
_0-d_0_1
  6
CONTINUOUS
 62
    7
 10
337.50756893315668
 20
79.511699420639303
 11
337.50756893315668
 21
72.511701327987936
  0
LINE
  8
_0-d_0_1
  6
CONTINUOUS
 62
    7
 10
298.00756130376215
 20
79.511699420639303
 11
298.00756130376215
 21
72.511701327987936
  0
LINE
  8
_0-d_0_1
  6
CONTINUOUS
 62
    7
 10
314.7453936115777
 20
130.25699208421355
 11
314.7453936115777
 21
127.25698826951628
  0
LINE
  8
_0-d_0_1
  6
CONTINUOUS
 62
    7
 10
320.74538860478754
 20
130.25699208421355
 11
320.74538860478754
 21
127.25698826951628
  0
LINE
  8
_0-d_0_1
  6
CONTINUOUS
 62
    7
 10
316.94539956012125
 20
130.26169942063933
 11
316.94539956012125
 21
128.80840466661101
  0
LINE
  8
_0-d_0_1
  6
CONTINUOUS
 62
    7
 10
318.54537639775629
 20
130.26169942063933
 11
318.54537639775629
 21
128.80148862046843
  0
LINE
  8
_0-d_0_1
  6
CONTINUOUS
 62
    7
 10
298.95756969609613
 20
79.311706287094381
 11
298.95756969609613
 21
79.511699420639303
  0
LINE
  8
_0-d_0_1
  6
CONTINUOUS
 62
    7
 10
298.95756969609613
 20
79.311706287094381
 11
298.95756969609613
 21
79.111713153549459
  0
LINE
  8
_0-d_0_1
  6
CONTINUOUS
 62
    7
 10
300.55756626286859
 20
79.311706287094381
 11
300.55756626286859
 21
79.111713153549459
  0
LINE
  8
_0-d_0_1
  6
CONTINUOUS
 62
    7
 10
300.55756626286859
 20
79.311706287094381
 11
300.55756626286859
 21
79.511699420639303
  0
LINE
  8
_0-d_0_1
  6
CONTINUOUS
 62
    7
 10
299.75756702580804
 20
80.111703616806295
 11
299.95756015935297
 21
80.111703616806295
  0
LINE
  8
_0-d_0_1
  6
CONTINUOUS
 62
    7
 10
299.75756702580804
 20
80.111703616806295
 11
299.55756817021722
 21
80.111703616806295
  0
LINE
  8
_0-d_0_1
  6
CONTINUOUS
 62
    7
 10
299.75756702580804
 20
78.511707050033834
 11
299.55756817021722
 21
78.511707050033834
  0
LINE
  8
_0-d_0_1
  6
CONTINUOUS
 62
    7
 10
299.75756702580804
 20
78.511707050033834
 11
299.95756015935297
 21
78.511707050033834
  0
LINE
  8
_0-d_0_1
  6
CONTINUOUS
 62
    7
 10
299.3575693146264
 20
79.511699420639303
 11
298.95756969609613
 21
79.511699420639303
  0
LINE
  8
_0-d_0_1
  6
CONTINUOUS
 62
    7
 10
299.55756817021722
 20
79.711703998276022
 11
299.55756817021722
 21
80.111703616806295
  0
LINE
  8
_0-d_0_1
  6
CONTINUOUS
 62
    7
 10
299.95756015935297
 20
79.711703998276022
 11
299.95756015935297
 21
80.111703616806295
  0
LINE
  8
_0-d_0_1
  6
CONTINUOUS
 62
    7
 10
300.15756664433832
 20
79.511699420639303
 11
300.55756626286859
 21
79.511699420639303
  0
LINE
  8
_0-d_0_1
  6
CONTINUOUS
 62
    7
 10
300.15756664433832
 20
79.111713153549459
 11
300.55756626286859
 21
79.111713153549459
  0
LINE
  8
_0-d_0_1
  6
CONTINUOUS
 62
    7
 10
299.95756015935297
 20
78.911706668564108
 11
299.95756015935297
 21
78.511707050033834
  0
LINE
  8
_0-d_0_1
  6
CONTINUOUS
 62
    7
 10
299.55756817021722
 20
78.911706668564108
 11
299.55756817021722
 21
78.511707050033834
  0
LINE
  8
_0-d_0_1
  6
CONTINUOUS
 62
    7
 10
299.3575693146264
 20
79.111713153549459
 11
298.95756969609613
 21
79.111713153549459
  0
LINE
  8
_0-d_0_1
  6
CONTINUOUS
 62
    7
 10
298.95756969609613
 20
74.311700565048483
 11
298.95756969609613
 21
74.511707050033834
  0
LINE
  8
_0-d_0_1
  6
CONTINUOUS
 62
    7
 10
298.95756969609613
 20
74.311700565048483
 11
298.95756969609613
 21
74.111720782943991
  0
LINE
  8
_0-d_0_1
  6
CONTINUOUS
 62
    7
 10
300.55756626286859
 20
74.311700565048483
 11
300.55756626286859
 21
74.111720782943991
  0
LINE
  8
_0-d_0_1
  6
CONTINUOUS
 62
    7
 10
300.55756626286859
 20
74.311700565048483
 11
300.55756626286859
 21
74.511707050033834
  0
LINE
  8
_0-d_0_1
  6
CONTINUOUS
 62
    7
 10
299.75756702580804
 20
75.11169980210903
 11
299.95756015935297
 21
75.11169980210903
  0
LINE
  8
_0-d_0_1
  6
CONTINUOUS
 62
    7
 10
299.75756702580804
 20
75.11169980210903
 11
299.55756817021722
 21
75.11169980210903
  0
LINE
  8
_0-d_0_1
  6
CONTINUOUS
 62
    7
 10
299.75756702580804
 20
73.511716586776998
 11
299.55756817021722
 21
73.511716586776998
  0
LINE
  8
_0-d_0_1
  6
CONTINUOUS
 62
    7
 10
299.75756702580804
 20
73.511716586776998
 11
299.95756015935297
 21
73.511716586776998
  0
LINE
  8
_0-d_0_1
  6
CONTINUOUS
 62
    7
 10
299.3575693146264
 20
74.511707050033834
 11
298.95756969609613
 21
74.511707050033834
  0
LINE
  8
_0-d_0_1
  6
CONTINUOUS
 62
    7
 10
299.55756817021722
 20
74.711713535019186
 11
299.55756817021722
 21
75.11169980210903
  0
LINE
  8
_0-d_0_1
  6
CONTINUOUS
 62
    7
 10
299.95756015935297
 20
74.711713535019186
 11
299.95756015935297
 21
75.11169980210903
  0
LINE
  8
_0-d_0_1
  6
CONTINUOUS
 62
    7
 10
300.15756664433832
 20
74.511707050033834
 11
300.55756626286859
 21
74.511707050033834
  0
LINE
  8
_0-d_0_1
  6
CONTINUOUS
 62
    7
 10
300.15756664433832
 20
74.111720782943991
 11
300.55756626286859
 21
74.111720782943991
  0
LINE
  8
_0-d_0_1
  6
CONTINUOUS
 62
    7
 10
299.95756015935297
 20
73.911702853866842
 11
299.95756015935297
 21
73.511716586776998
  0
LINE
  8
_0-d_0_1
  6
CONTINUOUS
 62
    7
 10
299.55756817021722
 20
73.911702853866842
 11
299.55756817021722
 21
73.511716586776998
  0
LINE
  8
_0-d_0_1
  6
CONTINUOUS
 62
    7
 10
299.3575693146264
 20
74.111720782943991
 11
298.95756969609613
 21
74.111720782943991
  0
LINE
  8
_0-d_0_1
  6
CONTINUOUS
 62
    7
 10
334.94539699712152
 20
74.256992084213522
 11
334.94539699712152
 21
74.456998569198873
  0
LINE
  8
_0-d_0_1
  6
CONTINUOUS
 62
    7
 10
334.94539699712152
 20
74.256992084213522
 11
334.94539699712152
 21
74.0569989506686
  0
LINE
  8
_0-d_0_1
  6
CONTINUOUS
 62
    7
 10
336.54538593449945
 20
74.256992084213522
 11
336.54538593449945
 21
74.0569989506686
  0
LINE
  8
_0-d_0_1
  6
CONTINUOUS
 62
    7
 10
336.54538593449945
 20
74.256992084213522
 11
336.54538593449945
 21
74.456998569198873
  0
LINE
  8
_0-d_0_1
  6
CONTINUOUS
 62
    7
 10
335.74539432683343
 20
75.056989413925436
 11
335.94539318242425
 21
75.056989413925436
  0
LINE
  8
_0-d_0_1
  6
CONTINUOUS
 62
    7
 10
335.74539432683343
 20
75.056989413925436
 11
335.54539547124261
 21
75.056989413925436
  0
LINE
  8
_0-d_0_1
  6
CONTINUOUS
 62
    7
 10
335.74539432683343
 20
73.456994754501608
 11
335.54539547124261
 21
73.456994754501608
  0
LINE
  8
_0-d_0_1
  6
CONTINUOUS
 62
    7
 10
335.74539432683343
 20
73.456994754501608
 11
335.94539318242425
 21
73.456994754501608
  0
LINE
  8
_0-d_0_1
  6
CONTINUOUS
 62
    7
 10
335.34538898625726
 20
74.456998569198873
 11
334.94539699712152
 21
74.456998569198873
  0
LINE
  8
_0-d_0_1
  6
CONTINUOUS
 62
    7
 10
335.54539547124261
 20
74.657003146835592
 11
335.54539547124261
 21
75.056989413925436
  0
LINE
  8
_0-d_0_1
  6
CONTINUOUS
 62
    7
 10
335.94539318242425
 20
74.657003146835592
 11
335.94539318242425
 21
75.056989413925436
  0
LINE
  8
_0-d_0_1
  6
CONTINUOUS
 62
    7
 10
336.14539966740961
 20
74.456998569198873
 11
336.54538593449945
 21
74.456998569198873
  0
LINE
  8
_0-d_0_1
  6
CONTINUOUS
 62
    7
 10
336.14539966740961
 20
74.0569989506686
 11
336.54538593449945
 21
74.0569989506686
  0
LINE
  8
_0-d_0_1
  6
CONTINUOUS
 62
    7
 10
335.94539318242425
 20
73.856994373031881
 11
335.94539318242425
 21
73.456994754501608
  0
LINE
  8
_0-d_0_1
  6
CONTINUOUS
 62
    7
 10
335.54539547124261
 20
73.856994373031881
 11
335.54539547124261
 21
73.456994754501608
  0
LINE
  8
_0-d_0_1
  6
CONTINUOUS
 62
    7
 10
335.34538898625726
 20
74.0569989506686
 11
334.94539699712152
 21
74.0569989506686
  0
LINE
  8
_0-d_0_1
  6
CONTINUOUS
 62
    7
 10
334.94539699712152
 20
79.256995898910787
 11
334.94539699712152
 21
79.456989032455709
  0
LINE
  8
_0-d_0_1
  6
CONTINUOUS
 62
    7
 10
334.94539699712152
 20
79.256995898910787
 11
334.94539699712152
 21
79.056991321274069
  0
LINE
  8
_0-d_0_1
  6
CONTINUOUS
 62
    7
 10
336.54538593449945
 20
79.256995898910787
 11
336.54538593449945
 21
79.056991321274069
  0
LINE
  8
_0-d_0_1
  6
CONTINUOUS
 62
    7
 10
336.54538593449945
 20
79.256995898910787
 11
336.54538593449945
 21
79.456989032455709
  0
LINE
  8
_0-d_0_1
  6
CONTINUOUS
 62
    7
 10
335.74539432683343
 20
80.056981784530905
 11
335.94539318242425
 21
80.056981784530905
  0
LINE
  8
_0-d_0_1
  6
CONTINUOUS
 62
    7
 10
335.74539432683343
 20
80.056981784530905
 11
335.54539547124261
 21
80.056981784530905
  0
LINE
  8
_0-d_0_1
  6
CONTINUOUS
 62
    7
 10
335.74539432683343
 20
78.456998569198873
 11
335.54539547124261
 21
78.456998569198873
  0
LINE
  8
_0-d_0_1
  6
CONTINUOUS
 62
    7
 10
335.74539432683343
 20
78.456998569198873
 11
335.94539318242425
 21
78.456998569198873
  0
LINE
  8
_0-d_0_1
  6
CONTINUOUS
 62
    7
 10
335.34538898625726
 20
79.456989032455709
 11
334.94539699712152
 21
79.456989032455709
  0
LINE
  8
_0-d_0_1
  6
CONTINUOUS
 62
    7
 10
335.54539547124261
 20
79.656995517441061
 11
335.54539547124261
 21
80.056981784530905
  0
LINE
  8
_0-d_0_1
  6
CONTINUOUS
 62
    7
 10
335.94539318242425
 20
79.656995517441061
 11
335.94539318242425
 21
80.056981784530905
  0
LINE
  8
_0-d_0_1
  6
CONTINUOUS
 62
    7
 10
336.14539966740961
 20
79.456989032455709
 11
336.54538593449945
 21
79.456989032455709
  0
LINE
  8
_0-d_0_1
  6
CONTINUOUS
 62
    7
 10
336.14539966740961
 20
79.056991321274069
 11
336.54538593449945
 21
79.056991321274069
  0
LINE
  8
_0-d_0_1
  6
CONTINUOUS
 62
    7
 10
335.94539318242425
 20
78.856984836288717
 11
335.94539318242425
 21
78.456998569198873
  0
LINE
  8
_0-d_0_1
  6
CONTINUOUS
 62
    7
 10
335.54539547124261
 20
78.856984836288717
 11
335.54539547124261
 21
78.456998569198873
  0
LINE
  8
_0-d_0_1
  6
CONTINUOUS
 62
    7
 10
335.34538898625726
 20
79.056991321274069
 11
334.94539699712152
 21
79.056991321274069
  0
LINE
  8
_0-d_0_1
  6
CONTINUOUS
 62
    7
 10
330.50755748906488
 20
62.761693698593405
 11
330.50755748906488
 21
62.886701327987936
  0
LINE
  8
_0-d_0_1
  6
CONTINUOUS
 62
    7
 10
330.50755748906488
 20
62.761693698593405
 11
330.50755748906488
 21
62.63669751329067
  0
LINE
  8
_0-d_0_1
  6
CONTINUOUS
 62
    7
 10
331.50756130376215
 20
62.761693698593405
 11
331.50756130376215
 21
62.63669751329067
  0
LINE
  8
_0-d_0_1
  6
CONTINUOUS
 62
    7
 10
331.50756130376215
 20
62.761693698593405
 11
331.50756130376215
 21
62.886701327987936
  0
LINE
  8
_0-d_0_1
  6
CONTINUOUS
 62
    7
 10
331.00755939641351
 20
63.261693698593405
 11
331.13256607213373
 21
63.261693698593405
  0
LINE
  8
_0-d_0_1
  6
CONTINUOUS
 62
    7
 10
331.00755939641351
 20
63.261693698593405
 11
330.8825584427392
 21
63.261693698593405
  0
LINE
  8
_0-d_0_1
  6
CONTINUOUS
 62
    7
 10
331.00755939641351
 20
62.261689883896139
 11
330.8825584427392
 21
62.261689883896139
  0
LINE
  8
_0-d_0_1
  6
CONTINUOUS
 62
    7
 10
331.00755939641351
 20
62.261689883896139
 11
331.13256607213373
 21
62.261689883896139
  0
LINE
  8
_0-d_0_1
  6
CONTINUOUS
 62
    7
 10
330.7575584427392
 20
62.886701327987936
 11
330.50755748906488
 21
62.886701327987936
  0
LINE
  8
_0-d_0_1
  6
CONTINUOUS
 62
    7
 10
330.8825584427392
 20
63.011693698593405
 11
330.8825584427392
 21
63.261693698593405
  0
LINE
  8
_0-d_0_1
  6
CONTINUOUS
 62
    7
 10
331.13256607213373
 20
63.011693698593405
 11
331.13256607213373
 21
63.261693698593405
  0
LINE
  8
_0-d_0_1
  6
CONTINUOUS
 62
    7
 10
331.25756607213373
 20
62.886701327987936
 11
331.50756130376215
 21
62.886701327987936
  0
LINE
  8
_0-d_0_1
  6
CONTINUOUS
 62
    7
 10
331.25756607213373
 20
62.63669751329067
 11
331.50756130376215
 21
62.63669751329067
  0
LINE
  8
_0-d_0_1
  6
CONTINUOUS
 62
    7
 10
331.13256607213373
 20
62.511693698593405
 11
331.13256607213373
 21
62.261689883896139
  0
LINE
  8
_0-d_0_1
  6
CONTINUOUS
 62
    7
 10
330.8825584427392
 20
62.511693698593405
 11
330.8825584427392
 21
62.261689883896139
  0
LINE
  8
_0-d_0_1
  6
CONTINUOUS
 62
    7
 10
330.7575584427392
 20
62.63669751329067
 11
330.50755748906488
 21
62.63669751329067
  0
LINE
  8
_0-d_0_1
  6
CONTINUOUS
 62
    7
 10
329.25756607213373
 20
57.511701327987936
 11
306.25756416478509
 21
57.511701327987936
  0
LINE
  8
_0-d_0_1
  6
CONTINUOUS
 62
    7
 10
332.09335003056879
 20
59.761693698593405
 11
333.50756702580804
 21
61.175912601181295
  0
LINE
  8
_0-d_0_1
  6
CONTINUOUS
 62
    7
 10
303.42178020635004
 20
59.761693698593405
 11
302.00756321111078
 21
61.175912601181295
  0
LINE
  8
_0-d_0_1
  6
CONTINUOUS
 62
    7
 10
333.50756702580804
 20
61.175912601181295
 11
333.50756702580804
 21
64.761701327987936
  0
LINE
  8
_0-d_0_1
  6
CONTINUOUS
 62
    7
 10
304.00756893315668
 20
62.761693698593405
 11
304.00756893315668
 21
62.886701327987936
  0
LINE
  8
_0-d_0_1
  6
CONTINUOUS
 62
    7
 10
304.00756893315668
 20
62.761693698593405
 11
304.00756893315668
 21
62.63669751329067
  0
LINE
  8
_0-d_0_1
  6
CONTINUOUS
 62
    7
 10
305.00757274785394
 20
62.761693698593405
 11
305.00757274785394
 21
62.63669751329067
  0
LINE
  8
_0-d_0_1
  6
CONTINUOUS
 62
    7
 10
305.00757274785394
 20
62.761693698593405
 11
305.00757274785394
 21
62.886701327987936
  0
LINE
  8
_0-d_0_1
  6
CONTINUOUS
 62
    7
 10
304.50757084050531
 20
63.261693698593405
 11
304.63257179417963
 21
63.261693698593405
  0
LINE
  8
_0-d_0_1
  6
CONTINUOUS
 62
    7
 10
304.50757084050531
 20
63.261693698593405
 11
304.38256416478509
 21
63.261693698593405
  0
LINE
  8
_0-d_0_1
  6
CONTINUOUS
 62
    7
 10
304.50757084050531
 20
62.261689883896139
 11
304.38256416478509
 21
62.261689883896139
  0
LINE
  8
_0-d_0_1
  6
CONTINUOUS
 62
    7
 10
304.50757084050531
 20
62.261689883896139
 11
304.63257179417963
 21
62.261689883896139
  0
LINE
  8
_0-d_0_1
  6
CONTINUOUS
 62
    7
 10
304.25756988683099
 20
62.886701327987936
 11
304.00756893315668
 21
62.886701327987936
  0
LINE
  8
_0-d_0_1
  6
CONTINUOUS
 62
    7
 10
304.38256416478509
 20
63.011693698593405
 11
304.38256416478509
 21
63.261693698593405
  0
LINE
  8
_0-d_0_1
  6
CONTINUOUS
 62
    7
 10
304.63257179417963
 20
63.011693698593405
 11
304.63257179417963
 21
63.261693698593405
  0
LINE
  8
_0-d_0_1
  6
CONTINUOUS
 62
    7
 10
304.75757179417963
 20
62.886701327987936
 11
305.00757274785394
 21
62.886701327987936
  0
LINE
  8
_0-d_0_1
  6
CONTINUOUS
 62
    7
 10
304.75757179417963
 20
62.63669751329067
 11
305.00757274785394
 21
62.63669751329067
  0
LINE
  8
_0-d_0_1
  6
CONTINUOUS
 62
    7
 10
304.63257179417963
 20
62.511693698593405
 11
304.63257179417963
 21
62.261689883896139
  0
LINE
  8
_0-d_0_1
  6
CONTINUOUS
 62
    7
 10
304.38256416478509
 20
62.511693698593405
 11
304.38256416478509
 21
62.261689883896139
  0
LINE
  8
_0-d_0_1
  6
CONTINUOUS
 62
    7
 10
304.25756988683099
 20
62.63669751329067
 11
304.00756893315668
 21
62.63669751329067
  0
LINE
  8
_0-d_0_1
  6
CONTINUOUS
 62
    7
 10
303.42178020635004
 20
59.761693698593405
 11
306.25756416478509
 21
59.761693698593405
  0
LINE
  8
_0-d_0_1
  6
CONTINUOUS
 62
    7
 10
306.25756416478509
 20
59.761693698593405
 11
306.25756416478509
 21
57.511701327987936
  0
LINE
  8
_0-d_0_1
  6
CONTINUOUS
 62
    7
 10
329.25756607213373
 20
59.761693698593405
 11
329.25756607213373
 21
57.511701327987936
  0
LINE
  8
_0-d_0_1
  6
CONTINUOUS
 62
    7
 10
332.09335003056879
 20
59.761693698593405
 11
329.25756607213373
 21
59.761693698593405
  0
LINE
  8
_0-d_0_1
  6
CONTINUOUS
 62
    7
 10
328.25756225743646
 20
63.511693698593405
 11
307.25756130376215
 21
63.511693698593405
  0
LINE
  8
_0-d_0_1
  6
CONTINUOUS
 62
    7
 10
307.25756130376215
 20
63.511693698593405
 11
307.25756130376215
 21
58.511705142685202
  0
LINE
  8
_0-d_0_1
  6
CONTINUOUS
 62
    7
 10
328.25756225743646
 20
58.511705142685202
 11
307.25756130376215
 21
58.511705142685202
  0
LINE
  8
_0-d_0_1
  6
CONTINUOUS
 62
    7
 10
328.25756225743646
 20
63.511693698593405
 11
328.25756225743646
 21
58.511705142685202
  0
LINE
  8
_0-d_0_1
  6
CONTINUOUS
 62
    7
 10
302.00756321111078
 20
61.175912601181295
 11
302.00756321111078
 21
64.761701327987936
  0
LINE
  8
_0-d_0_1
  6
CONTINUOUS
 62
    7
 10
303.00756607213373
 20
64.761701327987936
 11
303.00756607213373
 21
61.011701327987936
  0
LINE
  8
_0-d_0_1
  6
CONTINUOUS
 62
    7
 10
332.50756416478509
 20
64.761701327987936
 11
332.50756416478509
 21
61.011701327987936
  0
LINE
  8
_0-d_0_1
  6
CONTINUOUS
 62
    7
 10
332.50756416478509
 20
61.011701327987936
 11
328.25756225743646
 21
61.011701327987936
  0
LINE
  8
_0-d_0_1
  6
CONTINUOUS
 62
    7
 10
307.25756130376215
 20
61.011701327987936
 11
303.00756607213373
 21
61.011701327987936
  0
LINE
  8
_0-d_0_1
  6
CONTINUOUS
 62
    7
 10
302.00756321111078
 20
64.761701327987936
 11
302.00756321111078
 21
66.015351993271139
  0
LINE
  8
_0-d_0_1
  6
CONTINUOUS
 62
    7
 10
333.50756702580804
 20
64.761701327987936
 11
333.50756702580804
 21
66.012384158798483
  0
LINE
  8
_0-d_0_1
  6
CONTINUOUS
 62
    7
 10
296.00756702580804
 20
66.011689883896139
 11
302.00756321111078
 21
66.011689883896139
  0
LINE
  8
_0-d_0_1
  6
CONTINUOUS
 62
    7
 10
333.50756702580804
 20
66.011689883896139
 11
339.50756321111078
 21
66.011689883896139
  0
LINE
  8
_0-d_0_1
  6
CONTINUOUS
 62
    7
 10
333.50756702580804
 20
64.761701327987936
 11
340.25757084050531
 21
64.761701327987936
  0
LINE
  8
_0-d_0_1
  6
CONTINUOUS
 62
    7
 10
303.00756607213373
 20
64.761701327987936
 11
332.50756702580804
 21
64.761701327987936
  0
LINE
  8
_0-d_0_1
  6
CONTINUOUS
 62
    7
 10
295.25756511845941
 20
64.761701327987936
 11
302.00756321111078
 21
64.761701327987936
  0
LINE
  8
_0-d_0_1
  6
CONTINUOUS
 62
    7
 10
303.02508506932611
 20
64.761701327987936
 11
332.50756702580804
 21
64.761701327987936
  0
ARC
  8
_0-d_0_1
  6
CONTINUOUS
 62
    7
 10
295.25757023056372
 20
134.26171542636999
 40
1.4999999999999716
 50
89.999999999997826
 51
180.00000000000105
  0
ARC
  8
_0-d_0_1
  6
CONTINUOUS
 62
    7
 10
340.25757023056383
 20
134.26171542636999
 40
1.4999999999999432
 50
359.99999999999892
 51
90.00000000000216
  0
ARC
  8
_0-d_0_1
  6
CONTINUOUS
 62
    7
 10
340.25757023056383
 20
66.261692538186352
 40
1.4999999999999929
 50
269.99999999999784
 51
0.0000000000003053
  0
ARC
  8
_0-d_0_1
  6
CONTINUOUS
 62
    7
 10
295.25757023056372
 20
66.261692538186352
 40
1.4999999999999432
 50
179.99999999999974
 51
270.0000000000021
  0
ARC
  8
_0-d_0_1
  6
CONTINUOUS
 62
    7
 10
296.00757023056377
 20
133.51171542636999
 40
0.9999999999999712
 50
90
 51
180.00000000000162
  0
ARC
  8
_0-d_0_1
  6
CONTINUOUS
 62
    7
 10
339.50757023056377
 20
133.51171542636999
 40
1
 50
359.99999999999835
 51
90.000000000000014
  0
ARC
  8
_0-d_0_1
  6
CONTINUOUS
 62
    7
 10
339.50757023056377
 20
67.011692538186338
 40
0.9999999999999783
 50
270
 51
0.0000000000011958
  0
ARC
  8
_0-d_0_1
  6
CONTINUOUS
 62
    7
 10
296.00757023056377
 20
67.011692538186338
 40
1
 50
179.99999999999878
 51
270
  0
CIRCLE
  8
_0-d_0_1
  6
CONTINUOUS
 62
    7
 10
298.00757023056377
 20
70.261707796975429
 40
2.25
  0
CIRCLE
  8
_0-d_0_1
  6
CONTINUOUS
 62
    7
 10
337.50757023056377
 20
70.261707796975429
 40
2.25
  0
ARC
  8
_0-d_0_1
  6
CONTINUOUS
 62
    7
 10
299.00757023056377
 20
79.511700167580912
 40
0.9999999999999853
 50
90
 51
180.00000000000082
  0
ARC
  8
_0-d_0_1
  6
CONTINUOUS
 62
    7
 10
336.50757023056377
 20
79.511700167580912
 40
1
 50
359.9999999999992
 51
89.999999999999986
  0
CIRCLE
  8
_0-d_0_1
  6
CONTINUOUS
 62
    7
 10
298.00757023056377
 20
70.261707796975429
 40
0.75
  0
CIRCLE
  8
_0-d_0_1
  6
CONTINUOUS
 62
    7
 10
337.50757023056377
 20
70.261707796975429
 40
0.75
  0
ARC
  8
_0-d_0_1
  6
CONTINUOUS
 62
    7
 10
317.74539371689184
 20
130.25698520176056
 40
0.8000000119210124
 50
0.3370971679715826
 51
179.66290283202838
  0
ARC
  8
_0-d_0_1
  6
CONTINUOUS
 62
    7
 10
317.7453937168919
 20
127.25698520176059
 40
1.7500000000000049
 50
117.27784729003849
 51
62.617691040038949
  0
ARC
  8
_0-d_0_1
  6
CONTINUOUS
 62
    7
 10
317.7453937168919
 20
127.25698520176059
 40
3
 50
180
 51
0
  0
ARC
  8
_0-d_0_1
  6
CONTINUOUS
 62
    7
 10
317.7453937168919
 20
130.25698520176059
 40
3
 50
0
 51
180
  0
CIRCLE
  8
_0-d_0_1
  6
CONTINUOUS
 62
    7
 10
299.75757023056377
 20
79.31170321933871
 40
1.2000000476837158
  0
ARC
  8
_0-d_0_1
  6
CONTINUOUS
 62
    7
 10
299.35757633407945
 20
79.711704745217588
 40
0.2000000029802037
 50
269.99999999998374
 51
0.0000000000080022
  0
ARC
  8
_0-d_0_1
  6
CONTINUOUS
 62
    7
 10
300.15756412704809
 20
79.711704745217588
 40
0.2000000029801754
 50
179.99999999999184
 51
270.00000000001626
  0
ARC
  8
_0-d_0_1
  6
CONTINUOUS
 62
    7
 10
300.15756412704815
 20
78.911709322854307
 40
0.2000000029802606
 50
90
 51
179.99999999999184
  0
ARC
  8
_0-d_0_1
  6
CONTINUOUS
 62
    7
 10
299.3575763340794
 20
78.911709322854307
 40
0.2000000029802322
 50
0.0000000000081422
 51
90
  0
CIRCLE
  8
_0-d_0_1
  6
CONTINUOUS
 62
    7
 10
299.75757023056377
 20
74.31170321933871
 40
1.2000000476837158
  0
ARC
  8
_0-d_0_1
  6
CONTINUOUS
 62
    7
 10
299.35757633407945
 20
74.711712374612119
 40
0.2000000029802037
 50
269.99999999998374
 51
0.0000000000080022
  0
ARC
  8
_0-d_0_1
  6
CONTINUOUS
 62
    7
 10
300.15756412704809
 20
74.711712374612119
 40
0.2000000029801754
 50
179.99999999999184
 51
270.00000000001626
  0
ARC
  8
_0-d_0_1
  6
CONTINUOUS
 62
    7
 10
300.15756412704815
 20
73.911701693459776
 40
0.2000000029802606
 50
90
 51
179.99999999999184
  0
ARC
  8
_0-d_0_1
  6
CONTINUOUS
 62
    7
 10
299.3575763340794
 20
73.911701693459776
 40
0.2000000029802322
 50
0.0000000000081422
 51
90
  0
CIRCLE
  8
_0-d_0_1
  6
CONTINUOUS
 62
    7
 10
335.7453937168919
 20
74.256992831155117
 40
1.2000000476837158
  0
ARC
  8
_0-d_0_1
  6
CONTINUOUS
 62
    7
 10
335.34539982040758
 20
74.657001986428526
 40
0.2000000029802037
 50
269.99999999998374
 51
0.0000000000080022
  0
ARC
  8
_0-d_0_1
  6
CONTINUOUS
 62
    7
 10
336.14538761337622
 20
74.657001986428526
 40
0.2000000029801754
 50
179.99999999999184
 51
270.00000000001626
  0
ARC
  8
_0-d_0_1
  6
CONTINUOUS
 62
    7
 10
336.14538761337627
 20
73.856991305276182
 40
0.2000000029802606
 50
90
 51
179.99999999999184
  0
ARC
  8
_0-d_0_1
  6
CONTINUOUS
 62
    7
 10
335.34539982040752
 20
73.856991305276182
 40
0.2000000029802322
 50
0.0000000000081422
 51
90
  0
CIRCLE
  8
_0-d_0_1
  6
CONTINUOUS
 62
    7
 10
335.7453937168919
 20
79.256992831155117
 40
1.2000000476837158
  0
ARC
  8
_0-d_0_1
  6
CONTINUOUS
 62
    7
 10
335.34539982040758
 20
79.656994357033994
 40
0.2000000029802037
 50
269.99999999998374
 51
0.0000000000080022
  0
ARC
  8
_0-d_0_1
  6
CONTINUOUS
 62
    7
 10
336.14538761337622
 20
79.656994357033994
 40
0.2000000029801754
 50
179.99999999999184
 51
270.00000000001626
  0
ARC
  8
_0-d_0_1
  6
CONTINUOUS
 62
    7
 10
336.14538761337627
 20
78.856983675881651
 40
0.2000000029802606
 50
90
 51
179.99999999999184
  0
ARC
  8
_0-d_0_1
  6
CONTINUOUS
 62
    7
 10
335.34539982040752
 20
78.856983675881651
 40
0.2000000029802322
 50
0.0000000000081422
 51
90
  0
CIRCLE
  8
_0-d_0_1
  6
CONTINUOUS
 62
    7
 10
297.00757023056377
 20
100.2617001675809
 40
1
  0
CIRCLE
  8
_0-d_0_1
  6
CONTINUOUS
 62
    7
 10
338.50757023056377
 20
100.2617001675809
 40
1
  0
CIRCLE
  8
_0-d_0_1
  6
CONTINUOUS
 62
    7
 10
331.00757023056377
 20
62.761692538186367
 40
0.75
  0
ARC
  8
_0-d_0_1
  6
CONTINUOUS
 62
    7
 10
330.75757023056377
 20
63.011692538186338
 40
0.1249999999999716
 50
270
 51
0.0000000000130148
  0
ARC
  8
_0-d_0_1
  6
CONTINUOUS
 62
    7
 10
331.25757023056377
 20
63.011692538186338
 40
0.125
 50
179.99999999998701
 51
270
  0
ARC
  8
_0-d_0_1
  6
CONTINUOUS
 62
    7
 10
331.25757023056377
 20
62.511692538186395
 40
0.1249999999999716
 50
90
 51
180.00000000001305
  0
ARC
  8
_0-d_0_1
  6
CONTINUOUS
 62
    7
 10
330.75757023056377
 20
62.511692538186395
 40
0.125
 50
359.99999999998698
 51
89.999999999999986
  0
CIRCLE
  8
_0-d_0_1
  6
CONTINUOUS
 62
    7
 10
304.50757023056377
 20
62.761692538186367
 40
0.75
  0
ARC
  8
_0-d_0_1
  6
CONTINUOUS
 62
    7
 10
304.25757023056377
 20
63.011692538186338
 40
0.1249999999999716
 50
270
 51
0.0000000000130148
  0
ARC
  8
_0-d_0_1
  6
CONTINUOUS
 62
    7
 10
304.75757023056377
 20
63.011692538186338
 40
0.125
 50
179.99999999998701
 51
270
  0
ARC
  8
_0-d_0_1
  6
CONTINUOUS
 62
    7
 10
304.75757023056377
 20
62.511692538186395
 40
0.1249999999999716
 50
90
 51
180.00000000001305
  0
ARC
  8
_0-d_0_1
  6
CONTINUOUS
 62
    7
 10
304.25757023056377
 20
62.511692538186395
 40
0.125
 50
359.99999999998698
 51
89.999999999999986
  0
CIRCLE
  8
_0-d_0_1
  6
CONTINUOUS
 62
    7
 10
326.00757023056377
 20
61.761700167580898
 40
0.75
  0
CIRCLE
  8
_0-d_0_1
  6
CONTINUOUS
 62
    7
 10
320.50757023056377
 20
61.761700167580898
 40
0.75
  0
CIRCLE
  8
_0-d_0_1
  6
CONTINUOUS
 62
    7
 10
315.00757023056377
 20
61.761700167580898
 40
0.75
  0
CIRCLE
  8
_0-d_0_1
  6
CONTINUOUS
 62
    7
 10
309.50757023056377
 20
61.761700167580898
 40
0.75
  0
TEXT
  8
_0-7_注記層１
 62
    7
 10
202.4161237785016
 20
203.74297638436488
 40
2.5
 41
1
 50
90
  1
定格電圧　AC250V
  0
TEXT
  8
_0-7_注記層１
 62
    7
 10
204.9161237785016
 20
203.74297638436488
 40
2.5
 41
1
 50
90
  1
定格電流　7A
  0
TEXT
  8
_0-7_注記層１
 62
    7
 10
207.4161237785016
 20
203.74297638436488
 40
2.5
 41
1
 50
90
  1
スナオ電気株式会社
  0
LINE
  8
_0-d_0_1
  6
CONTINUOUS
 62
    7
 10
59.343482920413408
 20
219.88359192246804
 11
52.361915537600908
 21
219.33115986222634
  0
LINE
  8
_0-d_0_1
  6
CONTINUOUS
 62
    7
 10
52.296520182376298
 20
220.32901779050241
 11
59.290456721072587
 21
220.69258156651864
  0
LINE
  8
_0-d_0_1
  6
CONTINUOUS
 62
    7
 10
59.562280604129228
 20
217.93267849320779
 11
52.631805369143876
 21
216.92481211060891
  0
LINE
  8
_0-d_0_1
  6
CONTINUOUS
 62
    7
 10
52.501285502200517
 20
217.91625717515359
 11
59.456464716678056
 21
218.736471446699
  0
LINE
  8
_0-d_0_1
  6
CONTINUOUS
 62
    7
 10
59.908216425662431
 20
216.00025156373391
 11
53.058494517093095
 21
214.54126337403665
  0
LINE
  8
_0-d_0_1
  6
CONTINUOUS
 62
    7
 10
52.863403269534501
 20
215.52205255860696
 11
59.750047632937822
 21
216.79540041322122
  0
LINE
  8
_0-d_0_1
  6
CONTINUOUS
 62
    7
 10
60.379793116336259
 20
214.09458616608987
 11
53.640155741458329
 21
212.190732749647
  0
LINE
  8
_0-d_0_1
  6
CONTINUOUS
 62
    7
 10
53.38133997607747
 20
213.1566579663218
 11
60.16996187854329
 21
214.87769726151834
  0
LINE
  8
_0-d_0_1
  6
CONTINUOUS
 62
    7
 10
60.974988886599931
 20
212.22384718293557
 11
54.374305674319658
 21
209.88327196473489
  0
LINE
  8
_0-d_0_1
  6
CONTINUOUS
 62
    7
 10
54.052867838626298
 20
210.83020380372415
 11
60.714397379641923
 21
212.99155119294534
  0
LINE
  8
_0-d_0_1
  6
CONTINUOUS
 62
    7
 10
61.69127649951497
 20
210.39603689545999
 11
55.257801005130204
 21
207.62877634400735
  0
LINE
  8
_0-d_0_1
  6
CONTINUOUS
 62
    7
 10
54.875122019534501
 20
208.55265501374612
 11
61.381017634158525
 21
211.14505365723977
  0
LINE
  8
_0-d_0_1
  6
CONTINUOUS
 62
    7
 10
62.525567957644853
 20
208.61898783082376
 11
56.28685755420247
 21
205.43688753480325
  0
LINE
  8
_0-d_0_1
  6
CONTINUOUS
 62
    7
 10
55.844562479739579
 20
206.33375814790139
 11
62.166990229373368
 21
209.34611585969338
  0
LINE
  8
_0-d_0_1
  6
CONTINUOUS
 62
    7
 10
56.957065531497392
 20
204.18301370973001
 11
63.068935343509111
 21
207.60242536897073
  0
LINE
  8
_0-d_0_1
  6
CONTINUOUS
 62
    7
 10
76.346114107852372
 20
195.16699198121438
 11
73.33375639606038
 21
188.84456423158059
  0
LINE
  8
_0-d_0_1
  6
CONTINUOUS
 62
    7
 10
72.436885782962236
 20
189.28685930604348
 11
75.618986078982743
 21
195.52556970948586
  0
LINE
  8
_0-d_0_1
  6
CONTINUOUS
 62
    7
 10
78.145051905398759
 20
194.38101938599954
 11
75.552653261905107
 21
187.87512377137551
  0
LINE
  8
_0-d_0_1
  6
CONTINUOUS
 62
    7
 10
74.628774592166337
 20
188.25780275697122
 11
77.396035143618974
 21
194.69127825135598
  0
LINE
  8
_0-d_0_1
  6
CONTINUOUS
 62
    7
 10
79.991549441104326
 20
193.71439913148293
 11
77.830202051883134
 21
187.05286959046731
  0
LINE
  8
_0-d_0_1
  6
CONTINUOUS
 62
    7
 10
76.883270212893876
 20
187.37430742616067
 11
79.22384543109456
 21
193.97499063844094
  0
LINE
  8
_0-d_0_1
  6
CONTINUOUS
 62
    7
 10
99.276154467349429
 20
193.97499063844094
 11
101.61672968555011
 21
187.37430742616067
  0
LINE
  8
_0-d_0_1
  6
CONTINUOUS
 62
    7
 10
100.66979784656085
 20
187.05286959046731
 11
98.508450457339663
 21
193.71439913148293
  0
LINE
  8
_0-d_0_1
  6
CONTINUOUS
 62
    7
 10
101.10396475482501
 20
194.69127825135598
 11
103.8712338893465
 21
188.25780275697122
  0
LINE
  8
_0-d_0_1
  6
CONTINUOUS
 62
    7
 10
102.94734663653888
 20
187.87512377137551
 11
100.35494799304523
 21
194.38101938599954
  0
LINE
  8
_0-d_0_1
  6
CONTINUOUS
 62
    7
 10
102.88101381946124
 20
195.52556970948586
 11
106.06311411548175
 21
189.28685930604348
  0
LINE
  8
_0-d_0_1
  6
CONTINUOUS
 62
    7
 10
105.16624350238361
 20
188.84456423158059
 11
102.15388579059162
 21
195.16699198121438
  0
LINE
  8
_0-d_0_1
  6
CONTINUOUS
 62
    7
 10
110.74790377307453
 20
201.3253705822886
 11
115.76650995898761
 21
196.44060304993997
  0
LINE
  8
_0-d_0_1
  6
CONTINUOUS
 62
    7
 10
115.05939860034503
 20
195.73350122804055
 11
110.1746310679964
 21
200.75209787721047
  0
LINE
  8
_0-d_0_1
  6
CONTINUOUS
 62
    7
 10
112.07041926074542
 20
202.77620485658059
 11
117.39775271106281
 21
198.23012712830911
  0
LINE
  8
_0-d_0_1
  6
CONTINUOUS
 62
    7
 10
116.73839182544269
 20
197.47829225892434
 11
111.53585238147296
 21
202.16666963929543
  0
LINE
  8
_0-d_0_1
  6
CONTINUOUS
 62
    7
 10
113.29519266772785
 20
204.31042269105325
 11
118.90845293689289
 21
200.12250307435403
  0
LINE
  8
_0-d_0_1
  6
CONTINUOUS
 62
    7
 10
118.29969782519855
 20
199.3291547619761
 11
112.80165857959308
 21
203.66723039979348
  0
LINE
  8
_0-d_0_1
  6
CONTINUOUS
 62
    7
 10
114.41701311755695
 20
205.92146471375833
 11
120.29215807605304
 21
202.10964372987161
  0
LINE
  8
_0-d_0_1
  6
CONTINUOUS
 62
    7
 10
119.73659510303058
 20
201.27817133302102
 11
113.96659083056964
 21
205.24737146729836
  0
LINE
  8
_0-d_0_1
  6
CONTINUOUS
 62
    7
 10
115.43106455493488
 20
207.60242536897073
 11
121.5429343669466
 21
204.18301370973001
  0
LINE
  8
_0-d_0_1
  6
CONTINUOUS
 62
    7
 10
121.04294199634113
 20
203.31699159974465
 11
115.0256995647005
 21
206.90031984681497
  0
LINE
  8
_0-d_0_1
  6
CONTINUOUS
 62
    7
 10
116.33300966907062
 20
209.34611585969338
 11
122.65542597461261
 21
206.33375814790139
  0
LINE
  8
_0-d_0_1
  6
CONTINUOUS
 62
    7
 10
122.21314234424152
 20
205.43688753480325
 11
115.97443194079914
 21
208.61898783082376
  0
LINE
  8
_0-d_0_1
  6
CONTINUOUS
 62
    7
 10
117.11898226428546
 20
211.14505365723977
 11
123.62487787890949
 21
208.55265501374612
  0
LINE
  8
_0-d_0_1
  6
CONTINUOUS
 62
    7
 10
123.24220652270832
 20
207.62877634400735
 11
116.80873293567218
 21
210.39603689545999
  0
LINE
  8
_0-d_0_1
  6
CONTINUOUS
 62
    7
 10
117.78560251880207
 20
212.99155119294534
 11
124.44712061572589
 21
210.83020380372415
  0
LINE
  8
_0-d_0_1
  6
CONTINUOUS
 62
    7
 10
124.12569422412433
 20
209.88327196473489
 11
117.52501101184406
 21
212.22384718293557
  0
LINE
  8
_0-d_0_1
  6
CONTINUOUS
 62
    7
 10
118.3300380199007
 20
214.87769726151834
 11
125.11865992236652
 21
213.1566579663218
  0
LINE
  8
_0-d_0_1
  6
CONTINUOUS
 62
    7
 10
124.85983652759113
 20
212.190732749647
 11
118.12020678210773
 21
214.09458616608987
  0
LINE
  8
_0-d_0_1
  6
CONTINUOUS
 62
    7
 10
118.74996180224933
 20
216.79540041322122
 11
125.63660425830402
 21
215.52205255860696
  0
LINE
  8
_0-d_0_1
  6
CONTINUOUS
 62
    7
 10
125.44150538135089
 20
214.54126337403665
 11
118.59178347278156
 21
216.00025156373391
  0
LINE
  8
_0-d_0_1
  6
CONTINUOUS
 62
    7
 10
119.04353518176593
 20
218.736471446699
 11
125.99871439624347
 21
217.91625717515359
  0
LINE
  8
_0-d_0_1
  6
CONTINUOUS
 62
    7
 10
125.86820215869464
 20
216.92481211060891
 11
118.9377097575716
 21
217.93267849320779
  0
LINE
  8
_0-d_0_1
  6
CONTINUOUS
 62
    7
 10
119.20955080676593
 20
220.69258156651864
 11
126.20348734546222
 21
220.32901779050241
  0
LINE
  8
_0-d_0_1
  6
CONTINUOUS
 62
    7
 10
126.13808436084308
 20
219.33115986222634
 11
119.15651697803058
 21
219.88359192246804
  0
LINE
  8
_0-d_0_1
  6
CONTINUOUS
 62
    7
 10
119.24725908923664
 20
222.65536698932061
 11
126.24999613452472
 21
222.75000235671411
  0
LINE
  8
_0-d_0_1
  6
CONTINUOUS
 62
    7
 10
126.24999613452472
 20
221.75000104541192
 11
119.24725908923664
 21
221.84463641280541
  0
LINE
  8
_0-d_0_1
  6
CONTINUOUS
 62
    7
 10
119.15651697803058
 20
224.61641147965798
 11
126.13808436084308
 21
225.16884353989968
  0
LINE
  8
_0-d_0_1
  6
CONTINUOUS
 62
    7
 10
126.20348734546222
 20
224.17098561162362
 11
119.20955080676593
 21
223.80742183560739
  0
LINE
  8
_0-d_0_1
  6
CONTINUOUS
 62
    7
 10
118.9377097575716
 20
226.56732490891824
 11
125.86820215869464
 21
227.57519129151711
  0
LINE
  8
_0-d_0_1
  6
CONTINUOUS
 62
    7
 10
125.99871439624347
 20
226.58374622697244
 11
119.04353518176593
 21
225.76353195542703
  0
LINE
  8
_0-d_0_1
  6
CONTINUOUS
 62
    7
 10
118.59178347278156
 20
228.49975183839211
 11
125.44150538135089
 21
229.95874002808938
  0
LINE
  8
_0-d_0_1
  6
CONTINUOUS
 62
    7
 10
125.63660425830402
 20
228.97795084351907
 11
118.74996180224933
 21
227.70460298890481
  0
LINE
  8
_0-d_0_1
  6
CONTINUOUS
 62
    7
 10
118.12020678210773
 20
230.40541723603616
 11
124.85983652759113
 21
232.30927065247903
  0
LINE
  8
_0-d_0_1
  6
CONTINUOUS
 62
    7
 10
125.11865992236652
 20
231.34334543580422
 11
118.3300380199007
 21
229.62230614060769
  0
LINE
  8
_0-d_0_1
  6
CONTINUOUS
 62
    7
 10
117.52501101184406
 20
232.27615621919045
 11
124.12569422412433
 21
234.61673143739114
  0
LINE
  8
_0-d_0_1
  6
CONTINUOUS
 62
    7
 10
124.44712061572589
 20
233.66979959840188
 11
117.78560251880207
 21
231.50845220918069
  0
LINE
  8
_0-d_0_1
  6
CONTINUOUS
 62
    7
 10
116.80873293567218
 20
234.10396650666604
 11
123.24220652270832
 21
236.87122705811868
  0
LINE
  8
_0-d_0_1
  6
CONTINUOUS
 62
    7
 10
123.62487787890949
 20
235.94734838837991
 11
117.11898226428546
 21
233.35494974488626
  0
LINE
  8
_0-d_0_1
  6
CONTINUOUS
 62
    7
 10
115.97443194079914
 20
235.88101557130227
 11
122.21314234424152
 21
239.06311586732278
  0
LINE
  8
_0-d_0_1
  6
CONTINUOUS
 62
    7
 10
122.65542597461261
 20
238.16624525422463
 11
116.33300966907062
 21
235.15388754243264
  0
LINE
  8
_0-d_0_1
  6
CONTINUOUS
 62
    7
 10
115.0256995647005
 20
237.59968355531106
 11
121.04294199634113
 21
241.18301180238137
  0
LINE
  8
_0-d_0_1
  6
CONTINUOUS
 62
    7
 10
121.5429343669466
 20
240.31698969239602
 11
115.43106455493488
 21
236.8975780331553
  0
LINE
  8
_0-d_0_1
  6
CONTINUOUS
 62
    7
 10
113.96659083056964
 20
239.25263193482766
 11
119.73659510303058
 21
243.22183206910501
  0
LINE
  8
_0-d_0_1
  6
CONTINUOUS
 62
    7
 10
120.29215807605304
 20
242.39035967225442
 11
114.41701311755695
 21
238.5785386883677
  0
LINE
  8
_0-d_0_1
  6
CONTINUOUS
 62
    7
 10
112.80165857959308
 20
240.83277300233254
 11
118.29969782519855
 21
245.17085626954446
  0
LINE
  8
_0-d_0_1
  6
CONTINUOUS
 62
    7
 10
118.90845293689289
 20
244.377500327772
 11
113.29519266772785
 21
240.18958071107278
  0
LINE
  8
_0-d_0_1
  6
CONTINUOUS
 62
    7
 10
111.53585238147296
 20
242.33333376283059
 11
116.73839182544269
 21
247.02171114320168
  0
LINE
  8
_0-d_0_1
  6
CONTINUOUS
 62
    7
 10
117.39775271106281
 20
246.26987627381692
 11
112.07041926074542
 21
241.72379854554543
  0
LINE
  8
_0-d_0_1
  6
CONTINUOUS
 62
    7
 10
110.1746310679964
 20
243.74790552491555
 11
115.05939860034503
 21
248.76649454469094
  0
LINE
  8
_0-d_0_1
  6
CONTINUOUS
 62
    7
 10
115.76650995898761
 20
248.05940035218606
 11
110.74790377307453
 21
243.17463281983743
  0
LINE
  8
_0-d_0_1
  6
CONTINUOUS
 62
    7
 10
108.72380633044757
 20
245.07042101258645
 11
113.26987452197589
 21
250.39775446290383
  0
LINE
  8
_0-d_0_1
  6
CONTINUOUS
 62
    7
 10
114.02170939136066
 20
249.73839357728372
 11
109.33333201098957
 21
244.53586176270852
  0
LINE
  8
_0-d_0_1
  6
CONTINUOUS
 62
    7
 10
107.18956942248859
 20
246.29519441956887
 11
111.37749857593097
 21
251.90845468873391
  0
LINE
  8
_0-d_0_1
  6
CONTINUOUS
 62
    7
 10
112.17085451770343
 20
251.29968050355325
 11
107.83276171374835
 21
245.80166033143411
  0
LINE
  8
_0-d_0_1
  6
CONTINUOUS
 62
    7
 10
105.57853693652667
 20
247.41701486939797
 11
109.39035792041339
 21
253.29215982789407
  0
LINE
  8
_0-d_0_1
  6
CONTINUOUS
 62
    7
 10
110.22183985400714
 20
252.73657778138528
 11
106.25263018298664
 21
246.96659258241067
  0
LINE
  8
_0-d_0_1
  6
CONTINUOUS
 62
    7
 10
103.89756769824542
 20
248.4310663067759
 11
107.31698794055499
 21
254.54293611878762
  0
LINE
  8
_0-d_0_1
  6
CONTINUOUS
 62
    7
 10
108.18301005054035
 20
254.04294374818215
 11
104.5996913402132
 21
248.02570131654153
  0
LINE
  8
_0-d_0_1
  6
CONTINUOUS
 62
    7
 10
102.15388579059162
 20
249.33301142091165
 11
105.16624350238361
 21
255.65544679993997
  0
LINE
  8
_0-d_0_1
  6
CONTINUOUS
 62
    7
 10
106.06311411548175
 20
255.21314409608254
 11
102.88101381946124
 21
248.97443369264016
  0
LINE
  8
_0-d_0_1
  6
CONTINUOUS
 62
    7
 10
100.35494799304523
 20
250.11898401612649
 11
102.94734663653888
 21
256.62487963075051
  0
LINE
  8
_0-d_0_1
  6
CONTINUOUS
 62
    7
 10
103.8712338893465
 20
256.24220827454934
 11
101.10396475482501
 21
249.80873468751321
  0
LINE
  8
_0-d_0_1
  6
CONTINUOUS
 62
    7
 10
98.508450457339663
 20
250.78560427064309
 11
100.66979784656085
 21
257.44712236756692
  0
LINE
  8
_0-d_0_1
  6
CONTINUOUS
 62
    7
 10
101.61672968555011
 20
257.12569597596536
 11
99.276154467349429
 21
250.52501276368508
  0
LINE
  8
_0-d_0_1
  6
CONTINUOUS
 62
    7
 10
96.622304388766665
 20
251.33003977174172
 11
98.343343683963198
 21
258.11866167420754
  0
LINE
  8
_0-d_0_1
  6
CONTINUOUS
 62
    7
 10
99.309260317569155
 20
257.85983827943215
 11
97.405424067263979
 21
251.12020853394876
  0
LINE
  8
_0-d_0_1
  6
CONTINUOUS
 62
    7
 10
94.704609820132632
 20
251.74996355409036
 11
95.977940508609194
 21
258.63660601014504
  0
LINE
  8
_0-d_0_1
  6
CONTINUOUS
 62
    7
 10
96.958746859317202
 20
258.44150713319192
 11
95.499750086551089
 21
251.59178522462258
  0
LINE
  8
_0-d_0_1
  6
CONTINUOUS
 62
    7
 10
92.763530203586001
 20
252.04353693360696
 11
93.583753058200259
 21
258.9987161480845
  0
LINE
  8
_0-d_0_1
  6
CONTINUOUS
 62
    7
 10
94.575198122744936
 20
258.86820391053567
 11
93.567323157077212
 21
251.93771150941262
  0
LINE
  8
_0-d_0_1
  6
CONTINUOUS
 62
    7
 10
90.80742008376636
 20
252.20955255860696
 11
91.170983859782595
 21
259.20348909730325
  0
LINE
  8
_0-d_0_1
  6
CONTINUOUS
 62
    7
 10
92.168841788058657
 20
259.13808611268411
 11
91.616409727816958
 21
252.15651872987161
  0
LINE
  8
_0-d_0_1
  6
CONTINUOUS
 62
    7
 10
88.844634660964388
 20
252.24726084107766
 11
88.749999293570895
 21
259.24999788636575
  0
LINE
  8
_0-d_0_1
  6
CONTINUOUS
 62
    7
 10
89.75000060487308
 20
259.24999788636575
 11
89.655365237479586
 21
252.24726084107766
  0
LINE
  8
_0-d_0_1
  6
CONTINUOUS
 62
    7
 10
86.883590170627016
 20
252.15651872987161
 11
86.33114952731647
 21
259.13808611268411
  0
LINE
  8
_0-d_0_1
  6
CONTINUOUS
 62
    7
 10
87.329016038661379
 20
259.20348909730325
 11
87.692579814677615
 21
252.20955255860696
  0
LINE
  8
_0-d_0_1
  6
CONTINUOUS
 62
    7
 10
84.932676741366762
 20
251.93771150941262
 11
83.924810358767886
 21
258.86820391053567
  0
LINE
  8
_0-d_0_1
  6
CONTINUOUS
 62
    7
 10
84.916255423312563
 20
258.9987161480845
 11
85.736469694857973
 21
252.04353693360696
  0
LINE
  8
_0-d_0_1
  6
CONTINUOUS
 62
    7
 10
83.000249811892886
 20
251.59178522462258
 11
81.541261622195634
 21
258.44150713319192
  0
LINE
  8
_0-d_0_1
  6
CONTINUOUS
 62
    7
 10
82.522050806765932
 20
258.63660601014504
 11
83.79539866138019
 21
251.74996355409036
  0
LINE
  8
_0-d_0_1
  6
CONTINUOUS
 62
    7
 10
81.094584414248857
 20
251.12020853394876
 11
79.190730997805986
 21
257.85983827943215
  0
LINE
  8
_0-d_0_1
  6
CONTINUOUS
 62
    7
 10
80.15665621448079
 20
258.11866167420754
 11
81.877695509677324
 21
251.33003977174172
  0
LINE
  8
_0-d_0_1
  6
CONTINUOUS
 62
    7
 10
79.22384543109456
 20
250.52501276368508
 11
76.883270212893876
 21
257.12569597596536
  0
LINE
  8
_0-d_0_1
  6
CONTINUOUS
 62
    7
 10
77.830202051883134
 20
257.44712236756692
 11
79.991549441104326
 21
250.78560427064309
  0
LINE
  8
_0-d_0_1
  6
CONTINUOUS
 62
    7
 10
77.396035143618974
 20
249.80871752137551
 11
74.628774592166337
 21
256.24220827454934
  0
LINE
  8
_0-d_0_1
  6
CONTINUOUS
 62
    7
 10
75.552653261905107
 20
256.62487963075051
 11
78.145051905398759
 21
250.11898401612649
  0
LINE
  8
_0-d_0_1
  6
CONTINUOUS
 62
    7
 10
75.618986078982743
 20
248.97443369264016
 11
72.436885782962236
 21
255.21314409608254
  0
LINE
  8
_0-d_0_1
  6
CONTINUOUS
 62
    7
 10
73.33375639606038
 20
255.65544679993997
 11
76.346114107852372
 21
249.33301142091165
  0
LINE
  8
_0-d_0_1
  6
CONTINUOUS
 62
    7
 10
73.900318094973954
 20
248.02570131654153
 11
70.316989847903642
 21
254.04294374818215
  0
LINE
  8
_0-d_0_1
  6
CONTINUOUS
 62
    7
 10
71.183011957888993
 20
254.54293611878762
 11
74.602423617129716
 21
248.4310663067759
  0
LINE
  8
_0-d_0_1
  6
CONTINUOUS
 62
    7
 10
72.247369715457353
 20
246.96659258241067
 11
68.278169581180009
 21
252.73657778138528
  0
LINE
  8
_0-d_0_1
  6
CONTINUOUS
 62
    7
 10
69.109641978030595
 20
253.29215982789407
 11
72.921462961917314
 21
247.41701486939797
  0
LINE
  8
_0-d_0_1
  6
CONTINUOUS
 62
    7
 10
70.66722864795247
 20
245.80166033143411
 11
66.329153010135087
 21
251.29968050355325
  0
LINE
  8
_0-d_0_1
  6
CONTINUOUS
 62
    7
 10
67.122501322513017
 20
251.90845468873391
 11
71.310420939212236
 21
246.29519441956887
  0
LINE
  8
_0-d_0_1
  6
CONTINUOUS
 62
    7
 10
69.166667887454423
 20
244.53586176270852
 11
64.478290507083329
 21
249.73839357728372
  0
LINE
  8
_0-d_0_1
  6
CONTINUOUS
 62
    7
 10
65.230125376468095
 20
250.39775446290383
 11
69.776203104739579
 21
245.07042101258645
  0
LINE
  8
_0-d_0_1
  6
CONTINUOUS
 62
    7
 10
63.440601298098954
 20
248.76649454469094
 11
68.325368830447587
 21
243.74790552491555
  0
LINE
  8
_0-d_0_1
  6
CONTINUOUS
 62
    7
 10
62.166990229373368
 20
235.15388754243264
 11
55.844562479739579
 21
238.16624525422463
  0
LINE
  8
_0-d_0_1
  6
CONTINUOUS
 62
    7
 10
56.28685755420247
 20
239.06311586732278
 11
62.525567957644853
 21
235.88100603455911
  0
LINE
  8
_0-d_0_1
  6
CONTINUOUS
 62
    7
 10
61.381017634158525
 20
233.35494974488626
 11
54.87511439013997
 21
235.94734838837991
  0
LINE
  8
_0-d_0_1
  6
CONTINUOUS
 62
    7
 10
55.257801005130204
 20
236.87122705811868
 11
61.691266962771806
 21
234.10396650666604
  0
LINE
  8
_0-d_0_1
  6
CONTINUOUS
 62
    7
 10
60.714397379641923
 20
231.50845220918069
 11
54.052867838626298
 21
233.66979101533303
  0
LINE
  8
_0-d_0_1
  6
CONTINUOUS
 62
    7
 10
54.374305674319658
 20
234.61672285432229
 11
60.974988886599931
 21
232.27615621919045
  0
LINE
  8
_0-d_0_1
  6
CONTINUOUS
 62
    7
 10
60.16996187854329
 20
229.62230614060769
 11
53.38133997607747
 21
231.34334543580422
  0
LINE
  8
_0-d_0_1
  6
CONTINUOUS
 62
    7
 10
53.640155741458329
 20
232.30927065247903
 11
60.379793116336259
 21
230.40541723603616
  0
LINE
  8
_0-d_0_1
  6
CONTINUOUS
 62
    7
 10
59.750047632937822
 20
227.70460298890481
 11
52.86339564013997
 21
228.97795084351907
  0
LINE
  8
_0-d_0_1
  6
CONTINUOUS
 62
    7
 10
53.058494517093095
 20
229.95874002808938
 11
59.908216425662431
 21
228.49975183839211
  0
LINE
  8
_0-d_0_1
  6
CONTINUOUS
 62
    7
 10
59.456464716678056
 20
225.76353195542703
 11
52.501285502200517
 21
226.58374622697244
  0
LINE
  8
_0-d_0_1
  6
CONTINUOUS
 62
    7
 10
52.631805369143876
 20
227.57519129151711
 11
59.562280604129228
 21
226.56732490891824
  0
LINE
  8
_0-d_0_1
  6
CONTINUOUS
 62
    7
 10
59.290456721072587
 20
223.80742183560739
 11
52.296520182376298
 21
224.17098561162362
  0
LINE
  8
_0-d_0_1
  6
CONTINUOUS
 62
    7
 10
52.361915537600908
 20
225.16884353989968
 11
59.343482920413408
 21
224.61641147965798
  0
ARC
  8
_0-d_0_1
  6
CONTINUOUS
 62
    7
 10
89.249999999919453
 20
222.2499999999944
 40
29.999996185222013
 50
182.97578430175511
 51
184.52421569824358
  0
ARC
  8
_0-d_0_1
  6
CONTINUOUS
 62
    7
 10
89.250000000000298
 20
222.24999999999969
 40
29.999996185303004
 50
186.72578430175713
 51
188.27421569824159
  0
ARC
  8
_0-d_0_1
  6
CONTINUOUS
 62
    7
 10
89.250000000070798
 20
222.25000000001432
 40
29.999996185374979
 50
190.47578430176017
 51
192.02421569824079
  0
ARC
  8
_0-d_0_1
  6
CONTINUOUS
 62
    7
 10
89.25000000010516
 20
222.25000000002839
 40
29.999996185411668
 50
194.22578430176102
 51
195.77421569823977
  0
ARC
  8
_0-d_0_1
  6
CONTINUOUS
 62
    7
 10
89.250000000013671
 20
222.25000000000446
 40
29.999996185317123
 50
197.97578430175781
 51
199.52421569824142
  0
ARC
  8
_0-d_0_1
  6
CONTINUOUS
 62
    7
 10
89.249999999913697
 20
222.24999999996459
 40
29.999996185209465
 50
201.72578430175599
 51
203.27421569824514
  0
ARC
  8
_0-d_0_1
  6
CONTINUOUS
 62
    7
 10
89.249999999918046
 20
222.24999999995887
 40
29.99999618521106
 50
205.4757843017542
 51
207.0242156982433
  0
ARC
  8
_0-d_0_1
  6
CONTINUOUS
 62
    7
 10
89.250000000114937
 20
222.25000000022925
 40
29.999996185559166
 50
242.97578430176111
 51
244.5242156982323
  0
ARC
  8
_0-d_0_1
  6
CONTINUOUS
 62
    7
 10
89.249999999993889
 20
222.24999999998073
 40
29.999996185282598
 50
246.72578430175392
 51
248.27421569823935
  0
ARC
  8
_0-d_0_1
  6
CONTINUOUS
 62
    7
 10
89.2499999999187
 20
222.24999999975543
 40
29.999996185045038
 50
250.47578430174804
 51
252.02421569824571
  0
ARC
  8
_0-d_0_1
  6
CONTINUOUS
 62
    7
 10
89.250000000046455
 20
222.25000000017255
 40
29.999996185481411
 50
254.22578430176202
 51
255.77421569823719
  0
ARC
  8
_0-d_0_1
  6
CONTINUOUS
 62
    7
 10
89.250000000045191
 20
222.25000000022072
 40
29.999996185528012
 50
257.97578430176122
 51
259.524215698234
  0
ARC
  8
_0-d_0_1
  6
CONTINUOUS
 62
    7
 10
89.249999999972502
 20
222.24999999978894
 40
29.999996185089906
 50
261.72578430175173
 51
263.27421569824708
  0
ARC
  8
_0-d_0_1
  6
CONTINUOUS
 62
    7
 10
89.250000000004974
 20
222.25000000006648
 40
29.999996185369376
 50
265.47578430175827
 51
267.02421569823917
  0
ARC
  8
_0-d_0_1
  6
CONTINUOUS
 62
    7
 10
89.249999999999972
 20
222.2499999999759
 40
29.999996185278633
 50
269.22578430175713
 51
270.77421569824276
  0
ARC
  8
_0-d_0_1
  6
CONTINUOUS
 62
    7
 10
89.249999999994245
 20
222.25000000007873
 40
29.999996185381647
 50
272.97578430176094
 51
274.52421569824128
  0
ARC
  8
_0-d_0_1
  6
CONTINUOUS
 62
    7
 10
89.250000000032742
 20
222.24999999974867
 40
29.999996185049291
 50
276.72578430175184
 51
278.27421569824935
  0
ARC
  8
_0-d_0_1
  6
CONTINUOUS
 62
    7
 10
89.249999999966633
 20
222.25000000016112
 40
29.999996185467253
 50
280.47578430176452
 51
282.02421569824037
  0
ARC
  8
_0-d_0_1
  6
CONTINUOUS
 62
    7
 10
89.249999999953516
 20
222.25000000017255
 40
29.999996185481411
 50
284.22578430176281
 51
285.77421569823798
  0
ARC
  8
_0-d_0_1
  6
CONTINUOUS
 62
    7
 10
89.250000000064858
 20
222.2499999998048
 40
29.99999618509705
 50
287.97578430175497
 51
289.52421569825003
  0
ARC
  8
_0-d_0_1
  6
CONTINUOUS
 62
    7
 10
89.24999999996048
 20
222.25000000009084
 40
29.999996185401763
 50
291.72578430176361
 51
293.27421569824298
  0
ARC
  8
_0-d_0_1
  6
CONTINUOUS
 62
    7
 10
89.250000000101124
 20
222.2499999997921
 40
29.999996185071556
 50
295.47578430175423
 51
297.02421569825054
  0
ARC
  8
_0-d_0_1
  6
CONTINUOUS
 62
    7
 10
89.249999999707455
 20
222.25000000029249
 40
29.999996185716391
 50
314.2257843017685
 51
315.7742156982315
  0
ARC
  8
_0-d_0_1
  6
CONTINUOUS
 62
    7
 10
89.249999999875584
 20
222.25000000011028
 40
29.999996185468973
 50
317.97578430176043
 51
319.52421569823616
  0
ARC
  8
_0-d_0_1
  6
CONTINUOUS
 62
    7
 10
89.249999999979536
 20
222.25000000001569
 40
29.999996185328509
 50
321.72578430175844
 51
323.27421569824145
  0
ARC
  8
_0-d_0_1
  6
CONTINUOUS
 62
    7
 10
89.250000000244128
 20
222.24999999983703
 40
29.999996185009213
 50
325.47578430174997
 51
327.02421569824946
  0
ARC
  8
_0-d_0_1
  6
CONTINUOUS
 62
    7
 10
89.249999999995055
 20
222.25000000000381
 40
29.999996185308913
 50
329.22578430175645
 51
330.77421569824048
  0
ARC
  8
_0-d_0_1
  6
CONTINUOUS
 62
    7
 10
89.250000000206711
 20
222.24999999989839
 40
29.999996185072394
 50
332.97578430175133
 51
334.52421569824753
  0
ARC
  8
_0-d_0_1
  6
CONTINUOUS
 62
    7
 10
89.249999999886697
 20
222.25000000004778
 40
29.999996185425672
 50
336.72578430175952
 51
338.27421569823747
  0
ARC
  8
_0-d_0_1
  6
CONTINUOUS
 62
    7
 10
89.249999999916653
 20
222.25000000002757
 40
29.99999618539049
 50
340.47578430176145
 51
342.02421569824133
  0
ARC
  8
_0-d_0_1
  6
CONTINUOUS
 62
    7
 10
89.25000000004006
 20
222.24999999998946
 40
29.999996185261306
 50
344.22578430175633
 51
345.77421569824287
  0
ARC
  8
_0-d_0_1
  6
CONTINUOUS
 62
    7
 10
89.250000000198298
 20
222.24999999995978
 40
29.999996185100397
 50
347.97578430175406
 51
349.5242156982489
  0
ARC
  8
_0-d_0_1
  6
CONTINUOUS
 62
    7
 10
89.250000000229107
 20
222.24999999997002
 40
29.999996185071673
 50
351.7257843017515
 51
353.27421569824781
  0
ARC
  8
_0-d_0_1
  6
CONTINUOUS
 62
    7
 10
89.250000000056019
 20
222.24999999999582
 40
29.999996185246555
 50
355.47578430175736
 51
357.02421569824457
  0
ARC
  8
_0-d_0_1
  6
CONTINUOUS
 62
    7
 10
89.250000000026191
 20
222.25
 40
29.99999618527653
 50
359.22578430175713
 51
0.7742156982427793
  0
ARC
  8
_0-d_0_1
  6
CONTINUOUS
 62
    7
 10
89.250000000080519
 20
222.2500000000056
 40
29.999996185222013
 50
2.9757843017551644
 51
4.524215698243613
  0
ARC
  8
_0-d_0_1
  6
CONTINUOUS
 62
    7
 10
89.249999999923077
 20
222.24999999998971
 40
29.999996185380315
 50
6.7257843017600907
 51
8.2742156982405213
  0
ARC
  8
_0-d_0_1
  6
CONTINUOUS
 62
    7
 10
89.250000000228681
 20
222.25000000004528
 40
29.999996185069612
 50
10.47578430175224
 51
12.024215698248637
  0
ARC
  8
_0-d_0_1
  6
CONTINUOUS
 62
    7
 10
89.250000000040046
 20
222.25000000001052
 40
29.999996185261327
 50
14.225784301757193
 51
15.774215698243705
  0
ARC
  8
_0-d_0_1
  6
CONTINUOUS
 62
    7
 10
89.250000000195854
 20
222.25000000006719
 40
29.999996185095675
 50
17.97578430175118
 51
19.524215698246245
  0
ARC
  8
_0-d_0_1
  6
CONTINUOUS
 62
    7
 10
89.250000000019952
 20
222.25000000000847
 40
29.999996185281034
 50
21.725784301756889
 51
23.274215698242354
  0
ARC
  8
_0-d_0_1
  6
CONTINUOUS
 62
    7
 10
89.250000000086899
 20
222.25000000004152
 40
29.999996185206424
 50
25.475784301757692
 51
27.024215698246959
  0
ARC
  8
_0-d_0_1
  6
CONTINUOUS
 62
    7
 10
89.250000000112223
 20
222.25000000006489
 40
29.999996185173092
 50
29.225784301754352
 51
30.774215698245371
  0
ARC
  8
_0-d_0_1
  6
CONTINUOUS
 62
    7
 10
89.250000000244142
 20
222.25000000016297
 40
29.999996185009202
 50
32.975784301750522
 51
34.524215698250032
  0
ARC
  8
_0-d_0_1
  6
CONTINUOUS
 62
    7
 10
89.249999999979536
 20
222.24999999998431
 40
29.999996185328509
 50
36.725784301758523
 51
38.27421569824152
  0
ARC
  8
_0-d_0_1
  6
CONTINUOUS
 62
    7
 10
89.249999999875598
 20
222.24999999988972
 40
29.999996185468962
 50
40.475784301763845
 51
42.024215698239615
  0
ARC
  8
_0-d_0_1
  6
CONTINUOUS
 62
    7
 10
89.250000000018758
 20
222.25000000001876
 40
29.999996185276181
 50
44.225784301757123
 51
45.774215698242848
  0
ARC
  8
_0-d_0_1
  6
CONTINUOUS
 62
    7
 10
89.249999999956898
 20
222.24999999995117
 40
29.999996185367856
 50
47.975784301759113
 51
49.524215698240141
  0
ARC
  8
_0-d_0_1
  6
CONTINUOUS
 62
    7
 10
89.250000000041354
 20
222.25000000005289
 40
29.999996185235592
 50
51.725784301757258
 51
53.274215698245101
  0
ARC
  8
_0-d_0_1
  6
CONTINUOUS
 62
    7
 10
89.250000000137305
 20
222.25000000020734
 40
29.999996185054076
 50
55.475784301749457
 51
57.024215698246685
  0
ARC
  8
_0-d_0_1
  6
CONTINUOUS
 62
    7
 10
89.249999999890818
 20
222.24999999980972
 40
29.999996185522111
 50
59.225784301764619
 51
60.774215698237661
  0
ARC
  8
_0-d_0_1
  6
CONTINUOUS
 62
    7
 10
89.25000000013199
 20
222.25000000027154
 40
29.999996185000843
 50
62.975784301746764
 51
64.524215698246721
  0
ARC
  8
_0-d_0_1
  6
CONTINUOUS
 62
    7
 10
89.249999999898378
 20
222.24999999975427
 40
29.999996185568637
 50
66.72578430176506
 51
68.274215698235679
  0
ARC
  8
_0-d_0_1
  6
CONTINUOUS
 62
    7
 10
89.250000000081272
 20
222.25000000024457
 40
29.999996185045038
 50
70.475784301748021
 51
72.024215698245698
  0
ARC
  8
_0-d_0_1
  6
CONTINUOUS
 62
    7
 10
89.249999999953516
 20
222.24999999982745
 40
29.999996185481411
 50
74.225784301762005
 51
75.774215698237143
  0
ARC
  8
_0-d_0_1
  6
CONTINUOUS
 62
    7
 10
89.249999999954809
 20
222.24999999977928
 40
29.999996185528012
 50
77.975784301761195
 51
79.524215698233959
  0
ARC
  8
_0-d_0_1
  6
CONTINUOUS
 62
    7
 10
89.250000000030241
 20
222.25000000023329
 40
29.999996185067509
 50
81.72578430175092
 51
83.274215698247389
  0
ARC
  8
_0-d_0_1
  6
CONTINUOUS
 62
    7
 10
89.249999999994998
 20
222.24999999993352
 40
29.999996185369376
 50
85.47578430175831
 51
87.024215698239217
  0
ARC
  8
_0-d_0_1
  6
CONTINUOUS
 62
    7
 10
89.25
 20
222.2500000000241
 40
29.999996185278633
 50
89.225784301757187
 51
90.774215698242827
  0
ARC
  8
_0-d_0_1
  6
CONTINUOUS
 62
    7
 10
89.250000000005002
 20
222.24999999993352
 40
29.999996185369376
 50
92.975784301760797
 51
94.52421569824169
  0
ARC
  8
_0-d_0_1
  6
CONTINUOUS
 62
    7
 10
89.249999999967201
 20
222.25000000025133
 40
29.999996185049291
 50
96.725784301751872
 51
98.274215698249336
  0
ARC
  8
_0-d_0_1
  6
CONTINUOUS
 62
    7
 10
89.250000000039449
 20
222.24999999980702
 40
29.999996185499693
 50
100.47578430176489
 51
102.02421569823916
  0
ARC
  8
_0-d_0_1
  6
CONTINUOUS
 62
    7
 10
89.250000000046427
 20
222.24999999982745
 40
29.999996185481411
 50
104.22578430176284
 51
105.77421569823801
  0
ARC
  8
_0-d_0_1
  6
CONTINUOUS
 62
    7
 10
89.249999999950887
 20
222.25000000014975
 40
29.999996185145154
 50
107.97578430175692
 51
109.52421569824942
  0
ARC
  8
_0-d_0_1
  6
CONTINUOUS
 62
    7
 10
89.250000000039492
 20
222.24999999990916
 40
29.999996185401763
 50
111.72578430176372
 51
113.27421569824298
  0
ARC
  8
_0-d_0_1
  6
CONTINUOUS
 62
    7
 10
89.249999999837897
 20
222.25000000033151
 40
29.999996184933753
 50
115.47578430175064
 51
117.02421569825408
  0
ARC
  8
_0-d_0_1
  6
CONTINUOUS
 62
    7
 10
89.250000000109154
 20
222.24999999980972
 40
29.999996185522111
 50
119.22578430176233
 51
120.77421569823538
  0
ARC
  8
_0-d_0_1
  6
CONTINUOUS
 62
    7
 10
89.249999999862666
 20
222.25000000020734
 40
29.999996185054076
 50
122.97578430175335
 51
124.52421569825054
  0
ARC
  8
_0-d_0_1
  6
CONTINUOUS
 62
    7
 10
89.249999999958604
 20
222.25000000005289
 40
29.999996185235585
 50
126.7257843017549
 51
128.27421569824276
  0
ARC
  8
_0-d_0_1
  6
CONTINUOUS
 62
    7
 10
89.250000000043073
 20
222.24999999995117
 40
29.999996185367856
 50
130.47578430175986
 51
132.02421569824085
  0
ARC
  8
_0-d_0_1
  6
CONTINUOUS
 62
    7
 10
89.249999999855746
 20
222.25000000007131
 40
29.999996185141832
 50
152.97578430175398
 51
154.52421569824668
  0
ARC
  8
_0-d_0_1
  6
CONTINUOUS
 62
    7
 10
89.249999999913697
 20
222.25000000003541
 40
29.999996185209465
 50
156.72578430175486
 51
158.27421569824403
  0
ARC
  8
_0-d_0_1
  6
CONTINUOUS
 62
    7
 10
89.250000000013671
 20
222.24999999999554
 40
29.999996185317123
 50
160.47578430175855
 51
162.02421569824219
  0
ARC
  8
_0-d_0_1
  6
CONTINUOUS
 62
    7
 10
89.249999999949495
 20
222.25000000001327
 40
29.999996185250524
 50
164.22578430175605
 51
165.77421569824313
  0
ARC
  8
_0-d_0_1
  6
CONTINUOUS
 62
    7
 10
89.249999999995794
 20
222.25000000000114
 40
29.9999961852984
 50
167.97578430175827
 51
169.52421569824284
  0
ARC
  8
_0-d_0_1
  6
CONTINUOUS
 62
    7
 10
89.250000000000298
 20
222.25000000000031
 40
29.999996185303004
 50
171.72578430175847
 51
173.27421569824284
  0
ARC
  8
_0-d_0_1
  6
CONTINUOUS
 62
    7
 10
89.250000000098964
 20
222.249999999994
 40
29.999996185401887
 50
175.47578430176125
 51
177.02421569824054
  0
LINE
  8
_0-d_0_1
  6
CONTINUOUS
 62
    7
 10
63.474300333743486
 20
206.90031984681497
 11
57.457065531497392
 21
203.31699159974465
  0
LINE
  8
_0-d_0_1
  6
CONTINUOUS
 62
    7
 10
64.533399531131181
 20
205.24737146729836
 11
58.763414332156572
 21
201.27817133302102
  0
LINE
  8
_0-d_0_1
  6
CONTINUOUS
 62
    7
 10
58.207841822390947
 20
202.10964372987161
 11
64.08298678088704
 21
205.92146471375833
  0
LINE
  8
_0-d_0_1
  6
CONTINUOUS
 62
    7
 10
65.698341318850908
 20
203.66723039979348
 11
60.200311609988603
 21
199.3291547619761
  0
LINE
  8
_0-d_0_1
  6
CONTINUOUS
 62
    7
 10
59.591546961551103
 20
200.12250307435403
 11
65.204807230716142
 21
204.31042269105325
  0
LINE
  8
_0-d_0_1
  6
CONTINUOUS
 62
    7
 10
66.964139887576493
 20
202.16666963929543
 11
61.761608073001298
 21
197.47829225892434
  0
LINE
  8
_0-d_0_1
  6
CONTINUOUS
 62
    7
 10
61.102256724124345
 20
198.23012712830911
 11
66.429590174441728
 21
202.77620485658059
  0
LINE
  8
_0-d_0_1
  6
CONTINUOUS
 62
    7
 10
68.325368830447587
 20
200.75209787721047
 11
63.440601298098954
 21
195.73350122804055
  0
LINE
  8
_0-d_0_1
  6
CONTINUOUS
 62
    7
 10
62.73349947619954
 20
196.44060304993997
 11
67.752096125369462
 21
201.3253705822886
  0
LINE
  8
_0-d_0_1
  6
CONTINUOUS
 62
    7
 10
69.776203104739579
 20
199.42959192628274
 11
65.230125376468095
 21
194.10225847596536
  0
LINE
  8
_0-d_0_1
  6
CONTINUOUS
 62
    7
 10
64.478290507083329
 20
194.76160982484231
 11
69.166667887454423
 21
199.96414163941751
  0
LINE
  8
_0-d_0_1
  6
CONTINUOUS
 62
    7
 10
71.310420939212236
 20
198.20480898255715
 11
67.122501322513017
 21
192.59154871339211
  0
LINE
  8
_0-d_0_1
  6
CONTINUOUS
 62
    7
 10
66.329153010135087
 20
193.20031336182961
 11
70.66722864795247
 21
198.69834307069192
  0
LINE
  8
_0-d_0_1
  6
CONTINUOUS
 62
    7
 10
72.921462961917314
 20
197.08298853272805
 11
69.109641978030595
 21
191.20784357423196
  0
LINE
  8
_0-d_0_1
  6
CONTINUOUS
 62
    7
 10
68.278169581180009
 20
191.76341608399758
 11
72.247369715457353
 21
197.53340128297219
  0
LINE
  8
_0-d_0_1
  6
CONTINUOUS
 62
    7
 10
74.602423617129716
 20
196.06893709535012
 11
71.183011957888993
 21
189.9570672833384
  0
LINE
  8
_0-d_0_1
  6
CONTINUOUS
 62
    7
 10
70.316989847903642
 20
190.4570672833384
 11
73.900318094973954
 21
196.4743020855845
  0
LINE
  8
_0-d_0_1
  6
CONTINUOUS
 62
    7
 10
104.5996913402132
 20
196.4743020855845
 11
108.18301005054035
 21
190.4570672833384
  0
LINE
  8
_0-d_0_1
  6
CONTINUOUS
 62
    7
 10
107.31698794055499
 20
189.9570672833384
 11
103.89756769824542
 21
196.06893709535012
  0
LINE
  8
_0-d_0_1
  6
CONTINUOUS
 62
    7
 10
106.25263018298664
 20
197.53340128297219
 11
110.22183985400714
 21
191.76341608399758
  0
LINE
  8
_0-d_0_1
  6
CONTINUOUS
 62
    7
 10
109.39035792041339
 20
191.20784357423196
 11
105.57853693652667
 21
197.08298853272805
  0
LINE
  8
_0-d_0_1
  6
CONTINUOUS
 62
    7
 10
107.83276171374835
 20
198.69834307069192
 11
112.17085451770343
 21
193.20031336182961
  0
LINE
  8
_0-d_0_1
  6
CONTINUOUS
 62
    7
 10
111.37749857593097
 20
192.59154871339211
 11
107.18956942248859
 21
198.20480898255715
  0
LINE
  8
_0-d_0_1
  6
CONTINUOUS
 62
    7
 10
109.33333201098957
 20
199.96414163941751
 11
114.02170939136066
 21
194.76160982484231
  0
LINE
  8
_0-d_0_1
  6
CONTINUOUS
 62
    7
 10
113.26987452197589
 20
194.10225847596536
 11
108.72380633044757
 21
199.42959192628274
  0
LINE
  8
_0-d_0_1
  6
CONTINUOUS
 62
    7
 10
67.752096125369462
 20
243.17463281983743
 11
62.73349947619954
 21
248.05940035218606
  0
LINE
  8
_0-d_0_1
  6
CONTINUOUS
 62
    7
 10
66.429590174441728
 20
241.72379854554543
 11
61.102256724124345
 21
246.26987627381692
  0
LINE
  8
_0-d_0_1
  6
CONTINUOUS
 62
    7
 10
61.761608073001298
 20
247.02171114320168
 11
66.964139887576493
 21
242.33333376283059
  0
LINE
  8
_0-d_0_1
  6
CONTINUOUS
 62
    7
 10
65.204807230716142
 20
240.18958071107278
 11
59.591546961551103
 21
244.377500327772
  0
LINE
  8
_0-d_0_1
  6
CONTINUOUS
 62
    7
 10
60.200311609988603
 20
245.17085626954446
 11
65.698341318850908
 21
240.83277300233254
  0
LINE
  8
_0-d_0_1
  6
CONTINUOUS
 62
    7
 10
64.08298678088704
 20
238.5785386883677
 11
58.207841822390947
 21
242.39035967225442
  0
LINE
  8
_0-d_0_1
  6
CONTINUOUS
 62
    7
 10
58.763414332156572
 20
243.22183206910501
 11
64.533399531131181
 21
239.25263193482766
  0
LINE
  8
_0-d_0_1
  6
CONTINUOUS
 62
    7
 10
70.249999949222001
 20
241.25000170106301
 11
71.239950129275712
 21
242.23994997376809
  0
LINE
  8
_0-d_0_1
  6
CONTINUOUS
 62
    7
 10
70.249999949222001
 20
241.25000170106301
 11
71.239950129275712
 21
242.23994997376809
  0
LINE
  8
_0-d_0_1
  6
CONTINUOUS
 62
    7
 10
70.249999949222001
 20
241.25000170106301
 11
69.260051676516923
 21
240.2600515210093
  0
LINE
  8
_0-d_0_1
  6
CONTINUOUS
 62
    7
 10
69.249999949222001
 20
240.24999979371438
 11
81.167733141665849
 21
224.88190153474221
  0
LINE
  8
_0-d_0_1
  6
CONTINUOUS
 62
    7
 10
71.250001856570634
 20
242.25000170106301
 11
86.618100115542788
 21
230.33226850861917
  0
LINE
  8
_0-d_0_1
  6
CONTINUOUS
 62
    7
 10
77.603906580691728
 20
234.46177271241555
 11
77.005577990298661
 21
235.06010988587747
  0
LINE
  8
_0-d_0_1
  6
CONTINUOUS
 62
    7
 10
77.321067759280595
 20
234.17893389100442
 11
77.603906580691728
 21
234.46177271241555
  0
LINE
  8
_0-d_0_1
  6
CONTINUOUS
 62
    7
 10
77.321067759280595
 20
234.17893389100442
 11
77.038228937869462
 21
233.89609506959329
  0
LINE
  8
_0-d_0_1
  6
CONTINUOUS
 62
    7
 10
77.038228937869462
 20
233.89609506959329
 11
69.967161127810868
 21
240.96715334290872
  0
LINE
  8
_0-d_0_1
  6
CONTINUOUS
 62
    7
 10
77.005577990298661
 20
235.06010988587747
 11
70.532848307376298
 21
241.53284052247415
  0
LINE
  8
_0-d_0_1
  6
CONTINUOUS
 62
    7
 10
99.149507471804995
 20
212.35050276154885
 11
99.856600710635561
 21
211.64340093964944
  0
LINE
  8
_0-d_0_1
  6
CONTINUOUS
 62
    7
 10
79.350501009707841
 20
212.35050276154885
 11
81.418394037967118
 21
208.76880243653665
  0
LINE
  8
_0-d_0_1
  6
CONTINUOUS
 62
    7
 10
81.424273440127763
 20
208.7446821057261
 11
82.057132670169253
 21
209.04735353822122
  0
LINE
  8
_0-d_0_1
  6
CONTINUOUS
 62
    7
 10
97.251760432010073
 20
235.43649938935647
 11
96.557388731723208
 21
235.34970262879739
  0
LINE
  8
_0-d_0_1
  6
CONTINUOUS
 62
    7
 10
99.149507471804995
 20
232.14948347443948
 11
97.251760432010073
 21
235.43649938935647
  0
LINE
  8
_0-d_0_1
  6
CONTINUOUS
 62
    7
 10
71.750001856570634
 20
222.25000170106301
 11
77.750001856570634
 21
222.25000170106301
  0
LINE
  8
_0-d_0_1
  6
CONTINUOUS
 62
    7
 10
98.579123446231264
 20
210.50404051179299
 11
99.787537523990054
 21
211.71246412629495
  0
LINE
  8
_0-d_0_1
  6
CONTINUOUS
 62
    7
 10
98.000584551577944
 20
210.06692674989114
 11
99.716830202823061
 21
211.78317144746194
  0
LINE
  8
_0-d_0_1
  6
CONTINUOUS
 62
    7
 10
97.543549486880679
 20
209.75132349366555
 11
99.646104761844057
 21
211.8538883053721
  0
LINE
  8
_0-d_0_1
  6
CONTINUOUS
 62
    7
 10
97.149277636294741
 20
209.49847486848245
 11
99.575397440677065
 21
211.92459562653909
  0
LINE
  8
_0-d_0_1
  6
CONTINUOUS
 62
    7
 10
96.795215079074282
 20
209.28582743043313
 11
99.504690119510073
 21
211.99531153077493
  0
LINE
  8
_0-d_0_1
  6
CONTINUOUS
 62
    7
 10
96.469778486972231
 20
209.10181501740823
 11
99.433982798343081
 21
212.06601885194192
  0
LINE
  8
_0-d_0_1
  6
CONTINUOUS
 62
    7
 10
96.16612620044269
 20
208.93958643311868
 11
99.363274523501772
 21
212.13672712678323
  0
LINE
  8
_0-d_0_1
  6
CONTINUOUS
 62
    7
 10
95.879796454196352
 20
208.79467180604348
 11
99.29256720233478
 21
212.20744303101907
  0
LINE
  8
_0-d_0_1
  6
CONTINUOUS
 62
    7
 10
95.607675024752993
 20
208.66398313874612
 11
99.221842715030093
 21
212.27815035218606
  0
LINE
  8
_0-d_0_1
  6
CONTINUOUS
 62
    7
 10
95.347521731143374
 20
208.54525354737649
 11
99.1511353938631
 21
212.3488662564219
  0
LINE
  8
_0-d_0_1
  6
CONTINUOUS
 62
    7
 10
95.09763950992145
 20
208.43677786225686
 11
97.913079211001772
 21
211.25222662324319
  0
LINE
  8
_0-d_0_1
  6
CONTINUOUS
 62
    7
 10
94.856663653140444
 20
208.33722570771585
 11
97.352021166568179
 21
210.83259180421243
  0
LINE
  8
_0-d_0_1
  6
CONTINUOUS
 62
    7
 10
94.623544165377993
 20
208.24553850526223
 11
96.908423849826235
 21
210.53042677277932
  0
LINE
  8
_0-d_0_1
  6
CONTINUOUS
 62
    7
 10
94.397440859561343
 20
208.16086748475442
 11
96.525543162112612
 21
210.28896978730569
  0
LINE
  8
_0-d_0_1
  6
CONTINUOUS
 62
    7
 10
94.177654215579409
 20
208.08249643678079
 11
96.181541392093081
 21
210.08637503022561
  0
LINE
  8
_0-d_0_1
  6
CONTINUOUS
 62
    7
 10
93.963589617495913
 20
208.00984648103127
 11
95.865256258731264
 21
209.91150453919778
  0
LINE
  8
_0-d_0_1
  6
CONTINUOUS
 62
    7
 10
93.754721590762514
 20
207.94240263337502
 11
95.570037791018862
 21
209.75771883363137
  0
LINE
  8
_0-d_0_1
  6
CONTINUOUS
 62
    7
 10
93.550630518679995
 20
207.87973478669534
 11
95.291617342715639
 21
209.62071302766213
  0
LINE
  8
_0-d_0_1
  6
CONTINUOUS
 62
    7
 10
93.350965925937075
 20
207.82148531312356
 11
95.026949354892153
 21
209.4974782788218
  0
LINE
  8
_0-d_0_1
  6
CONTINUOUS
 62
    7
 10
93.15537876773395
 20
207.76732233399758
 11
94.773900458102602
 21
209.38584402436624
  0
LINE
  8
_0-d_0_1
  6
CONTINUOUS
 62
    7
 10
92.963597008471865
 20
207.71696451539407
 11
94.530789801364321
 21
209.28414800996194
  0
LINE
  8
_0-d_0_1
  6
CONTINUOUS
 62
    7
 10
92.775367447619814
 20
207.67015817994485
 11
94.296305128817934
 21
209.1911046826304
  0
LINE
  8
_0-d_0_1
  6
CONTINUOUS
 62
    7
 10
92.59047979999103
 20
207.62669447297463
 11
94.069484659915346
 21
209.1057079159678
  0
LINE
  8
_0-d_0_1
  6
CONTINUOUS
 62
    7
 10
92.408715435748476
 20
207.58635404939065
 11
93.84947056460895
 21
209.02710893983254
  0
LINE
  8
_0-d_0_1
  6
CONTINUOUS
 62
    7
 10
92.229916760211367
 20
207.54897955293069
 11
93.635580965762514
 21
208.95463446015725
  0
LINE
  8
_0-d_0_1
  6
CONTINUOUS
 62
    7
 10
92.0539092509798
 20
207.51439550752053
 11
93.427220293765444
 21
208.88771513337502
  0
LINE
  8
_0-d_0_1
  6
CONTINUOUS
 62
    7
 10
91.880561062579531
 20
207.48246267670999
 11
93.223951527362246
 21
208.8258531414927
  0
LINE
  8
_0-d_0_1
  6
CONTINUOUS
 62
    7
 10
91.70972389865436
 20
207.45304945344338
 11
93.025319525485415
 21
208.76864412660012
  0
LINE
  8
_0-d_0_1
  6
CONTINUOUS
 62
    7
 10
91.541284033542055
 20
207.42603281373391
 11
92.830974528079409
 21
208.71572283143411
  0
LINE
  8
_0-d_0_1
  6
CONTINUOUS
 62
    7
 10
91.375136324649233
 20
207.40130880708108
 11
92.640610167270083
 21
208.66678312653909
  0
LINE
  8
_0-d_0_1
  6
CONTINUOUS
 62
    7
 10
91.211166927104372
 20
207.37876299256692
 11
92.453955122714419
 21
208.62155130738626
  0
LINE
  8
_0-d_0_1
  6
CONTINUOUS
 62
    7
 10
91.049297281985659
 20
207.35830858582864
 11
92.270764776950259
 21
208.5797765576304
  0
LINE
  8
_0-d_0_1
  6
CONTINUOUS
 62
    7
 10
90.889431068187136
 20
207.33986643189797
 11
92.090820261721987
 21
208.54125574464211
  0
LINE
  8
_0-d_0_1
  6
CONTINUOUS
 62
    7
 10
90.731480786090273
 20
207.32334020966897
 11
91.91392893481769
 21
208.50578764314065
  0
LINE
  8
_0-d_0_1
  6
CONTINUOUS
 62
    7
 10
90.575385400538821
 20
207.30866793031106
 11
91.739916035418887
 21
208.47319868440042
  0
LINE
  8
_0-d_0_1
  6
CONTINUOUS
 62
    7
 10
90.42108339953937
 20
207.29578951234231
 11
91.568632790332217
 21
208.44333914155374
  0
LINE
  8
_0-d_0_1
  6
CONTINUOUS
 62
    7
 10
90.268496224170107
 20
207.28461817139993
 11
91.399939009433169
 21
208.41606977815042
  0
LINE
  8
_0-d_0_1
  6
CONTINUOUS
 62
    7
 10
90.117562481646914
 20
207.27510813111672
 11
91.233703681712527
 21
208.39124945039163
  0
LINE
  8
_0-d_0_1
  6
CONTINUOUS
 62
    7
 10
89.968238600974459
 20
207.26720789307961
 11
91.069813081508059
 21
208.36878183717141
  0
LINE
  8
_0-d_0_1
  6
CONTINUOUS
 62
    7
 10
89.820463189368624
 20
207.26085642213235
 11
90.908153363948244
 21
208.3485467755259
  0
LINE
  8
_0-d_0_1
  6
CONTINUOUS
 62
    7
 10
89.674192586427111
 20
207.25600031251321
 11
90.748637148623843
 21
208.3304450833262
  0
LINE
  8
_0-d_0_1
  6
CONTINUOUS
 62
    7
 10
89.529374280457873
 20
207.25260618562112
 11
90.591159412150759
 21
208.31439092988381
  0
LINE
  8
_0-d_0_1
  6
CONTINUOUS
 62
    7
 10
89.385964506750483
 20
207.25061968202004
 11
90.435641357188601
 21
208.30029657716165
  0
LINE
  8
_0-d_0_1
  6
CONTINUOUS
 62
    7
 10
89.243928306249458
 20
207.24999884004006
 11
90.282021829371828
 21
208.2880924069346
  0
LINE
  8
_0-d_0_1
  6
CONTINUOUS
 62
    7
 10
89.10322191703834
 20
207.250716003126
 11
90.13020444798984
 21
208.2776992642344
  0
LINE
  8
_0-d_0_1
  6
CONTINUOUS
 62
    7
 10
88.963819095378298
 20
207.25272825593362
 11
89.980145642047304
 21
208.26905516023049
  0
LINE
  8
_0-d_0_1
  6
CONTINUOUS
 62
    7
 10
88.82567609239139
 20
207.25600889558206
 11
89.831757852321047
 21
208.2620914303721
  0
LINE
  8
_0-d_0_1
  6
CONTINUOUS
 62
    7
 10
88.68874914336719
 20
207.26050642365823
 11
89.685006061082262
 21
208.25676325196633
  0
LINE
  8
_0-d_0_1
  6
CONTINUOUS
 62
    7
 10
88.55302954602756
 20
207.26620176667581
 11
89.539829054360766
 21
208.25300100678811
  0
LINE
  8
_0-d_0_1
  6
CONTINUOUS
 62
    7
 10
88.418473550563235
 20
207.27306917542825
 11
89.396165573482889
 21
208.25076177949319
  0
LINE
  8
_0-d_0_1
  6
CONTINUOUS
 62
    7
 10
88.285054871325869
 20
207.28107431764016
 11
89.25398063750707
 21
208.24999979371438
  0
LINE
  8
_0-d_0_1
  6
CONTINUOUS
 62
    7
 10
88.152747341876406
 20
207.29019049043069
 11
89.113230505471606
 21
208.25066545838723
  0
LINE
  8
_0-d_0_1
  6
CONTINUOUS
 62
    7
 10
88.021533319239992
 20
207.30039194459329
 11
88.973862686639208
 21
208.2527215802134
  0
LINE
  8
_0-d_0_1
  6
CONTINUOUS
 62
    7
 10
87.891377994304079
 20
207.31166056031594
 11
88.835850903277773
 21
208.25612429017434
  0
LINE
  8
_0-d_0_1
  6
CONTINUOUS
 62
    7
 10
87.762263724093813
 20
207.32396105164895
 11
88.699142703299898
 21
208.26084020966897
  0
LINE
  8
_0-d_0_1
  6
CONTINUOUS
 62
    7
 10
87.634164282565493
 20
207.33728578919778
 11
88.56371183085956
 21
208.26683309907327
  0
LINE
  8
_0-d_0_1
  6
CONTINUOUS
 62
    7
 10
87.507062265162844
 20
207.35160711640725
 11
88.429523238425631
 21
208.27406767243752
  0
LINE
  8
_0-d_0_1
  6
CONTINUOUS
 62
    7
 10
87.380940028911013
 20
207.36690023774514
 11
88.296541997676272
 21
208.28250196809182
  0
LINE
  8
_0-d_0_1
  6
CONTINUOUS
 62
    7
 10
87.255771466975588
 20
207.38315466279397
 11
88.164741822963137
 21
208.29212549561868
  0
LINE
  8
_0-d_0_1
  6
CONTINUOUS
 62
    7
 10
87.131547638659853
 20
207.40034654969583
 11
88.034105369334597
 21
208.3029039227427
  0
LINE
  8
_0-d_0_1
  6
CONTINUOUS
 62
    7
 10
87.008242556338686
 20
207.41846540803323
 11
87.904579827075381
 21
208.31480196351418
  0
LINE
  8
_0-d_0_1
  6
CONTINUOUS
 62
    7
 10
86.885838696246523
 20
207.43748453492532
 11
87.776148030047793
 21
208.32779386872659
  0
LINE
  8
_0-d_0_1
  6
CONTINUOUS
 62
    7
 10
86.764326998477358
 20
207.45738867158303
 11
87.648809739833254
 21
208.34187105531106
  0
LINE
  8
_0-d_0_1
  6
CONTINUOUS
 62
    7
 10
86.643681475406069
 20
207.47816637391458
 11
87.522503802066225
 21
208.35698870057473
  0
LINE
  8
_0-d_0_1
  6
CONTINUOUS
 62
    7
 10
86.523893543963808
 20
207.49980238313088
 11
87.397230216746706
 21
208.37313917512307
  0
LINE
  8
_0-d_0_1
  6
CONTINUOUS
 62
    7
 10
86.404953905825991
 20
207.52227762574563
 11
87.272971460109133
 21
208.39029577607522
  0
LINE
  8
_0-d_0_1
  6
CONTINUOUS
 62
    7
 10
86.286845633273501
 20
207.54559305543313
 11
87.149692723040957
 21
208.40844038361917
  0
LINE
  8
_0-d_0_1
  6
CONTINUOUS
 62
    7
 10
86.169551083331484
 20
207.56971338624368
 11
87.027393767123598
 21
208.42755678529153
  0
LINE
  8
_0-d_0_1
  6
CONTINUOUS
 62
    7
 10
86.053052374606509
 20
207.59463861817727
 11
86.906030842547793
 21
208.44761732453713
  0
LINE
  8
_0-d_0_1
  6
CONTINUOUS
 62
    7
 10
85.937349983935732
 20
207.62036016816506
 11
86.78560394931354
 21
208.46861437196145
  0
LINE
  8
_0-d_0_1
  6
CONTINUOUS
 62
    7
 10
85.822435089831728
 20
207.64685991639504
 11
86.666087099795718
 21
208.49051264161477
  0
LINE
  8
_0-d_0_1
  6
CONTINUOUS
 62
    7
 10
85.70827240634479
 20
207.67412165040383
 11
86.547471472506899
 21
208.51332071656594
  0
LINE
  8
_0-d_0_1
  6
CONTINUOUS
 62
    7
 10
85.59487957644977
 20
207.7021434628428
 11
86.429739186053652
 21
208.53701189393411
  0
LINE
  8
_0-d_0_1
  6
CONTINUOUS
 62
    7
 10
85.482221791034121
 20
207.73091867799172
 11
86.31287331271686
 21
208.56156137818704
  0
LINE
  8
_0-d_0_1
  6
CONTINUOUS
 62
    7
 10
85.370307633166689
 20
207.76041963929543
 11
86.196864554171938
 21
208.58697679871926
  0
LINE
  8
_0-d_0_1
  6
CONTINUOUS
 62
    7
 10
85.259119459872622
 20
207.79064634675393
 11
86.081687161212344
 21
208.61322286958108
  0
LINE
  8
_0-d_0_1
  6
CONTINUOUS
 62
    7
 10
85.148640105014223
 20
207.82159975404153
 11
85.967340895419497
 21
208.64029100770364
  0
LINE
  8
_0-d_0_1
  6
CONTINUOUS
 62
    7
 10
85.038877913241762
 20
207.85325220460305
 11
85.853808113818545
 21
208.66818216676126
  0
LINE
  8
_0-d_0_1
  6
CONTINUOUS
 62
    7
 10
84.929807135348696
 20
207.88560560578713
 11
85.741071411853213
 21
208.69686964387307
  0
LINE
  8
_0-d_0_1
  6
CONTINUOUS
 62
    7
 10
84.821436354403872
 20
207.91864946717629
 11
85.62913102794208
 21
208.72634390229592
  0
LINE
  8
_0-d_0_1
  6
CONTINUOUS
 62
    7
 10
84.713730284457583
 20
207.95236757630715
 11
85.517960497622866
 21
208.75659731263528
  0
LINE
  8
_0-d_0_1
  6
CONTINUOUS
 62
    7
 10
84.606706568484682
 20
207.98676756257424
 11
85.407559820895571
 21
208.78762033814797
  0
LINE
  8
_0-d_0_1
  6
CONTINUOUS
 62
    7
 10
84.500356623416323
 20
208.02183225983987
 11
85.297920176272768
 21
208.81939581269631
  0
LINE
  8
_0-d_0_1
  6
CONTINUOUS
 62
    7
 10
84.394654223208804
 20
208.0575540387095
 11
85.189024397616762
 21
208.8519237362803
  0
LINE
  8
_0-d_0_1
  6
CONTINUOUS
 62
    7
 10
84.289607474093813
 20
208.09392240876565
 11
85.080872008090395
 21
208.88518694276223
  0
LINE
  8
_0-d_0_1
  6
CONTINUOUS
 62
    7
 10
84.185199686770815
 20
208.13093832368264
 11
84.973437258487124
 21
208.91917589539895
  0
LINE
  8
_0-d_0_1
  6
CONTINUOUS
 62
    7
 10
84.081439444308657
 20
208.16860178346047
 11
84.86671967196979
 21
208.95388201112161
  0
LINE
  8
_0-d_0_1
  6
CONTINUOUS
 62
    7
 10
83.978300520663637
 20
208.20687750214944
 11
84.760719725375552
 21
208.98929670686135
  0
LINE
  8
_0-d_0_1
  6
CONTINUOUS
 62
    7
 10
83.875791022067446
 20
208.2457921826304
 11
84.655411192660708
 21
209.02541235322366
  0
LINE
  8
_0-d_0_1
  6
CONTINUOUS
 62
    7
 10
83.773902842288393
 20
208.28531912202249
 11
84.550802180056948
 21
209.06221845979104
  0
LINE
  8
_0-d_0_1
  6
CONTINUOUS
 62
    7
 10
83.672618338351626
 20
208.32545832032571
 11
84.446875521426577
 21
209.0997150265635
  0
LINE
  8
_0-d_0_1
  6
CONTINUOUS
 62
    7
 10
83.571946570163149
 20
208.36620977754006
 11
84.343622633700747
 21
209.13788584107766
  0
LINE
  8
_0-d_0_1
  6
CONTINUOUS
 62
    7
 10
83.4718780009798
 20
208.40755632752786
 11
84.241052099948305
 21
209.17673090333352
  0
LINE
  8
_0-d_0_1
  6
CONTINUOUS
 62
    7
 10
83.37239594150104
 20
208.44949797028909
 11
84.139128634219546
 21
209.21623113984475
  0
LINE
  8
_0-d_0_1
  6
CONTINUOUS
 62
    7
 10
83.273508497958559
 20
208.49203470582376
 11
84.037870833163637
 21
209.25639704102883
  0
LINE
  8
_0-d_0_1
  6
CONTINUOUS
 62
    7
 10
83.175216147189516
 20
208.53515795106301
 11
83.937268683200259
 21
209.29720953339944
  0
LINE
  8
_0-d_0_1
  6
CONTINUOUS
 62
    7
 10
83.07749266315021
 20
208.57885721558938
 11
83.837296435122866
 21
209.33866194123635
  0
LINE
  8
_0-d_0_1
  6
CONTINUOUS
 62
    7
 10
82.980346152072329
 20
208.62313536042581
 11
83.737971731906313
 21
209.38075235719094
  0
LINE
  8
_0-d_0_1
  6
CONTINUOUS
 62
    7
 10
82.883777090793032
 20
208.66798094148049
 11
83.639268347506899
 21
209.42348078126321
  0
LINE
  8
_0-d_0_1
  6
CONTINUOUS
 62
    7
 10
82.787768313174624
 20
208.71339586610208
 11
83.541194388156313
 21
209.46682241792092
  0
LINE
  8
_0-d_0_1
  6
CONTINUOUS
 62
    7
 10
82.692327925448794
 20
208.75937918061624
 11
83.443741747622866
 21
209.51079347962747
  0
LINE
  8
_0-d_0_1
  6
CONTINUOUS
 62
    7
 10
82.597447821383852
 20
208.8059146725596
 11
83.346910425906557
 21
209.55537680024514
  0
LINE
  8
_0-d_0_1
  6
CONTINUOUS
 62
    7
 10
82.503118464236636
 20
208.85300901765237
 11
83.250674196963686
 21
209.60056475037942
  0
LINE
  8
_0-d_0_1
  6
CONTINUOUS
 62
    7
 10
82.409331747775454
 20
208.90064600343118
 11
83.155050226931948
 21
209.64636400575051
  0
LINE
  8
_0-d_0_1
  6
CONTINUOUS
 62
    7
 10
82.316104838138003
 20
208.94883421296487
 11
83.060029932742495
 21
209.69275930756936
  0
LINE
  8
_0-d_0_1
  6
CONTINUOUS
 62
    7
 10
82.223411509280581
 20
208.9975650631846
 11
82.965595671420473
 21
209.73974874848733
  0
LINE
  8
_0-d_0_1
  6
CONTINUOUS
 62
    7
 10
82.1312698810152
 20
209.04683760041604
 11
82.871765085940737
 21
209.78733328217874
  0
LINE
  8
_0-d_0_1
  6
CONTINUOUS
 62
    7
 10
81.929155775790605
 20
208.98614767426858
 11
82.778511950259585
 21
209.83550432557473
  0
LINE
  8
_0-d_0_1
  6
CONTINUOUS
 62
    7
 10
81.658092924838456
 20
208.85650804871926
 11
82.685836264377016
 21
209.88425234193215
  0
LINE
  8
_0-d_0_1
  6
CONTINUOUS
 62
    7
 10
81.370503374820146
 20
208.85175779694924
 11
82.502226301913637
 21
209.98348024720559
  0
LINE
  8
_0-d_0_1
  6
CONTINUOUS
 62
    7
 10
81.318736979251298
 20
208.94141558045754
 11
82.411273905520815
 21
210.03395250672708
  0
LINE
  8
_0-d_0_1
  6
CONTINUOUS
 62
    7
 10
81.266979166751298
 20
209.03107241029153
 11
82.320899435763735
 21
210.08499220246682
  0
LINE
  8
_0-d_0_1
  6
CONTINUOUS
 62
    7
 10
81.215212771182451
 20
209.12073019379983
 11
82.23107571292438
 21
210.13659265870461
  0
LINE
  8
_0-d_0_1
  6
CONTINUOUS
 62
    7
 10
81.163446375613603
 20
209.21037844056497
 11
82.141820856814761
 21
210.18875292176614
  0
LINE
  8
_0-d_0_1
  6
CONTINUOUS
 62
    7
 10
81.111679980044755
 20
209.30003622407327
 11
82.053117224460024
 21
210.24147299165139
  0
LINE
  8
_0-d_0_1
  6
CONTINUOUS
 62
    7
 10
81.059922167544755
 20
209.3897016369761
 11
81.964964339023027
 21
210.29474428529153
  0
LINE
  8
_0-d_0_1
  6
CONTINUOUS
 62
    7
 10
81.008155771975908
 20
209.47935083741555
 11
81.877363154178056
 21
210.3485582196177
  0
LINE
  8
_0-d_0_1
  6
CONTINUOUS
 62
    7
 10
80.95638937640706
 20
209.56900766724954
 11
81.79031271625081
 21
210.40293100709329
  0
LINE
  8
_0-d_0_1
  6
CONTINUOUS
 62
    7
 10
80.90463156390706
 20
209.65867403382668
 11
81.703804919009599
 21
210.45784738892922
  0
LINE
  8
_0-d_0_1
  6
CONTINUOUS
 62
    7
 10
80.852865168338212
 20
209.74832228059182
 11
81.617839762454423
 21
210.51329687470803
  0
LINE
  8
_0-d_0_1
  6
CONTINUOUS
 62
    7
 10
80.801098772769365
 20
209.83798006410012
 11
81.532416769748124
 21
210.56929758424172
  0
LINE
  8
_0-d_0_1
  6
CONTINUOUS
 62
    7
 10
80.749340960269365
 20
209.92764643067727
 11
81.447527357821855
 21
210.6258323513926
  0
LINE
  8
_0-d_0_1
  6
CONTINUOUS
 62
    7
 10
80.697574564700517
 20
210.01729467744241
 11
81.363172003512773
 21
210.68289163941751
  0
LINE
  8
_0-d_0_1
  6
CONTINUOUS
 62
    7
 10
80.645808169131669
 20
210.10695150727639
 11
81.279349753146562
 21
210.74049356812844
  0
LINE
  8
_0-d_0_1
  6
CONTINUOUS
 62
    7
 10
80.594050356631669
 20
210.19661787385354
 11
81.196062037234697
 21
210.79862097138772
  0
LINE
  8
_0-d_0_1
  6
CONTINUOUS
 62
    7
 10
80.542283961062822
 20
210.28626612061868
 11
81.113298365359697
 21
210.85728052491555
  0
LINE
  8
_0-d_0_1
  6
CONTINUOUS
 62
    7
 10
80.490517565493974
 20
210.37592390412698
 11
81.031060168033036
 21
210.91646650666604
  0
LINE
  8
_0-d_0_1
  6
CONTINUOUS
 62
    7
 10
80.438759752993974
 20
210.46558168763528
 11
80.9493464915804
 21
210.9761684262217
  0
LINE
  8
_0-d_0_1
  6
CONTINUOUS
 62
    7
 10
80.386993357425126
 20
210.55523851746926
 11
80.868158289676103
 21
211.03640344972024
  0
LINE
  8
_0-d_0_1
  6
CONTINUOUS
 62
    7
 10
80.335226961856279
 20
210.64489630097756
 11
80.787486025576982
 21
211.09715441102395
  0
LINE
  8
_0-d_0_1
  6
CONTINUOUS
 62
    7
 10
80.283469149356279
 20
210.73455313081155
 11
80.707346865420732
 21
211.158430846876
  0
LINE
  8
_0-d_0_1
  6
CONTINUOUS
 62
    7
 10
80.231702753787431
 20
210.82421091431985
 11
80.627707430606279
 21
211.22021463746438
  0
LINE
  8
_0-d_0_1
  6
CONTINUOUS
 62
    7
 10
80.179936358218583
 20
210.91386774415383
 11
80.548591562991533
 21
211.2825239026011
  0
LINE
  8
_0-d_0_1
  6
CONTINUOUS
 62
    7
 10
80.128178545718583
 20
211.00352552766213
 11
80.469992586856279
 21
211.34534815186868
  0
LINE
  8
_0-d_0_1
  6
CONTINUOUS
 62
    7
 10
80.076412150149736
 20
211.09318235749612
 11
80.391910502200517
 21
211.4086807095469
  0
LINE
  8
_0-d_0_1
  6
CONTINUOUS
 62
    7
 10
80.024645754580888
 20
211.18284014100442
 11
80.314334818606767
 21
211.4725292050303
  0
LINE
  8
_0-d_0_1
  6
CONTINUOUS
 62
    7
 10
79.972887942080888
 20
211.2724969708384
 11
80.237276026492509
 21
211.53689363831887
  0
LINE
  8
_0-d_0_1
  6
CONTINUOUS
 62
    7
 10
79.92112154651204
 20
211.3621547543467
 11
80.160724589114579
 21
211.60175684327493
  0
LINE
  8
_0-d_0_1
  6
CONTINUOUS
 62
    7
 10
79.869355150943193
 20
211.45181253785501
 11
80.084679552798661
 21
211.66713693971047
  0
LINE
  8
_0-d_0_1
  6
CONTINUOUS
 62
    7
 10
79.817597338443193
 20
211.54147795075784
 11
80.009151407962236
 21
211.73303202027688
  0
LINE
  8
_0-d_0_1
  6
CONTINUOUS
 62
    7
 10
79.765830942874345
 20
211.63113573426614
 11
79.93412203479329
 21
211.79942682618508
  0
LINE
  8
_0-d_0_1
  6
CONTINUOUS
 62
    7
 10
79.714064547305497
 20
211.72078398103127
 11
79.859609553103837
 21
211.86632898682961
  0
LINE
  8
_0-d_0_1
  6
CONTINUOUS
 62
    7
 10
79.66229815173665
 20
211.81045034760842
 11
79.785603472476396
 21
211.93374613160501
  0
LINE
  8
_0-d_0_1
  6
CONTINUOUS
 62
    7
 10
79.61054033923665
 20
211.90010717744241
 11
79.712096163516435
 21
212.00166300172219
  0
LINE
  8
_0-d_0_1
  6
CONTINUOUS
 62
    7
 10
79.558773943667802
 20
211.98976496095071
 11
79.639096209292802
 21
212.07008722657571
  0
LINE
  8
_0-d_0_1
  6
CONTINUOUS
 62
    7
 10
79.507007548098954
 20
212.07942179078469
 11
79.566613146548661
 21
212.13901880616555
  0
LINE
  8
_0-d_0_1
  6
CONTINUOUS
 62
    7
 10
79.455249735598954
 20
212.16907957429299
 11
79.494627901797685
 21
212.20845774049172
  0
LINE
  8
_0-d_0_1
  6
CONTINUOUS
 62
    7
 10
79.403483340030107
 20
212.25873735780129
 11
79.423142382388505
 21
212.27839544648538
  0
LINE
  8
_0-d_0_1
  6
CONTINUOUS
 62
    7
 10
79.351716944461259
 20
212.34839418763528
 11
79.352171847110185
 21
212.34884050721536
  0
LINE
  8
_0-d_0_1
  6
CONTINUOUS
 62
    7
 10
77.656757303958329
 20
222.25000170106301
 11
77.750378557925615
 21
222.34362223977456
  0
LINE
  8
_0-d_0_1
  6
CONTINUOUS
 62
    7
 10
77.515334078555497
 20
222.25000170106301
 11
77.752443262820634
 21
222.48711948329816
  0
LINE
  8
_0-d_0_1
  6
CONTINUOUS
 62
    7
 10
77.373909899478349
 20
222.25000170106301
 11
77.756361910586747
 21
222.63245398039231
  0
LINE
  8
_0-d_0_1
  6
CONTINUOUS
 62
    7
 10
77.232495257144365
 20
222.25000170106301
 11
77.762206026797685
 21
222.77971318597207
  0
LINE
  8
_0-d_0_1
  6
CONTINUOUS
 62
    7
 10
77.091062494998368
 20
222.25000170106301
 11
77.77006239581624
 21
222.92900213832269
  0
LINE
  8
_0-d_0_1
  6
CONTINUOUS
 62
    7
 10
76.949646898990068
 20
222.25000170106301
 11
77.780018755679521
 21
223.08037325972924
  0
LINE
  8
_0-d_0_1
  6
CONTINUOUS
 62
    7
 10
76.808232256656083
 20
222.25000170106301
 11
77.792170473819169
 21
223.23394033545861
  0
LINE
  8
_0-d_0_1
  6
CONTINUOUS
 62
    7
 10
76.666799494510087
 20
222.25000170106301
 11
77.806624361758622
 21
223.38982585305581
  0
LINE
  8
_0-d_0_1
  6
CONTINUOUS
 62
    7
 10
76.525384852176103
 20
222.25000170106301
 11
77.823500582461747
 21
223.54811719293008
  0
LINE
  8
_0-d_0_1
  6
CONTINUOUS
 62
    7
 10
76.383960673098954
 20
222.25000170106301
 11
77.842922159915361
 21
223.70895448560128
  0
LINE
  8
_0-d_0_1
  6
CONTINUOUS
 62
    7
 10
76.242537447696122
 20
222.25000170106301
 11
77.86503023791829
 21
223.87249520654092
  0
LINE
  8
_0-d_0_1
  6
CONTINUOUS
 62
    7
 10
76.101121851687822
 20
222.25000170106301
 11
77.889982172732743
 21
224.03886166448007
  0
LINE
  8
_0-d_0_1
  6
CONTINUOUS
 62
    7
 10
75.95969862628499
 20
222.25000170106301
 11
77.917951533084306
 21
224.2082640253962
  0
LINE
  8
_0-d_0_1
  6
CONTINUOUS
 62
    7
 10
75.818274447207841
 20
222.25000170106301
 11
77.949141451602372
 21
224.38086846703897
  0
LINE
  8
_0-d_0_1
  6
CONTINUOUS
 62
    7
 10
75.676859804873857
 20
222.25000170106301
 11
77.983759829287919
 21
224.55690244073281
  0
LINE
  8
_0-d_0_1
  6
CONTINUOUS
 62
    7
 10
75.535427042727861
 20
222.25000170106301
 11
78.022062250857743
 21
224.7366369091929
  0
LINE
  8
_0-d_0_1
  6
CONTINUOUS
 62
    7
 10
75.394012400393876
 20
222.25000170106301
 11
78.064318606143388
 21
224.92030862206826
  0
LINE
  8
_0-d_0_1
  6
CONTINUOUS
 62
    7
 10
75.252596804385576
 20
222.25000170106301
 11
78.110861727481279
 21
225.10826710099587
  0
LINE
  8
_0-d_0_1
  6
CONTINUOUS
 62
    7
 10
75.111164042239579
 20
222.25000170106301
 11
78.162086436038408
 21
225.30092361802468
  0
LINE
  8
_0-d_0_1
  6
CONTINUOUS
 62
    7
 10
74.969749399905595
 20
222.25000170106301
 11
78.218393275027665
 21
225.49864557618508
  0
LINE
  8
_0-d_0_1
  6
CONTINUOUS
 62
    7
 10
74.828325220828447
 20
222.25000170106301
 11
78.280325838809404
 21
225.70200208062539
  0
LINE
  8
_0-d_0_1
  6
CONTINUOUS
 62
    7
 10
74.686901995425615
 20
222.25000170106301
 11
78.348496386294755
 21
225.91159609193215
  0
LINE
  8
_0-d_0_1
  6
CONTINUOUS
 62
    7
 10
74.545486399417314
 20
222.25000170106301
 11
78.423647829776201
 21
226.1281631314219
  0
LINE
  8
_0-d_0_1
  6
CONTINUOUS
 62
    7
 10
74.404063174014482
 20
222.25000170106301
 11
78.506709048037919
 21
226.3526561581553
  0
LINE
  8
_0-d_0_1
  6
CONTINUOUS
 62
    7
 10
74.262638994937333
 20
222.25000170106301
 11
78.598824450259599
 21
226.58618715638528
  0
LINE
  8
_0-d_0_1
  6
CONTINUOUS
 62
    7
 10
74.121224352603349
 20
222.25000170106301
 11
78.70148272204915
 21
226.83026007050881
  0
LINE
  8
_0-d_0_1
  6
CONTINUOUS
 62
    7
 10
73.979791590457353
 20
222.25000170106301
 11
78.816651293521318
 21
227.08686140412698
  0
LINE
  8
_0-d_0_1
  6
CONTINUOUS
 62
    7
 10
73.838376948123368
 20
222.25000170106301
 11
78.946981379275712
 21
227.35860708588967
  0
LINE
  8
_0-d_0_1
  6
CONTINUOUS
 62
    7
 10
73.979791590457353
 20
222.25000170106301
 11
79.17777437854329
 21
227.44798448914895
  0
LINE
  8
_0-d_0_1
  6
CONTINUOUS
 62
    7
 10
73.838376948123368
 20
222.25000170106301
 11
79.116007754092607
 21
227.52763298386941
  0
LINE
  8
_0-d_0_1
  6
CONTINUOUS
 62
    7
 10
73.696961352115068
 20
222.25000170106301
 11
79.054241129641923
 21
227.60728195542703
  0
LINE
  8
_0-d_0_1
  6
CONTINUOUS
 62
    7
 10
73.555528589969072
 20
222.25000170106301
 11
78.992466875796708
 21
227.68693951005349
  0
LINE
  8
_0-d_0_1
  6
CONTINUOUS
 62
    7
 10
73.414113947635087
 20
222.25000170106301
 11
78.930700251346025
 21
227.76658800477395
  0
LINE
  8
_0-d_0_1
  6
CONTINUOUS
 62
    7
 10
73.272689768557939
 20
222.25000170106301
 11
78.868933626895341
 21
227.84623697633157
  0
LINE
  8
_0-d_0_1
  6
CONTINUOUS
 62
    7
 10
73.13126558948079
 20
222.25000170106301
 11
78.807159373050126
 21
227.92589453095803
  0
LINE
  8
_0-d_0_1
  6
CONTINUOUS
 62
    7
 10
72.989850947146806
 20
222.25000170106301
 11
78.745392748599443
 21
228.00554302567849
  0
LINE
  8
_0-d_0_1
  6
CONTINUOUS
 62
    7
 10
72.848426768069658
 20
222.25000170106301
 11
78.683626124148759
 21
228.08520058030496
  0
LINE
  8
_0-d_0_1
  6
CONTINUOUS
 62
    7
 10
72.707004496341142
 20
222.25000170106301
 11
78.621850916629228
 21
228.16484955186257
  0
LINE
  8
_0-d_0_1
  6
CONTINUOUS
 62
    7
 10
72.565587946658525
 20
222.25000170106301
 11
78.560085245852861
 21
228.24449804658303
  0
LINE
  8
_0-d_0_1
  6
CONTINUOUS
 62
    7
 10
72.424156138186845
 20
222.25000170106301
 11
78.498310038333329
 21
228.3241556012095
  0
LINE
  8
_0-d_0_1
  6
CONTINUOUS
 62
    7
 10
72.282741495852861
 20
222.25000170106301
 11
78.436543413882646
 21
228.40380457276711
  0
LINE
  8
_0-d_0_1
  6
CONTINUOUS
 62
    7
 10
72.141326853518876
 20
222.25000170106301
 11
78.374777743106279
 21
228.48345306748757
  0
LINE
  8
_0-d_0_1
  6
CONTINUOUS
 62
    7
 10
71.999893137698564
 20
222.25000170106301
 11
78.313011118655595
 21
228.56311062211404
  0
LINE
  8
_0-d_0_1
  6
CONTINUOUS
 62
    7
 10
71.858478495364579
 20
222.25000170106301
 11
78.251235911136064
 21
228.64275959367166
  0
LINE
  8
_0-d_0_1
  6
CONTINUOUS
 62
    7
 10
71.750028559451493
 20
222.28297579521546
 11
78.189470240359697
 21
228.72241667146096
  0
LINE
  8
_0-d_0_1
  6
CONTINUOUS
 62
    7
 10
71.750877329593095
 20
222.42524822289357
 11
78.127703615909013
 21
228.80207422608743
  0
LINE
  8
_0-d_0_1
  6
CONTINUOUS
 62
    7
 10
71.752899119143876
 20
222.56868422264466
 11
78.065936991458329
 21
228.88172319764504
  0
LINE
  8
_0-d_0_1
  6
CONTINUOUS
 62
    7
 10
71.756135889773759
 20
222.7133450531424
 11
78.004162737613115
 21
228.9613716923655
  0
LINE
  8
_0-d_0_1
  6
CONTINUOUS
 62
    7
 10
71.760606714969072
 20
222.8592394315661
 11
77.942396113162431
 21
229.04102924699197
  0
LINE
  8
_0-d_0_1
  6
CONTINUOUS
 62
    7
 10
71.766353556399736
 20
223.00640246505151
 11
77.880629488711747
 21
229.12067821854959
  0
LINE
  8
_0-d_0_1
  6
CONTINUOUS
 62
    7
 10
71.773414561038408
 20
223.15488645667443
 11
77.818854281192216
 21
229.20032671327004
  0
LINE
  8
_0-d_0_1
  6
CONTINUOUS
 62
    7
 10
71.781812617068681
 20
223.30470910901437
 11
77.757088610415849
 21
229.27998426789651
  0
LINE
  8
_0-d_0_1
  6
CONTINUOUS
 62
    7
 10
71.791603037600908
 20
223.455913933462
 11
77.695321985965165
 21
229.35963323945413
  0
LINE
  8
_0-d_0_1
  6
CONTINUOUS
 62
    7
 10
71.802810618167314
 20
223.60855368012795
 11
77.633546778445634
 21
229.43929079408059
  0
LINE
  8
_0-d_0_1
  6
CONTINUOUS
 62
    7
 10
71.81549639392415
 20
223.76265445584664
 11
77.571781107669267
 21
229.51893928880105
  0
LINE
  8
_0-d_0_1
  6
CONTINUOUS
 62
    7
 10
71.82970423388997
 20
223.9182775341929
 11
77.510014483218583
 21
229.59858826035867
  0
LINE
  8
_0-d_0_1
  6
CONTINUOUS
 62
    7
 10
71.845468470340165
 20
224.07547524804482
 11
77.448239275699052
 21
229.67824581498513
  0
LINE
  8
_0-d_0_1
  6
CONTINUOUS
 62
    7
 10
71.862861582522783
 20
224.23428288335214
 11
77.386473604922685
 21
229.75789430970559
  0
LINE
  8
_0-d_0_1
  6
CONTINUOUS
 62
    7
 10
71.881925532107743
 20
224.39477899903665
 11
77.324698397403154
 21
229.83755186433206
  0
LINE
  8
_0-d_0_1
  6
CONTINUOUS
 62
    7
 10
71.902728983645829
 20
224.55699852342019
 11
77.26293177295247
 21
229.91720083588967
  0
LINE
  8
_0-d_0_1
  6
CONTINUOUS
 62
    7
 10
71.925336786990556
 20
224.72102049226174
 11
77.201165148501786
 21
229.99684933061013
  0
LINE
  8
_0-d_0_1
  6
CONTINUOUS
 62
    7
 10
71.949806162600908
 20
224.8869145237864
 11
77.139390894656572
 21
230.0765068852366
  0
LINE
  8
_0-d_0_1
  6
CONTINUOUS
 62
    7
 10
71.976228663211259
 20
225.05475953454385
 11
77.077624270205888
 21
230.15615585679421
  0
LINE
  8
_0-d_0_1
  6
CONTINUOUS
 62
    7
 10
72.004661509280595
 20
225.22460797662148
 11
77.015857645755204
 21
230.23580435151467
  0
LINE
  8
_0-d_0_1
  6
CONTINUOUS
 62
    7
 10
72.035211512332353
 20
225.3965912186564
 11
76.95408339190999
 21
230.31546190614114
  0
LINE
  8
_0-d_0_1
  6
CONTINUOUS
 62
    7
 10
72.067958781009111
 20
225.57075289124856
 11
76.892316767459306
 21
230.39511087769876
  0
LINE
  8
_0-d_0_1
  6
CONTINUOUS
 62
    7
 10
72.10300631213704
 20
225.74721554154763
 11
76.830550143008622
 21
230.47476843232522
  0
LINE
  8
_0-d_0_1
  6
CONTINUOUS
 62
    7
 10
72.140459009890947
 20
225.92610147828469
 11
76.768774935489091
 21
230.55441740388284
  0
LINE
  8
_0-d_0_1
  6
CONTINUOUS
 62
    7
 10
72.180440851931962
 20
226.10749843949685
 11
76.707009264712724
 21
230.63406542176614
  0
LINE
  8
_0-d_0_1
  6
CONTINUOUS
 62
    7
 10
72.223091074710283
 20
226.29157236451516
 11
76.64524264026204
 21
230.7137229763926
  0
LINE
  8
_0-d_0_1
  6
CONTINUOUS
 62
    7
 10
72.26853365588704
 20
226.47843721742043
 11
76.583467432742509
 21
230.79337194795022
  0
LINE
  8
_0-d_0_1
  6
CONTINUOUS
 62
    7
 10
72.316923090701493
 20
226.66824177140603
 11
76.521701761966142
 21
230.87302091950784
  0
LINE
  8
_0-d_0_1
  6
CONTINUOUS
 62
    7
 10
72.368444391971025
 20
226.86118725175271
 11
76.459935137515458
 21
230.9526784741343
  0
LINE
  8
_0-d_0_1
  6
CONTINUOUS
 62
    7
 10
72.423280665164384
 20
227.05744818086038
 11
76.398168513064775
 21
231.03233602876077
  0
LINE
  8
_0-d_0_1
  6
CONTINUOUS
 62
    7
 10
72.481643625979814
 20
227.25722626084695
 11
76.336402842288408
 21
231.11198500031838
  0
LINE
  8
_0-d_0_1
  6
CONTINUOUS
 62
    7
 10
72.543786951785478
 20
227.46080139512429
 11
76.274627634768876
 21
231.19164255494485
  0
LINE
  8
_0-d_0_1
  6
CONTINUOUS
 62
    7
 10
72.609952875857743
 20
227.66838339204202
 11
76.212861010318193
 21
231.27129057282815
  0
LINE
  8
_0-d_0_1
  6
CONTINUOUS
 62
    7
 10
72.68045992541829
 20
227.88031319016824
 11
76.151086756472978
 21
231.35093954438577
  0
LINE
  8
_0-d_0_1
  6
CONTINUOUS
 62
    7
 10
72.75565523791829
 20
228.09693268174539
 11
76.089320132022294
 21
231.43059709901223
  0
LINE
  8
_0-d_0_1
  6
CONTINUOUS
 62
    7
 10
72.835926005130204
 20
228.31861761445413
 11
76.027553507571611
 21
231.51024607056985
  0
LINE
  8
_0-d_0_1
  6
CONTINUOUS
 62
    7
 10
72.921733805423173
 20
228.54584911698709
 11
75.965778300052079
 21
231.58989504212747
  0
LINE
  8
_0-d_0_1
  6
CONTINUOUS
 62
    7
 10
73.013622233157548
 20
228.77916124696145
 11
75.904012629275712
 21
231.66955259675393
  0
LINE
  8
_0-d_0_1
  6
CONTINUOUS
 62
    7
 10
73.112203547244462
 20
229.01915768021951
 11
75.842246004825029
 21
231.74920061463723
  0
LINE
  8
_0-d_0_1
  6
CONTINUOUS
 62
    7
 10
73.218255945926103
 20
229.26664236420999
 11
75.780470797305497
 21
231.8288581692637
  0
LINE
  8
_0-d_0_1
  6
CONTINUOUS
 62
    7
 10
73.332680651431474
 20
229.52248266572366
 11
75.71870512652913
 21
231.90850714082131
  0
LINE
  8
_0-d_0_1
  6
CONTINUOUS
 62
    7
 10
73.456606814151201
 20
229.78782394761453
 11
75.656938502078447
 21
231.98815611237893
  0
LINE
  8
_0-d_0_1
  6
CONTINUOUS
 62
    7
 10
73.591468760257158
 20
230.06411007279763
 11
75.595163294558915
 21
232.0678136670054
  0
LINE
  8
_0-d_0_1
  6
CONTINUOUS
 62
    7
 10
73.739051768069658
 20
230.35311678285012
 11
75.533397623782548
 21
232.14746263856301
  0
LINE
  8
_0-d_0_1
  6
CONTINUOUS
 62
    7
 10
73.901769587283525
 20
230.65725019807229
 11
75.471630999331865
 21
232.22711065644631
  0
LINE
  8
_0-d_0_1
  6
CONTINUOUS
 62
    7
 10
74.082930514102372
 20
230.97984293336282
 11
75.409855791812333
 21
232.30676821107278
  0
LINE
  8
_0-d_0_1
  6
CONTINUOUS
 62
    7
 10
74.287249514346513
 20
231.32557657594094
 11
75.348090121035966
 21
232.3864171826304
  0
LINE
  8
_0-d_0_1
  6
CONTINUOUS
 62
    7
 10
74.521943995242509
 20
231.70168665284524
 11
75.286323496585283
 21
232.46606615418801
  0
LINE
  8
_0-d_0_1
  6
CONTINUOUS
 62
    7
 10
74.799174257998857
 20
232.12034109467874
 11
75.224556872134599
 21
232.54572370881448
  0
LINE
  8
_0-d_0_1
  6
CONTINUOUS
 62
    7
 10
75.142423578982743
 20
232.60501364106545
 11
75.162781664615068
 21
232.6253726803721
  0
LINE
  8
_0-d_0_1
  6
CONTINUOUS
 62
    7
 10
97.251760432010073
 20
235.43649938935647
 11
100.11535353351154
 21
235.96942118043313
  0
LINE
  8
_0-d_0_1
  6
CONTINUOUS
 62
    7
 10
99.977158495669741
 20
235.94370058411965
 11
100.05189032245197
 21
236.01842287415872
  0
LINE
  8
_0-d_0_1
  6
CONTINUOUS
 62
    7
 10
99.80340761828937
 20
235.91136434907327
 11
99.972416826968569
 21
236.08038214082131
  0
LINE
  8
_0-d_0_1
  6
CONTINUOUS
 62
    7
 10
99.629639574771304
 20
235.87902048463235
 11
99.892558047061343
 21
236.14194753999124
  0
LINE
  8
_0-d_0_1
  6
CONTINUOUS
 62
    7
 10
99.455889651065249
 20
235.84669378632913
 11
99.812278696780581
 21
236.20307520264993
  0
LINE
  8
_0-d_0_1
  6
CONTINUOUS
 62
    7
 10
99.282103487735171
 20
235.81434992188821
 11
99.731580683474917
 21
236.26380899781594
  0
LINE
  8
_0-d_0_1
  6
CONTINUOUS
 62
    7
 10
99.108353564029116
 20
235.78201464051614
 11
99.650462099795718
 21
236.32410505647073
  0
LINE
  8
_0-d_0_1
  6
CONTINUOUS
 62
    7
 10
98.934602686648745
 20
235.74967840546975
 11
99.5689238994173
 21
236.38399008149514
  0
LINE
  8
_0-d_0_1
  6
CONTINUOUS
 62
    7
 10
98.76085276294269
 20
235.71734312409768
 11
99.486965128665346
 21
236.4434650265635
  0
LINE
  8
_0-d_0_1
  6
CONTINUOUS
 62
    7
 10
98.587101885562319
 20
235.68500784272561
 11
99.404586741214175
 21
236.50250986451516
  0
LINE
  8
_0-d_0_1
  6
CONTINUOUS
 62
    7
 10
98.413333842044253
 20
235.65267256135354
 11
99.321805903201479
 21
236.5611350857676
  0
LINE
  8
_0-d_0_1
  6
CONTINUOUS
 62
    7
 10
98.239565798526186
 20
235.62033727998147
 11
99.238587328677554
 21
236.61935022706399
  0
LINE
  8
_0-d_0_1
  6
CONTINUOUS
 62
    7
 10
98.065815874820132
 20
235.5880019986094
 11
99.154949137454409
 21
236.67712667817483
  0
LINE
  8
_0-d_0_1
  6
CONTINUOUS
 62
    7
 10
97.892064997439761
 20
235.55566576356301
 11
99.070891329532046
 21
236.73448351258645
  0
LINE
  8
_0-d_0_1
  6
CONTINUOUS
 62
    7
 10
97.718296953921694
 20
235.5233218991221
 11
98.986395785098452
 21
236.79141214723001
  0
LINE
  8
_0-d_0_1
  6
CONTINUOUS
 62
    7
 10
97.544547030215639
 20
235.49098661775002
 11
98.901462504153628
 21
236.84791162843118
  0
LINE
  8
_0-d_0_1
  6
CONTINUOUS
 62
    7
 10
97.370778986697573
 20
235.45865133637795
 11
98.816109606509585
 21
236.90399053925881
  0
LINE
  8
_0-d_0_1
  6
CONTINUOUS
 62
    7
 10
97.200842806582827
 20
235.43013933534036
 11
98.730337092166323
 21
236.95962408418069
  0
LINE
  8
_0-d_0_1
  6
CONTINUOUS
 62
    7
 10
97.039235541110415
 20
235.40993765229592
 11
98.644144007449526
 21
237.01483801240335
  0
LINE
  8
_0-d_0_1
  6
CONTINUOUS
 62
    7
 10
96.877593466525454
 20
235.38972833985696
 11
98.557478853946108
 21
237.06961325044045
  0
LINE
  8
_0-d_0_1
  6
CONTINUOUS
 62
    7
 10
96.715986201053042
 20
235.36952761048684
 11
98.470393130069155
 21
237.1239431225718
  0
LINE
  8
_0-d_0_1
  6
CONTINUOUS
 62
    7
 10
96.555673548465151
 20
235.35064772004495
 11
98.382870623355288
 21
237.17784479493508
  0
LINE
  8
_0-d_0_1
  6
CONTINUOUS
 62
    7
 10
96.464616724734682
 20
235.40101412171731
 11
98.29491038013019
 21
237.23130873078713
  0
LINE
  8
_0-d_0_1
  6
CONTINUOUS
 62
    7
 10
96.373034426455874
 20
235.4508474194468
 11
98.206513354068179
 21
237.28432634705911
  0
LINE
  8
_0-d_0_1
  6
CONTINUOUS
 62
    7
 10
96.280909964328188
 20
235.50014665955911
 11
98.117678591494936
 21
237.336897643751
  0
LINE
  8
_0-d_0_1
  6
CONTINUOUS
 62
    7
 10
96.188243338351626
 20
235.54890325898538
 11
98.028370806460757
 21
237.38903120393167
  0
LINE
  8
_0-d_0_1
  6
CONTINUOUS
 62
    7
 10
96.09503359485187
 20
235.59711817139993
 11
97.938643404727358
 21
237.4407098614634
  0
LINE
  8
_0-d_0_1
  6
CONTINUOUS
 62
    7
 10
96.001282164340395
 20
235.64478090638528
 11
97.848426768069643
 21
237.49194315308938
  0
LINE
  8
_0-d_0_1
  6
CONTINUOUS
 62
    7
 10
95.906970450168032
 20
235.69190195435891
 11
97.757789561038393
 21
237.54272058839211
  0
LINE
  8
_0-d_0_1
  6
CONTINUOUS
 62
    7
 10
95.812133738284487
 20
235.73846319550881
 11
97.666696497683901
 21
237.59304312104592
  0
LINE
  8
_0-d_0_1
  6
CONTINUOUS
 62
    7
 10
95.716702410464663
 20
235.78447225922952
 11
97.5751494853548
 21
237.64292028779397
  0
LINE
  8
_0-d_0_1
  6
CONTINUOUS
 62
    7
 10
95.62071079898395
 20
235.82990530366311
 11
97.483147570376772
 21
237.69232443208108
  0
LINE
  8
_0-d_0_1
  6
CONTINUOUS
 62
    7
 10
95.524194189792055
 20
235.87478617066751
 11
97.390673586612124
 21
237.74127367371926
  0
LINE
  8
_0-d_0_1
  6
CONTINUOUS
 62
    7
 10
95.427048155551333
 20
235.91909006471047
 11
97.297726580386538
 21
237.78975942963967
  0
LINE
  8
_0-d_0_1
  6
CONTINUOUS
 62
    7
 10
95.32937664676227
 20
235.9628160321177
 11
97.204324671512026
 21
237.83777311677346
  0
LINE
  8
_0-d_0_1
  6
CONTINUOUS
 62
    7
 10
95.231110522036929
 20
236.0059650265635
 11
97.110450693850893
 21
237.88532236451516
  0
LINE
  8
_0-d_0_1
  6
CONTINUOUS
 62
    7
 10
95.132232138400454
 20
236.04852751130471
 11
97.016103693728823
 21
237.93239954347024
  0
LINE
  8
_0-d_0_1
  6
CONTINUOUS
 62
    7
 10
95.032793947940249
 20
236.0904958569468
 11
96.921284624820132
 21
237.97899511689553
  0
LINE
  8
_0-d_0_1
  6
CONTINUOUS
 62
    7
 10
94.932743021731753
 20
236.1318776928843
 11
96.825975844149966
 21
238.02512720460305
  0
LINE
  8
_0-d_0_1
  6
CONTINUOUS
 62
    7
 10
94.832097002749819
 20
236.1726548993052
 11
96.730194041018862
 21
238.07076147431741
  0
LINE
  8
_0-d_0_1
  6
CONTINUOUS
 62
    7
 10
94.730856367831606
 20
236.21282080048928
 11
96.633940169101137
 21
238.11592272157083
  0
LINE
  8
_0-d_0_1
  6
CONTINUOUS
 62
    7
 10
94.628968188052554
 20
236.25238302583108
 11
96.537196585421938
 21
238.16059378022561
  0
LINE
  8
_0-d_0_1
  6
CONTINUOUS
 62
    7
 10
94.526485392337221
 20
236.29131487244973
 11
96.439945170169253
 21
238.20476606721292
  0
LINE
  8
_0-d_0_1
  6
CONTINUOUS
 62
    7
 10
94.423389860873598
 20
236.32963446015725
 11
96.342204043155093
 21
238.24844816560159
  0
LINE
  8
_0-d_0_1
  6
CONTINUOUS
 62
    7
 10
94.319646784549136
 20
236.36731508607278
 11
96.2439727275423
 21
238.29164102906594
  0
LINE
  8
_0-d_0_1
  6
CONTINUOUS
 62
    7
 10
94.215274283175845
 20
236.40436628693948
 11
96.145251700168032
 21
238.33432558411965
  0
LINE
  8
_0-d_0_1
  6
CONTINUOUS
 62
    7
 10
94.110253760104555
 20
236.44076994294534
 11
96.046005675082583
 21
238.3765123211802
  0
LINE
  8
_0-d_0_1
  6
CONTINUOUS
 62
    7
 10
94.004586169009585
 20
236.47651747102151
 11
95.946252295260805
 21
238.41818407410989
  0
LINE
  8
_0-d_0_1
  6
CONTINUOUS
 62
    7
 10
93.898271509890932
 20
236.51161745423684
 11
95.846008726840395
 21
238.45934656495461
  0
LINE
  8
_0-d_0_1
  6
CONTINUOUS
 62
    7
 10
93.791274019961733
 20
236.54604414338479
 11
95.745222994571108
 21
238.49999216431985
  0
LINE
  8
_0-d_0_1
  6
CONTINUOUS
 62
    7
 10
93.683594176059145
 20
236.57979658479104
 11
95.643912264590639
 21
238.54011515015969
  0
LINE
  8
_0-d_0_1
  6
CONTINUOUS
 62
    7
 10
93.575266787295718
 20
236.61287573212991
 11
95.542111822848696
 21
238.57971170777688
  0
LINE
  8
_0-d_0_1
  6
CONTINUOUS
 62
    7
 10
93.466222235446352
 20
236.64526346558938
 11
95.439751097445864
 21
238.61878374452004
  0
LINE
  8
_0-d_0_1
  6
CONTINUOUS
 62
    7
 10
93.356495329623598
 20
236.67694261903176
 11
95.336865851169009
 21
238.65732172364602
  0
LINE
  8
_0-d_0_1
  6
CONTINUOUS
 62
    7
 10
93.246051022296328
 20
236.70792272920022
 11
95.233455607180971
 21
238.69531801576028
  0
LINE
  8
_0-d_0_1
  6
CONTINUOUS
 62
    7
 10
93.134889075045962
 20
236.73819330567727
 11
95.129467436557192
 21
238.73277071351418
  0
LINE
  8
_0-d_0_1
  6
CONTINUOUS
 62
    7
 10
93.023009964709658
 20
236.76772859925637
 11
95.024954745059389
 21
238.76968172425637
  0
LINE
  8
_0-d_0_1
  6
CONTINUOUS
 62
    7
 10
92.910395809893984
 20
236.79652956361184
 11
94.91989988971271
 21
238.80603388184915
  0
LINE
  8
_0-d_0_1
  6
CONTINUOUS
 62
    7
 10
92.797020622973818
 20
236.82458666200051
 11
94.814267107730288
 21
238.8418329083384
  0
LINE
  8
_0-d_0_1
  6
CONTINUOUS
 62
    7
 10
92.682910391574282
 20
236.85189226502786
 11
94.708074518924136
 21
238.87706545228372
  0
LINE
  8
_0-d_0_1
  6
CONTINUOUS
 62
    7
 10
92.568021723513979
 20
236.87842729920754
 11
94.601339766269106
 21
238.91172769898782
  0
LINE
  8
_0-d_0_1
  6
CONTINUOUS
 62
    7
 10
92.452354141955752
 20
236.90418318147073
 11
94.493992277865786
 21
238.94582155579934
  0
LINE
  8
_0-d_0_1
  6
CONTINUOUS
 62
    7
 10
92.335899302249331
 20
236.92914369935403
 11
94.386084982638735
 21
238.97933748597512
  0
LINE
  8
_0-d_0_1
  6
CONTINUOUS
 62
    7
 10
92.218630978351015
 20
236.95330789918313
 11
94.277582594638247
 21
239.0122602307261
  0
LINE
  8
_0-d_0_1
  6
CONTINUOUS
 62
    7
 10
92.100566336398501
 20
236.97665766114602
 11
94.168503233676333
 21
239.04459551209817
  0
LINE
  8
_0-d_0_1
  6
CONTINUOUS
 62
    7
 10
91.98166198421039
 20
236.99916818971047
 11
94.058811136966128
 21
239.07632616395364
  0
LINE
  8
_0-d_0_1
  6
CONTINUOUS
 62
    7
 10
91.861908861880679
 20
237.02084806794534
 11
93.948524424319643
 21
239.1074636303843
  0
LINE
  8
_0-d_0_1
  6
CONTINUOUS
 62
    7
 10
91.741315790896792
 20
237.04167059296975
 11
93.837624975924868
 21
239.13797930116067
  0
LINE
  8
_0-d_0_1
  6
CONTINUOUS
 62
    7
 10
91.619847962146181
 20
237.0616176449717
 11
93.726095625644106
 21
239.16787317628274
  0
LINE
  8
_0-d_0_1
  6
CONTINUOUS
 62
    7
 10
91.49747032809772
 20
237.0806720578135
 11
93.613954016452212
 21
239.19715669984231
  0
LINE
  8
_0-d_0_1
  6
CONTINUOUS
 62
    7
 10
91.374208876376528
 20
237.09882620210061
 11
93.501164862399477
 21
239.22578981751809
  0
LINE
  8
_0-d_0_1
  6
CONTINUOUS
 62
    7
 10
91.250028797870058
 20
237.11606958741555
 11
93.38776344943561
 21
239.25379541749368
  0
LINE
  8
_0-d_0_1
  6
CONTINUOUS
 62
    7
 10
91.124904104953188
 20
237.13236883515725
 11
93.273679682498354
 21
239.28114488953958
  0
LINE
  8
_0-d_0_1
  6
CONTINUOUS
 62
    7
 10
90.998825618510622
 20
237.14770487183938
 11
93.158965775256533
 21
239.30784586305032
  0
LINE
  8
_0-d_0_1
  6
CONTINUOUS
 62
    7
 10
90.871767350917239
 20
237.16207102174172
 11
93.043569514041323
 21
239.33388117188821
  0
LINE
  8
_0-d_0_1
  6
CONTINUOUS
 62
    7
 10
90.743711659198183
 20
237.17543867463479
 11
92.927508303408999
 21
239.35923555726418
  0
LINE
  8
_0-d_0_1
  6
CONTINUOUS
 62
    7
 10
90.61464984107532
 20
237.1877916180552
 11
92.810773560290713
 21
239.38391664857278
  0
LINE
  8
_0-d_0_1
  6
CONTINUOUS
 62
    7
 10
90.484538146739382
 20
237.19911268586526
 11
92.69332141566791
 21
239.4078958355845
  0
LINE
  8
_0-d_0_1
  6
CONTINUOUS
 62
    7
 10
90.35337669539966
 20
237.20936659211526
 11
92.575195500140566
 21
239.43118456239114
  0
LINE
  8
_0-d_0_1
  6
CONTINUOUS
 62
    7
 10
90.221130379920382
 20
237.21853521699319
 11
92.456352421527285
 21
239.45375803346047
  0
LINE
  8
_0-d_0_1
  6
CONTINUOUS
 62
    7
 10
90.087755450492281
 20
237.22659281129251
 11
92.336774298434634
 21
239.47561243409524
  0
LINE
  8
_0-d_0_1
  6
CONTINUOUS
 62
    7
 10
89.953251966720003
 20
237.2335040890635
 11
92.216487595324892
 21
239.4967401349009
  0
LINE
  8
_0-d_0_1
  6
CONTINUOUS
 62
    7
 10
89.817584821467776
 20
237.23926142091165
 11
92.095448204760928
 21
239.51712396973977
  0
LINE
  8
_0-d_0_1
  6
CONTINUOUS
 62
    7
 10
89.680719146018404
 20
237.24381903046975
 11
91.97364802051105
 21
239.53674867982278
  0
LINE
  8
_0-d_0_1
  6
CONTINUOUS
 62
    7
 10
89.542628654723543
 20
237.24714353913674
 11
91.851103970294375
 21
239.55561998719583
  0
LINE
  8
_0-d_0_1
  6
CONTINUOUS
 62
    7
 10
89.403269567971606
 20
237.24921682710061
 11
91.727755257373232
 21
239.57370355958352
  0
LINE
  8
_0-d_0_1
  6
CONTINUOUS
 62
    7
 10
89.262633165789325
 20
237.24999597901711
 11
91.603645273929018
 21
239.5910070263804
  0
LINE
  8
_0-d_0_1
  6
CONTINUOUS
 62
    7
 10
89.120666959767718
 20
237.24944475526223
 11
91.478721567874331
 21
239.60749987000833
  0
LINE
  8
_0-d_0_1
  6
CONTINUOUS
 62
    7
 10
88.977309682851214
 20
237.24752024049172
 11
91.352975556140322
 21
239.62318590516458
  0
LINE
  8
_0-d_0_1
  6
CONTINUOUS
 62
    7
 10
88.832570114617724
 20
237.24419573182473
 11
91.226415941005129
 21
239.63804033631692
  0
LINE
  8
_0-d_0_1
  6
CONTINUOUS
 62
    7
 10
88.686369487529177
 20
237.23941019410501
 11
91.099007674937624
 21
239.65204790467629
  0
LINE
  8
_0-d_0_1
  6
CONTINUOUS
 62
    7
 10
88.538655349498171
 20
237.23312834138284
 11
90.970724531894106
 21
239.6651971661509
  0
LINE
  8
_0-d_0_1
  6
CONTINUOUS
 62
    7
 10
88.389401444678683
 20
237.22528913850198
 11
90.841584035640139
 21
239.67747095460305
  0
LINE
  8
_0-d_0_1
  6
CONTINUOUS
 62
    7
 10
88.238555261378664
 20
237.21585825318704
 11
90.711559960132021
 21
239.68886354798684
  0
LINE
  8
_0-d_0_1
  6
CONTINUOUS
 62
    7
 10
88.086037942653078
 20
237.20477369660745
 11
90.580608436351199
 21
239.69934442872415
  0
LINE
  8
_0-d_0_1
  6
CONTINUOUS
 62
    7
 10
87.931814738994021
 20
237.19196489686379
 11
90.448746988063235
 21
239.7088983380259
  0
LINE
  8
_0-d_0_1
  6
CONTINUOUS
 62
    7
 10
87.775806733851809
 20
237.17738130921731
 11
90.315923282390017
 21
239.71750620240579
  0
LINE
  8
_0-d_0_1
  6
CONTINUOUS
 62
    7
 10
87.617952772860903
 20
237.16095045441995
 11
90.182163366561312
 21
239.7251622998179
  0
LINE
  8
_0-d_0_1
  6
CONTINUOUS
 62
    7
 10
87.458182880168337
 20
237.14259603852639
 11
90.047414907699007
 21
239.73182848328958
  0
LINE
  8
_0-d_0_1
  6
CONTINUOUS
 62
    7
 10
87.296391913180727
 20
237.12223795289407
 11
89.91164279866733
 21
239.73748758668313
  0
LINE
  8
_0-d_0_1
  6
CONTINUOUS
 62
    7
 10
87.132536360507387
 20
237.09979704255471
 11
89.774864622836489
 21
239.7421243512095
  0
LINE
  8
_0-d_0_1
  6
CONTINUOUS
 62
    7
 10
86.96649355578937
 20
237.07516935700784
 11
89.637045332675356
 21
239.74572161073098
  0
LINE
  8
_0-d_0_1
  6
CONTINUOUS
 62
    7
 10
86.798149773364443
 20
237.04825762147317
 11
89.498132431393046
 21
239.74824121827493
  0
LINE
  8
_0-d_0_1
  6
CONTINUOUS
 62
    7
 10
86.62743515658893
 20
237.01895788545022
 11
89.358143435304541
 21
239.74966600770364
  0
LINE
  8
_0-d_0_1
  6
CONTINUOUS
 62
    7
 10
86.45420951533832
 20
236.98714807862649
 11
89.217025855069537
 21
239.74997309083352
  0
LINE
  8
_0-d_0_1
  6
CONTINUOUS
 62
    7
 10
86.278324314837832
 20
236.952695640272
 11
89.074753427391428
 21
239.74912432069192
  0
LINE
  8
_0-d_0_1
  6
CONTINUOUS
 62
    7
 10
86.099665829425234
 20
236.91545179719338
 11
88.931317427640337
 21
239.74710253114114
  0
LINE
  8
_0-d_0_1
  6
CONTINUOUS
 62
    7
 10
85.918041416888613
 20
236.87525156373391
 11
88.786647835259814
 21
239.74386576051126
  0
LINE
  8
_0-d_0_1
  6
CONTINUOUS
 62
    7
 10
85.733302542453188
 20
236.83193567628274
 11
88.640762218718905
 21
239.73939493531594
  0
LINE
  8
_0-d_0_1
  6
CONTINUOUS
 62
    7
 10
85.545247980838198
 20
236.78529623383889
 11
88.493599185233492
 21
239.73364809388528
  0
LINE
  8
_0-d_0_1
  6
CONTINUOUS
 62
    7
 10
85.353632399325747
 20
236.73510435456643
 11
88.345115193610567
 21
239.72658708924661
  0
LINE
  8
_0-d_0_1
  6
CONTINUOUS
 62
    7
 10
85.15822882342853
 20
236.6811244809092
 11
88.195292541270632
 21
239.71818903321633
  0
LINE
  8
_0-d_0_1
  6
CONTINUOUS
 62
    7
 10
84.958765455966372
 20
236.62307718629251
 11
88.044087716823
 21
239.70839861268411
  0
LINE
  8
_0-d_0_1
  6
CONTINUOUS
 62
    7
 10
84.754875609164614
 20
236.56061914796243
 11
87.891447970157046
 21
239.6971910321177
  0
LINE
  8
_0-d_0_1
  6
CONTINUOUS
 62
    7
 10
84.546252676730532
 20
236.49341085786233
 11
87.737347194438357
 21
239.68450525636086
  0
LINE
  8
_0-d_0_1
  6
CONTINUOUS
 62
    7
 10
84.332432696109194
 20
236.4210155331553
 11
87.581724116092104
 21
239.67029741639504
  0
LINE
  8
_0-d_0_1
  6
CONTINUOUS
 62
    7
 10
84.11290878940143
 20
236.34291532868752
 11
87.424526402240176
 21
239.65453317994485
  0
LINE
  8
_0-d_0_1
  6
CONTINUOUS
 62
    7
 10
83.887138315921206
 20
236.25855902070413
 11
87.265718766932864
 21
239.63714006776223
  0
LINE
  8
_0-d_0_1
  6
CONTINUOUS
 62
    7
 10
83.654368349795718
 20
236.16721323365579
 11
87.105222651248354
 21
239.61807611817727
  0
LINE
  8
_0-d_0_1
  6
CONTINUOUS
 62
    7
 10
83.413786360507387
 20
236.06805494660745
 11
86.943003126864809
 21
239.59727266663918
  0
LINE
  8
_0-d_0_1
  6
CONTINUOUS
 62
    7
 10
83.164341398959536
 20
235.9600255810679
 11
86.778981158023257
 21
239.57466486329446
  0
LINE
  8
_0-d_0_1
  6
CONTINUOUS
 62
    7
 10
82.904686877017397
 20
235.8418033444346
 11
86.613078305011172
 21
239.55019548768411
  0
LINE
  8
_0-d_0_1
  6
CONTINUOUS
 62
    7
 10
82.633186289554018
 20
235.7117173993052
 11
86.445242115741152
 21
239.52377298707376
  0
LINE
  8
_0-d_0_1
  6
CONTINUOUS
 62
    7
 10
82.34759182620563
 20
235.56753805512795
 11
86.275393673663515
 21
239.49534014100442
  0
LINE
  8
_0-d_0_1
  6
CONTINUOUS
 62
    7
 10
82.044805475955386
 20
235.40618494386086
 11
86.103410431628603
 21
239.46479013795266
  0
LINE
  8
_0-d_0_1
  6
CONTINUOUS
 62
    7
 10
81.720523783450517
 20
235.22331789368997
 11
85.92924875903644
 21
239.4320428692759
  0
LINE
  8
_0-d_0_1
  6
CONTINUOUS
 62
    7
 10
81.368001410251054
 20
235.01221922273049
 11
85.752786108737368
 21
239.39699533814797
  0
LINE
  8
_0-d_0_1
  6
CONTINUOUS
 62
    7
 10
80.975977846866044
 20
234.76161936158547
 11
85.573900172000307
 21
239.35954264039407
  0
LINE
  8
_0-d_0_1
  6
CONTINUOUS
 62
    7
 10
80.865936228518876
 20
234.79299238557229
 11
85.392494389300722
 21
239.31955126160989
  0
LINE
  8
_0-d_0_1
  6
CONTINUOUS
 62
    7
 10
80.786278673892411
 20
234.85475901002297
 11
85.208429285769839
 21
239.27691057557473
  0
LINE
  8
_0-d_0_1
  6
CONTINUOUS
 62
    7
 10
80.706629702334794
 20
234.91653421754251
 11
85.021564432864565
 21
239.23146799439797
  0
LINE
  8
_0-d_0_1
  6
CONTINUOUS
 62
    7
 10
80.626980730777177
 20
234.97829988831887
 11
84.83175987887897
 21
239.18307855958352
  0
LINE
  8
_0-d_0_1
  6
CONTINUOUS
 62
    7
 10
80.547323176150712
 20
235.04006651276956
 11
84.638805815463442
 21
239.13155725831399
  0
LINE
  8
_0-d_0_1
  6
CONTINUOUS
 62
    7
 10
80.467674204593095
 20
235.10184172028909
 11
84.442553469424624
 21
239.07672098512063
  0
LINE
  8
_0-d_0_1
  6
CONTINUOUS
 62
    7
 10
80.388026186709794
 20
235.16360739106545
 11
84.242775389438052
 21
239.0183580243052
  0
LINE
  8
_0-d_0_1
  6
CONTINUOUS
 62
    7
 10
80.308359095340165
 20
235.22537401551614
 11
84.039200255160708
 21
238.95621469849954
  0
LINE
  8
_0-d_0_1
  6
CONTINUOUS
 62
    7
 10
80.228711077456865
 20
235.28714063996682
 11
83.831618258242983
 21
238.89004877442727
  0
LINE
  8
_0-d_0_1
  6
CONTINUOUS
 62
    7
 10
80.149062105899247
 20
235.34891489381204
 11
83.61969704318561
 21
238.81954172486672
  0
LINE
  8
_0-d_0_1
  6
CONTINUOUS
 62
    7
 10
80.069404551272783
 20
235.41068151826272
 11
83.403068968539614
 21
238.74434641236672
  0
LINE
  8
_0-d_0_1
  6
CONTINUOUS
 62
    7
 10
79.989755579715165
 20
235.4724481427134
 11
83.181384035830874
 21
238.66407564515481
  0
LINE
  8
_0-d_0_1
  6
CONTINUOUS
 62
    7
 10
79.910106608157548
 20
235.53422335023293
 11
82.954152533297915
 21
238.57826784486184
  0
LINE
  8
_0-d_0_1
  6
CONTINUOUS
 62
    7
 10
79.830449053531083
 20
235.5959890210093
 11
82.72084040332355
 21
238.48637941712747
  0
LINE
  8
_0-d_0_1
  6
CONTINUOUS
 62
    7
 10
79.750801035647783
 20
235.65775564545999
 11
82.480843970065493
 21
238.38779810304055
  0
LINE
  8
_0-d_0_1
  6
CONTINUOUS
 62
    7
 10
79.671143481021318
 20
235.71953085297952
 11
82.233359286075014
 21
238.28174570435891
  0
LINE
  8
_0-d_0_1
  6
CONTINUOUS
 62
    7
 10
79.591494509463701
 20
235.78129652375588
 11
81.977518984561357
 21
238.16732099885354
  0
LINE
  8
_0-d_0_1
  6
CONTINUOUS
 62
    7
 10
79.511845537906083
 20
235.84306314820657
 11
81.712177702670488
 21
238.04339483613381
  0
LINE
  8
_0-d_0_1
  6
CONTINUOUS
 62
    7
 10
79.432187983279618
 20
235.9048383557261
 11
81.435882994418535
 21
237.90853289002786
  0
LINE
  8
_0-d_0_1
  6
CONTINUOUS
 62
    7
 10
79.352539011722001
 20
235.96660402650247
 11
81.146884867434892
 21
237.76094988221536
  0
LINE
  8
_0-d_0_1
  6
CONTINUOUS
 62
    7
 10
79.272890993838701
 20
236.02837065095315
 11
80.842751452212724
 21
237.59823206300149
  0
LINE
  8
_0-d_0_1
  6
CONTINUOUS
 62
    7
 10
79.193233439212236
 20
236.09014585847268
 11
80.520158716922197
 21
237.41706255311379
  0
LINE
  8
_0-d_0_1
  6
CONTINUOUS
 62
    7
 10
79.113584467654618
 20
236.15191152924905
 11
80.174425074344072
 21
237.2127521359385
  0
LINE
  8
_0-d_0_1
  6
CONTINUOUS
 62
    7
 10
79.033935496097001
 20
236.21367815369973
 11
79.798314997439775
 21
236.97805765504251
  0
LINE
  8
_0-d_0_1
  6
CONTINUOUS
 62
    7
 10
78.954277941470536
 20
236.27544477815042
 11
79.379660555606279
 21
236.70082739228616
  0
LINE
  8
_0-d_0_1
  6
CONTINUOUS
 62
    7
 10
78.874628969912919
 20
236.33721998566995
 11
78.89498800921956
 21
236.35757807130227
  0
LINE
  8
_0-d_0_1
  6
CONTINUOUS
 62
    7
 10
97.383394190554995
 20
230.38006285066018
 11
99.151152560000796
 21
232.14782980317483
  0
LINE
  8
_0-d_0_1
  6
CONTINUOUS
 62
    7
 10
97.312389323001284
 20
230.45048216218362
 11
99.080217310672182
 21
232.21830061311135
  0
LINE
  8
_0-d_0_1
  6
CONTINUOUS
 62
    7
 10
97.24077219653644
 20
230.52027967805276
 11
99.008757540469546
 21
232.28826502198586
  0
LINE
  8
_0-d_0_1
  6
CONTINUOUS
 62
    7
 10
97.168542334323305
 20
230.58947351807961
 11
98.936790415530581
 21
232.35772112244973
  0
LINE
  8
_0-d_0_1
  6
CONTINUOUS
 62
    7
 10
97.095682570224184
 20
230.65804651612649
 11
98.864333101992983
 21
232.42667940492043
  0
LINE
  8
_0-d_0_1
  6
CONTINUOUS
 62
    7
 10
97.022227713351626
 20
230.72599771851907
 11
98.791368433719057
 21
232.49512937898049
  0
LINE
  8
_0-d_0_1
  6
CONTINUOUS
 62
    7
 10
96.948143431430239
 20
230.79333666200051
 11
98.717878290896792
 21
232.56307199830422
  0
LINE
  8
_0-d_0_1
  6
CONTINUOUS
 62
    7
 10
96.873446413760561
 20
230.86006430024514
 11
98.64389891315021
 21
232.63050821656594
  0
LINE
  8
_0-d_0_1
  6
CONTINUOUS
 62
    7
 10
96.798119494204897
 20
230.92616060609231
 11
98.569395014529604
 21
232.69743612641702
  0
LINE
  8
_0-d_0_1
  6
CONTINUOUS
 62
    7
 10
96.7221803157381
 20
230.99164560670266
 11
98.49439997363605
 21
232.76385668153176
  0
LINE
  8
_0-d_0_1
  6
CONTINUOUS
 62
    7
 10
96.645628401523012
 20
231.05650881165872
 11
98.418898531680483
 21
232.82976988191018
  0
LINE
  8
_0-d_0_1
  6
CONTINUOUS
 62
    7
 10
96.568447062259096
 20
231.12075117463479
 11
98.342871615176577
 21
232.89517572755227
  0
LINE
  8
_0-d_0_1
  6
CONTINUOUS
 62
    7
 10
96.490652987246889
 20
231.18437174195657
 11
98.266337343936343
 21
232.96007421845803
  0
LINE
  8
_0-d_0_1
  6
CONTINUOUS
 62
    7
 10
96.412229010348696
 20
231.24736288422952
 11
98.189312884097475
 21
233.0244558178843
  0
LINE
  8
_0-d_0_1
  6
CONTINUOUS
 62
    7
 10
96.333175131564516
 20
231.30973318452249
 11
98.111763903384585
 21
233.0883214795054
  0
LINE
  8
_0-d_0_1
  6
CONTINUOUS
 62
    7
 10
96.25349135089435
 20
231.37147310609231
 11
98.033690401797671
 21
233.15168932313333
  0
LINE
  8
_0-d_0_1
  6
CONTINUOUS
 62
    7
 10
96.173177668338198
 20
231.43257406587014
 11
97.955126711612124
 21
233.21453169221292
  0
LINE
  8
_0-d_0_1
  6
CONTINUOUS
 62
    7
 10
96.092234083896059
 20
231.49305418366799
 11
97.876037546878237
 21
233.27685812348733
  0
LINE
  8
_0-d_0_1
  6
CONTINUOUS
 62
    7
 10
96.010643431430239
 20
231.55289629334817
 11
97.796423861270327
 21
233.3386762463511
  0
LINE
  8
_0-d_0_1
  6
CONTINUOUS
 62
    7
 10
95.928422400241274
 20
231.61208990449319
 11
97.716302820926089
 21
233.39997080201516
  0
LINE
  8
_0-d_0_1
  6
CONTINUOUS
 62
    7
 10
95.84555382419147
 20
231.67065409058938
 11
97.635656306033511
 21
233.46074846619973
  0
LINE
  8
_0-d_0_1
  6
CONTINUOUS
 62
    7
 10
95.762055823092837
 20
231.72856214875588
 11
97.554485270266909
 21
233.52100065583596
  0
LINE
  8
_0-d_0_1
  6
CONTINUOUS
 62
    7
 10
95.677892634158511
 20
231.78583219880471
 11
97.472789713626284
 21
233.58073786134133
  0
LINE
  8
_0-d_0_1
  6
CONTINUOUS
 62
    7
 10
95.593099543338198
 20
231.84245375031838
 11
97.390585848575014
 21
233.63994863862405
  0
LINE
  8
_0-d_0_1
  6
CONTINUOUS
 62
    7
 10
95.50764174151935
 20
231.89842012757668
 11
97.307857462649721
 21
233.69862726563821
  0
LINE
  8
_0-d_0_1
  6
CONTINUOUS
 62
    7
 10
95.421518751864809
 20
231.95372942323098
 11
97.224569269900698
 21
233.75678041810403
  0
LINE
  8
_0-d_0_1
  6
CONTINUOUS
 62
    7
 10
95.334748694186587
 20
232.00837400788674
 11
97.1407913653902
 21
233.81440809602151
  0
LINE
  8
_0-d_0_1
  6
CONTINUOUS
 62
    7
 10
95.247313448672671
 20
232.06235388154397
 11
97.056453177218813
 21
233.87150266999612
  0
LINE
  8
_0-d_0_1
  6
CONTINUOUS
 62
    7
 10
95.159195849185366
 20
232.11566904420266
 11
96.971589991336245
 21
233.92805460328469
  0
LINE
  8
_0-d_0_1
  6
CONTINUOUS
 62
    7
 10
95.070413538699526
 20
232.16830137605081
 11
96.886202284579653
 21
233.98408201569924
  0
LINE
  8
_0-d_0_1
  6
CONTINUOUS
 62
    7
 10
94.980966040377993
 20
232.22026041383157
 11
96.800254294162173
 21
234.0395572506846
  0
LINE
  8
_0-d_0_1
  6
CONTINUOUS
 62
    7
 10
94.890818545108218
 20
232.2715375744761
 11
96.713781306033511
 21
234.09450033540139
  0
LINE
  8
_0-d_0_1
  6
CONTINUOUS
 62
    7
 10
94.799971529727358
 20
232.32213095063577
 11
96.626748511081118
 21
234.14889124268899
  0
LINE
  8
_0-d_0_1
  6
CONTINUOUS
 62
    7
 10
94.708459326510805
 20
232.37202528352151
 11
96.539173552279848
 21
234.20273950929055
  0
LINE
  8
_0-d_0_1
  6
CONTINUOUS
 62
    7
 10
94.616212317233462
 20
232.42121961945901
 11
96.45103830981769
 21
234.2560460888804
  0
LINE
  8
_0-d_0_1
  6
CONTINUOUS
 62
    7
 10
94.523300596957583
 20
232.46970537537942
 11
96.362360903506655
 21
234.30878332490335
  0
LINE
  8
_0-d_0_1
  6
CONTINUOUS
 62
    7
 10
94.429654070620913
 20
232.51748255128274
 11
96.273123690371889
 21
234.36096933717141
  0
LINE
  8
_0-d_0_1
  6
CONTINUOUS
 62
    7
 10
94.335289904361147
 20
232.56455114716897
 11
96.183343836551089
 21
234.41260507935891
  0
LINE
  8
_0-d_0_1
  6
CONTINUOUS
 62
    7
 10
94.240208098178286
 20
232.61088446015725
 11
96.092986532931704
 21
234.46366289491067
  0
LINE
  8
_0-d_0_1
  6
CONTINUOUS
 62
    7
 10
94.144391485934634
 20
232.65649202699075
 11
96.002051779513735
 21
234.5141609036387
  0
LINE
  8
_0-d_0_1
  6
CONTINUOUS
 62
    7
 10
94.047822901492495
 20
232.70135572785745
 11
95.910574862246889
 21
234.56408956879983
  0
LINE
  8
_0-d_0_1
  6
CONTINUOUS
 62
    7
 10
93.950536677127261
 20
232.74547556275735
 11
95.818502852206606
 21
234.61344126099954
  0
LINE
  8
_0-d_0_1
  6
CONTINUOUS
 62
    7
 10
93.852480360751528
 20
232.78884294862161
 11
95.725871035342593
 21
234.66222456330667
  0
LINE
  8
_0-d_0_1
  6
CONTINUOUS
 62
    7
 10
93.753654429202456
 20
232.83144930238137
 11
95.632644125705141
 21
234.7104213559092
  0
LINE
  8
_0-d_0_1
  6
CONTINUOUS
 62
    7
 10
93.654076048617739
 20
232.8732860409678
 11
95.538822123294253
 21
234.75803259248147
  0
LINE
  8
_0-d_0_1
  6
CONTINUOUS
 62
    7
 10
93.553709933047671
 20
232.91434362763772
 11
95.444405504947085
 21
234.8050487362803
  0
LINE
  8
_0-d_0_1
  6
CONTINUOUS
 62
    7
 10
93.452556559329409
 20
232.95460584992776
 11
95.349429079776186
 21
234.85146883363137
  0
LINE
  8
_0-d_0_1
  6
CONTINUOUS
 62
    7
 10
93.350598761325259
 20
232.9940717541636
 11
95.253822752719302
 21
234.89729574555764
  0
LINE
  8
_0-d_0_1
  6
CONTINUOUS
 62
    7
 10
93.247835585360903
 20
233.03273180360208
 11
95.157621332888979
 21
234.94251802796731
  0
LINE
  8
_0-d_0_1
  6
CONTINUOUS
 62
    7
 10
93.144258925204653
 20
233.07057073945413
 11
95.06082482028522
 21
234.98712805146585
  0
LINE
  8
_0-d_0_1
  6
CONTINUOUS
 62
    7
 10
93.039851376300234
 20
233.10758665437112
 11
94.963398405795473
 21
235.03112486237893
  0
LINE
  8
_0-d_0_1
  6
CONTINUOUS
 62
    7
 10
92.934594818835635
 20
233.14375379914651
 11
94.865342566256899
 21
235.07450178498635
  0
LINE
  8
_0-d_0_1
  6
CONTINUOUS
 62
    7
 10
92.828489968066592
 20
233.17906454438577
 11
94.766691157107729
 21
235.11725691193948
  0
LINE
  8
_0-d_0_1
  6
CONTINUOUS
 62
    7
 10
92.721509882693667
 20
233.21351698274026
 11
94.667375513797182
 21
235.15938166016946
  0
LINE
  8
_0-d_0_1
  6
CONTINUOUS
 62
    7
 10
92.613663861041445
 20
233.24708536500344
 11
94.567429491763491
 21
235.20085981721292
  0
LINE
  8
_0-d_0_1
  6
CONTINUOUS
 62
    7
 10
92.504916855578799
 20
233.27976206178079
 11
94.466853567843813
 21
235.24170759553323
  0
LINE
  8
_0-d_0_1
  6
CONTINUOUS
 62
    7
 10
92.395259806399721
 20
233.31152895326028
 11
94.365630575900454
 21
235.28190019959817
  0
LINE
  8
_0-d_0_1
  6
CONTINUOUS
 62
    7
 10
92.284684130435366
 20
233.34236887330422
 11
94.263742396121401
 21
235.32143572205911
  0
LINE
  8
_0-d_0_1
  6
CONTINUOUS
 62
    7
 10
92.173172423129458
 20
233.37228086823831
 11
94.161206671481509
 21
235.36030653352151
  0
LINE
  8
_0-d_0_1
  6
CONTINUOUS
 62
    7
 10
92.060698220019717
 20
233.40123060578713
 11
94.057971426730532
 21
235.39851168031106
  0
LINE
  8
_0-d_0_1
  6
CONTINUOUS
 62
    7
 10
91.947261759524721
 20
233.42920854920754
 11
93.954088637118716
 21
235.4360359036387
  0
LINE
  8
_0-d_0_1
  6
CONTINUOUS
 62
    7
 10
91.832836577182192
 20
233.45620706910501
 11
93.849505850558657
 21
235.47287634248147
  0
LINE
  8
_0-d_0_1
  6
CONTINUOUS
 62
    7
 10
91.71738786387958
 20
233.48218229646096
 11
93.74424071002521
 21
235.50903490418801
  0
LINE
  8
_0-d_0_1
  6
CONTINUOUS
 62
    7
 10
91.600933024173159
 20
233.50714281434426
 11
93.63827557254352
 21
235.54447630280862
  0
LINE
  8
_0-d_0_1
  6
CONTINUOUS
 62
    7
 10
91.483411022906679
 20
233.53104475373635
 11
93.53157562900104
 21
235.57921770448098
  0
LINE
  8
_0-d_0_1
  6
CONTINUOUS
 62
    7
 10
91.364821383242983
 20
233.55387857789407
 11
93.424193331485171
 21
235.61324194306741
  0
LINE
  8
_0-d_0_1
  6
CONTINUOUS
 62
    7
 10
91.2451295344881
 20
233.57561090821633
 11
93.316058584933657
 21
235.64653948182473
  0
LINE
  8
_0-d_0_1
  6
CONTINUOUS
 62
    7
 10
91.124326655154604
 20
233.59623125428567
 11
93.2071976153902
 21
235.67910269135842
  0
LINE
  8
_0-d_0_1
  6
CONTINUOUS
 62
    7
 10
91.002386399989504
 20
233.615706237501
 11
93.097593018298525
 21
235.71091345185647
  0
LINE
  8
_0-d_0_1
  6
CONTINUOUS
 62
    7
 10
90.879265019183535
 20
233.63399961823831
 11
92.987227389102358
 21
235.74197080964456
  0
LINE
  8
_0-d_0_1
  6
CONTINUOUS
 62
    7
 10
90.754936286692995
 20
233.65110376710305
 11
92.876091906314272
 21
235.77225950593362
  0
LINE
  8
_0-d_0_1
  6
CONTINUOUS
 62
    7
 10
90.629391500239748
 20
233.66697386140237
 11
92.764186331515688
 21
235.80176905030618
  0
LINE
  8
_0-d_0_1
  6
CONTINUOUS
 62
    7
 10
90.502578207736391
 20
233.68158415192971
 11
92.651493498568911
 21
235.83049944276223
  0
LINE
  8
_0-d_0_1
  6
CONTINUOUS
 62
    7
 10
90.374461242442507
 20
233.69489172334085
 11
92.537995764499087
 21
235.85842588776956
  0
LINE
  8
_0-d_0_1
  6
CONTINUOUS
 62
    7
 10
90.245032021289248
 20
233.70687750214944
 11
92.423684546237368
 21
235.88552931184182
  0
LINE
  8
_0-d_0_1
  6
CONTINUOUS
 62
    7
 10
90.11421174693622
 20
233.71748045319924
 11
92.308550783877749
 21
235.91181925172219
  0
LINE
  8
_0-d_0_1
  6
CONTINUOUS
 62
    7
 10
89.981991657500643
 20
233.72668436402688
 11
92.192577072863955
 21
235.93726995820413
  0
LINE
  8
_0-d_0_1
  6
CONTINUOUS
 62
    7
 10
89.848319241290469
 20
233.73442724580178
 11
92.075754830127138
 21
235.96186235780129
  0
LINE
  8
_0-d_0_1
  6
CONTINUOUS
 62
    7
 10
89.713142076020617
 20
233.74067381257424
 11
91.958057829623598
 21
235.98558882111917
  0
LINE
  8
_0-d_0_1
  6
CONTINUOUS
 62
    7
 10
89.576416382079501
 20
233.74537161225686
 11
91.839485594516177
 21
236.00844076508889
  0
LINE
  8
_0-d_0_1
  6
CONTINUOUS
 62
    7
 10
89.438089647775072
 20
233.74845960969338
 11
91.720012614016909
 21
236.03039148682961
  0
LINE
  8
_0-d_0_1
  6
CONTINUOUS
 62
    7
 10
89.298100659137148
 20
233.74990347260842
 11
91.599620768313784
 21
236.05142382020364
  0
LINE
  8
_0-d_0_1
  6
CONTINUOUS
 62
    7
 10
89.156405658905882
 20
233.7496230923594
 11
91.47831053424396
 21
236.0715282284678
  0
LINE
  8
_0-d_0_1
  6
CONTINUOUS
 62
    7
 10
89.012917169814486
 20
233.74755838746438
 11
91.35604638743915
 21
236.09068849915872
  0
LINE
  8
_0-d_0_1
  6
CONTINUOUS
 62
    7
 10
88.867573925738711
 20
233.74363973969827
 11
91.232811280970949
 21
236.10887697572122
  0
LINE
  8
_0-d_0_1
  6
CONTINUOUS
 62
    7
 10
88.720314690356631
 20
233.73779562348733
 11
91.108605095630068
 21
236.12608602876077
  0
LINE
  8
_0-d_0_1
  6
CONTINUOUS
 62
    7
 10
88.571034559493441
 20
233.72993925446877
 11
90.983375260119814
 21
236.14227941865335
  0
LINE
  8
_0-d_0_1
  6
CONTINUOUS
 62
    7
 10
88.419654676204104
 20
233.71998289460549
 11
90.857121893649477
 21
236.15744951600442
  0
LINE
  8
_0-d_0_1
  6
CONTINUOUS
 62
    7
 10
88.266087600474734
 20
233.70783117646585
 11
90.729827353244204
 21
236.17157057160745
  0
LINE
  8
_0-d_0_1
  6
CONTINUOUS
 62
    7
 10
88.110210844760317
 20
233.69337728852639
 11
90.601447889094729
 21
236.1846235119761
  0
LINE
  8
_0-d_0_1
  6
CONTINUOUS
 62
    7
 10
87.951910683398623
 20
233.67650106782327
 11
90.471983739619631
 21
236.19657400483499
  0
LINE
  8
_0-d_0_1
  6
CONTINUOUS
 62
    7
 10
87.791073390727419
 20
233.6570880734385
 11
90.34138209510364
 21
236.20739630097756
  0
LINE
  8
_0-d_0_1
  6
CONTINUOUS
 62
    7
 10
87.627532669787783
 20
233.63497141236672
 11
90.209634491687197
 21
236.21707323426614
  0
LINE
  8
_0-d_0_1
  6
CONTINUOUS
 62
    7
 10
87.461166211848635
 20
233.61001947755227
 11
90.076714524512667
 21
236.22556761140237
  0
LINE
  8
_0-d_0_1
  6
CONTINUOUS
 62
    7
 10
87.291772553210635
 20
233.58205011720071
 11
89.942587205653567
 21
236.23286417359719
  0
LINE
  8
_0-d_0_1
  6
CONTINUOUS
 62
    7
 10
87.119168230777163
 20
233.55086878175149
 11
89.807208785300631
 21
236.23890951508889
  0
LINE
  8
_0-d_0_1
  6
CONTINUOUS
 62
    7
 10
86.943134257083315
 20
233.51625040406594
 11
89.670570590978045
 21
236.24368646973977
  0
LINE
  8
_0-d_0_1
  6
CONTINUOUS
 62
    7
 10
86.763417193179507
 20
233.47795656556497
 11
89.532611319308657
 21
236.24715116853127
  0
LINE
  8
_0-d_0_1
  6
CONTINUOUS
 62
    7
 10
86.579728075747866
 20
233.43569162721047
 11
89.393304729347605
 21
236.2492683255137
  0
LINE
  8
_0-d_0_1
  6
CONTINUOUS
 62
    7
 10
86.391769596820254
 20
233.38914850587258
 11
89.252624578753043
 21
236.25000360841165
  0
LINE
  8
_0-d_0_1
  6
CONTINUOUS
 62
    7
 10
86.199121901278872
 20
233.33793333405862
 11
89.110500895862955
 21
236.2493036114634
  0
LINE
  8
_0-d_0_1
  6
CONTINUOUS
 62
    7
 10
86.001390883212466
 20
233.2816169583262
 11
88.966916152720827
 21
236.24714258546243
  0
LINE
  8
_0-d_0_1
  6
CONTINUOUS
 62
    7
 10
85.798034617190737
 20
233.21968439454446
 11
88.821800389771838
 21
236.2434499585093
  0
LINE
  8
_0-d_0_1
  6
CONTINUOUS
 62
    7
 10
85.588440605883974
 20
233.15151384705911
 11
88.675118574386019
 21
236.23819235200295
  0
LINE
  8
_0-d_0_1
  6
CONTINUOUS
 62
    7
 10
85.371873566394228
 20
233.07636240357766
 11
88.526827046161074
 21
236.23131540650735
  0
LINE
  8
_0-d_0_1
  6
CONTINUOUS
 62
    7
 10
85.147397944217104
 20
232.99331072205911
 11
88.376838216071505
 21
236.2227504574717
  0
LINE
  8
_0-d_0_1
  6
CONTINUOUS
 62
    7
 10
84.913858362918276
 20
232.90119436616311
 11
88.225099632029909
 21
236.21243551606545
  0
LINE
  8
_0-d_0_1
  6
CONTINUOUS
 62
    7
 10
84.669784971957583
 20
232.79853609437356
 11
88.071567484622378
 21
236.20031908387551
  0
LINE
  8
_0-d_0_1
  6
CONTINUOUS
 62
    7
 10
84.413210341220278
 20
232.6833856427134
 11
87.91613692927875
 21
236.18631246919045
  0
LINE
  8
_0-d_0_1
  6
CONTINUOUS
 62
    7
 10
84.141447493319887
 20
232.55304602021585
 11
87.758755394702334
 21
236.17035463685403
  0
LINE
  8
_0-d_0_1
  6
CONTINUOUS
 62
    7
 10
83.892737337832827
 20
232.44575098389993
 11
87.599335381274599
 21
236.15234926576028
  0
LINE
  8
_0-d_0_1
  6
CONTINUOUS
 62
    7
 10
83.813079783206362
 20
232.50751760835061
 11
87.437771984820742
 21
236.13221815461526
  0
LINE
  8
_0-d_0_1
  6
CONTINUOUS
 62
    7
 10
83.733431288485903
 20
232.56929281587014
 11
87.273986408000368
 21
236.10984781617532
  0
LINE
  8
_0-d_0_1
  6
CONTINUOUS
 62
    7
 10
83.653773733859438
 20
232.63105848664651
 11
87.107864805941958
 21
236.08515051240335
  0
LINE
  8
_0-d_0_1
  6
CONTINUOUS
 62
    7
 10
83.574116179232973
 20
232.69282511109719
 11
86.939284750705141
 21
236.05799368256936
  0
LINE
  8
_0-d_0_1
  6
CONTINUOUS
 62
    7
 10
83.494467207675356
 20
232.75459173554788
 11
86.768132874255556
 21
236.0282571637095
  0
LINE
  8
_0-d_0_1
  6
CONTINUOUS
 62
    7
 10
83.414818712954897
 20
232.81636694306741
 11
86.594251105075259
 21
235.99579885835061
  0
LINE
  8
_0-d_0_1
  6
CONTINUOUS
 62
    7
 10
83.335161158328432
 20
232.87813261384377
 11
86.417499729876894
 21
235.96047190064797
  0
LINE
  8
_0-d_0_1
  6
CONTINUOUS
 62
    7
 10
83.255512186770815
 20
232.93989923829446
 11
86.237703987841982
 21
235.92209032410989
  0
LINE
  8
_0-d_0_1
  6
CONTINUOUS
 62
    7
 10
83.175863692050356
 20
233.00167444581399
 11
86.054662176852602
 21
235.88047293061624
  0
LINE
  8
_0-d_0_1
  6
CONTINUOUS
 62
    7
 10
83.096206137423891
 20
233.06344011659036
 11
85.868173548465151
 21
235.83540800446877
  0
LINE
  8
_0-d_0_1
  6
CONTINUOUS
 62
    7
 10
83.016557165866274
 20
233.12520674104104
 11
85.67800159144916
 21
235.78665140504251
  0
LINE
  8
_0-d_0_1
  6
CONTINUOUS
 62
    7
 10
82.936899611239809
 20
233.18698194856057
 11
85.483848997836489
 21
235.73392179841409
  0
LINE
  8
_0-d_0_1
  6
CONTINUOUS
 62
    7
 10
82.85725111651935
 20
233.24874761933694
 11
85.285427042727846
 21
235.67692449921975
  0
LINE
  8
_0-d_0_1
  6
CONTINUOUS
 62
    7
 10
82.777602144961733
 20
233.31051424378762
 11
85.082368323092837
 21
235.61528852815042
  0
LINE
  8
_0-d_0_1
  6
CONTINUOUS
 62
    7
 10
82.697944590335268
 20
233.37228945130715
 11
84.87426132846393
 21
235.54860571259866
  0
LINE
  8
_0-d_0_1
  6
CONTINUOUS
 62
    7
 10
82.618296095614809
 20
233.43405607575784
 11
84.66065163302936
 21
235.47641065949807
  0
LINE
  8
_0-d_0_1
  6
CONTINUOUS
 62
    7
 10
82.538638540988345
 20
233.4958217465342
 11
84.440935084109682
 21
235.3981187664927
  0
LINE
  8
_0-d_0_1
  6
CONTINUOUS
 62
    7
 10
82.458989569430727
 20
233.55759695405374
 11
84.214438387637514
 21
235.31304529542336
  0
LINE
  8
_0-d_0_1
  6
CONTINUOUS
 62
    7
 10
82.379341074710268
 20
233.61936357850442
 11
83.980365225558657
 21
235.22038725251565
  0
LINE
  8
_0-d_0_1
  6
CONTINUOUS
 62
    7
 10
82.299683520083804
 20
233.68112924928079
 11
83.737682768588442
 21
235.11912897462258
  0
LINE
  8
_0-d_0_1
  6
CONTINUOUS
 62
    7
 10
82.220034548526186
 20
233.74290445680032
 11
83.485115000491518
 21
235.00798490876565
  0
LINE
  8
_0-d_0_1
  6
CONTINUOUS
 62
    7
 10
82.140386053805727
 20
233.804671081251
 11
83.221059748416323
 21
234.88534429902444
  0
LINE
  8
_0-d_0_1
  6
CONTINUOUS
 62
    7
 10
82.060728499179262
 20
233.86643675202737
 11
82.943321177249331
 21
234.74903849000344
  0
LINE
  8
_0-d_0_1
  6
CONTINUOUS
 62
    7
 10
81.98107952762166
 20
233.9282119595469
 11
82.648986765628237
 21
234.59611872071633
  0
LINE
  8
_0-d_0_1
  6
CONTINUOUS
 62
    7
 10
81.901421972995195
 20
233.98997858399758
 11
82.333803602939028
 21
234.42236021394143
  0
LINE
  8
_0-d_0_1
  6
CONTINUOUS
 62
    7
 10
81.821773478274736
 20
234.05175379151711
 11
81.991280981784257
 21
234.22126081818948
  0
LINE
  8
_0-d_0_1
  6
CONTINUOUS
 62
    7
 10
99.150714823489565
 20
232.14740064973245
 11
101.62602038074054
 21
234.62271574372659
  0
LINE
  8
_0-d_0_1
  6
CONTINUOUS
 62
    7
 10
99.09893984485187
 20
232.23705843324075
 11
101.55512041736164
 21
234.69323900575051
  0
LINE
  8
_0-d_0_1
  6
CONTINUOUS
 62
    7
 10
99.04718203235187
 20
232.32671526307473
 11
101.48381800342121
 21
234.76334265107522
  0
LINE
  8
_0-d_0_1
  6
CONTINUOUS
 62
    7
 10
98.99542421985187
 20
232.41638162965188
 11
101.41209597278156
 21
234.83306196565042
  0
LINE
  8
_0-d_0_1
  6
CONTINUOUS
 62
    7
 10
98.943649241214175
 20
232.50602987641702
 11
101.33998865771808
 21
234.90236070985208
  0
LINE
  8
_0-d_0_1
  6
CONTINUOUS
 62
    7
 10
98.891891428714175
 20
232.59568765992532
 11
101.26747889209308
 21
234.97126654023538
  0
LINE
  8
_0-d_0_1
  6
CONTINUOUS
 62
    7
 10
98.840116450076479
 20
232.68535402650247
 11
101.19454855609455
 21
235.03976896638284
  0
LINE
  8
_0-d_0_1
  6
CONTINUOUS
 62
    7
 10
98.788358637576479
 20
232.7750022732676
 11
101.12119955707111
 21
235.10785177583108
  0
LINE
  8
_0-d_0_1
  6
CONTINUOUS
 62
    7
 10
98.736600825076479
 20
232.8646600567759
 11
101.04748243976154
 21
235.17554071778665
  0
LINE
  8
_0-d_0_1
  6
CONTINUOUS
 62
    7
 10
98.684843012576479
 20
232.95432546967874
 11
100.97334570575275
 21
235.24282816285501
  0
LINE
  8
_0-d_0_1
  6
CONTINUOUS
 62
    7
 10
98.633068033938784
 20
233.04397467011819
 11
100.89878840137042
 21
235.30969503754983
  0
LINE
  8
_0-d_0_1
  6
CONTINUOUS
 62
    7
 10
98.581310221438784
 20
233.13363149995217
 11
100.82384676623859
 21
235.37616804475198
  0
LINE
  8
_0-d_0_1
  6
CONTINUOUS
 62
    7
 10
98.529535242801089
 20
233.22329786652932
 11
100.74846739459552
 21
235.44223001832376
  0
LINE
  8
_0-d_0_1
  6
CONTINUOUS
 62
    7
 10
98.477777430301089
 20
233.31294611329446
 11
100.67271990466632
 21
235.50788954133401
  0
LINE
  8
_0-d_0_1
  6
CONTINUOUS
 62
    7
 10
98.426019617801089
 20
233.40261247987161
 11
100.59653563190021
 21
235.57313707703958
  0
LINE
  8
_0-d_0_1
  6
CONTINUOUS
 62
    7
 10
98.374261805301089
 20
233.49227026337991
 11
100.51994890857257
 21
235.63797453278909
  0
LINE
  8
_0-d_0_1
  6
CONTINUOUS
 62
    7
 10
98.322486826663393
 20
233.58191851014504
 11
100.44297785449542
 21
235.70240953797708
  0
LINE
  8
_0-d_0_1
  6
CONTINUOUS
 62
    7
 10
98.270711848025698
 20
233.67158487672219
 11
100.36556811023273
 21
235.76643255586038
  0
LINE
  8
_0-d_0_1
  6
CONTINUOUS
 62
    7
 10
98.218954035525698
 20
233.76124170655618
 11
100.28775686908283
 21
235.83004454011331
  0
LINE
  8
_0-d_0_1
  6
CONTINUOUS
 62
    7
 10
98.167196223025698
 20
233.85089090699563
 11
100.2095431773714
 21
235.89324644441018
  0
LINE
  8
_0-d_0_1
  6
CONTINUOUS
 62
    7
 10
98.115438410525698
 20
233.94055631989846
 11
100.13090891528644
 21
235.95604494447122
  0
LINE
  8
_0-d_0_1
  6
CONTINUOUS
 62
    7
 10
98.063663431888003
 20
234.03021410340676
 11
99.977158495669741
 21
235.94370058411965
  0
LINE
  8
_0-d_0_1
  6
CONTINUOUS
 62
    7
 10
98.011905619388003
 20
234.1198623501719
 11
99.80340761828937
 21
235.91136434907327
  0
LINE
  8
_0-d_0_1
  6
CONTINUOUS
 62
    7
 10
97.960130640750307
 20
234.20952871674905
 11
99.629639574771304
 21
235.87902048463235
  0
LINE
  8
_0-d_0_1
  6
CONTINUOUS
 62
    7
 10
97.908372828250307
 20
234.29918554658303
 11
99.455889651065249
 21
235.84669378632913
  0
LINE
  8
_0-d_0_1
  6
CONTINUOUS
 62
    7
 10
97.856615015750307
 20
234.38884333009133
 11
99.282103487735171
 21
235.81434992188821
  0
LINE
  8
_0-d_0_1
  6
CONTINUOUS
 62
    7
 10
97.804857203250307
 20
234.47850111359963
 11
99.108353564029116
 21
235.78201464051614
  0
LINE
  8
_0-d_0_1
  6
CONTINUOUS
 62
    7
 10
97.753082224612612
 20
234.56815794343362
 11
98.934602686648745
 21
235.74967840546975
  0
LINE
  8
_0-d_0_1
  6
CONTINUOUS
 62
    7
 10
97.701324412112612
 20
234.65782431001077
 11
98.76085276294269
 21
235.71734312409768
  0
LINE
  8
_0-d_0_1
  6
CONTINUOUS
 62
    7
 10
97.649549433474917
 20
234.7474725567759
 11
98.587101885562319
 21
235.68500784272561
  0
LINE
  8
_0-d_0_1
  6
CONTINUOUS
 62
    7
 10
97.597791620974917
 20
234.8371303402842
 11
98.413333842044253
 21
235.65267256135354
  0
LINE
  8
_0-d_0_1
  6
CONTINUOUS
 62
    7
 10
97.546033808474917
 20
234.92679575318704
 11
98.239565798526186
 21
235.62033727998147
  0
LINE
  8
_0-d_0_1
  6
CONTINUOUS
 62
    7
 10
97.494275995974917
 20
235.01644495362649
 11
98.065815874820132
 21
235.5880019986094
  0
LINE
  8
_0-d_0_1
  6
CONTINUOUS
 62
    7
 10
97.442501017337221
 20
235.10610178346047
 11
97.892064997439761
 21
235.55566576356301
  0
LINE
  8
_0-d_0_1
  6
CONTINUOUS
 62
    7
 10
97.390743204837221
 20
235.19576815003762
 11
97.718296953921694
 21
235.5233218991221
  0
LINE
  8
_0-d_0_1
  6
CONTINUOUS
 62
    7
 10
97.338968226199526
 20
235.28541639680276
 11
97.544547030215639
 21
235.49098661775002
  0
LINE
  8
_0-d_0_1
  6
CONTINUOUS
 62
    7
 10
97.287210413699526
 20
235.37508276337991
 11
97.370778986697573
 21
235.45865133637795
  0
LINE
  8
_0-d_0_1
  6
CONTINUOUS
 62
    7
 10
100.7500066249422
 20
222.25000170106301
 11
106.72030443835773
 21
222.25000170106301
  0
LINE
  8
_0-d_0_1
  6
CONTINUOUS
 62
    7
 10
105.49372667956867
 20
222.25000170106301
 11
106.7078456370882
 21
223.46410277718911
  0
LINE
  8
_0-d_0_1
  6
CONTINUOUS
 62
    7
 10
98.364340731387514
 20
229.26274946565042
 11
102.63046641040363
 21
233.52887514466653
  0
LINE
  8
_0-d_0_1
  6
CONTINUOUS
 62
    7
 10
106.6250647990755
 20
222.25000170106301
 11
106.74955935168781
 21
222.37450538063655
  0
LINE
  8
_0-d_0_1
  6
CONTINUOUS
 62
    7
 10
106.48363299060382
 20
222.25000170106301
 11
106.74800295520343
 21
222.51437187427888
  0
LINE
  8
_0-d_0_1
  6
CONTINUOUS
 62
    7
 10
106.34221834826984
 20
222.25000170106301
 11
106.74536127734699
 21
222.6531448089541
  0
LINE
  8
_0-d_0_1
  6
CONTINUOUS
 62
    7
 10
106.20080179858722
 20
222.25000170106301
 11
106.74163431811847
 21
222.790850373453
  0
LINE
  8
_0-d_0_1
  6
CONTINUOUS
 62
    7
 10
106.05936999011554
 20
222.25000170106301
 11
106.7368926494173
 21
222.92751482362161
  0
LINE
  8
_0-d_0_1
  6
CONTINUOUS
 62
    7
 10
105.91793818164386
 20
222.25000170106301
 11
106.73110003161945
 21
223.06315568322549
  0
LINE
  8
_0-d_0_1
  6
CONTINUOUS
 62
    7
 10
105.77652163196124
 20
222.25000170106301
 11
106.72431177783527
 21
223.19779041642556
  0
LINE
  8
_0-d_0_1
  6
CONTINUOUS
 62
    7
 10
105.63510698962726
 20
222.25000170106301
 11
106.71656031299152
 21
223.33145407075295
  0
LINE
  8
_0-d_0_1
  6
CONTINUOUS
 62
    7
 10
105.49367518115558
 20
222.25000170106301
 11
106.7078284709505
 21
223.4641553484858
  0
LINE
  8
_0-d_0_1
  6
CONTINUOUS
 62
    7
 10
105.3522605388216
 20
222.25000170106301
 11
106.69816965747394
 21
223.59591177338967
  0
LINE
  8
_0-d_0_1
  6
CONTINUOUS
 62
    7
 10
105.21082682300128
 20
222.25000170106301
 11
106.68758387256183
 21
223.72674957150826
  0
LINE
  8
_0-d_0_1
  6
CONTINUOUS
 62
    7
 10
105.0694121806673
 20
222.25000170106301
 11
106.67608828235187
 21
223.85667744511971
  0
LINE
  8
_0-d_0_1
  6
CONTINUOUS
 62
    7
 10
104.927996584659
 20
222.25000170106301
 11
106.66370005298175
 21
223.98572173947701
  0
LINE
  8
_0-d_0_1
  6
CONTINUOUS
 62
    7
 10
104.78656477618732
 20
222.25000170106301
 11
106.65045351672687
 21
224.1138911568583
  0
LINE
  8
_0-d_0_1
  6
CONTINUOUS
 62
    7
 10
104.64514918017902
 20
222.25000170106301
 11
106.63635058093585
 21
224.24120310181985
  0
LINE
  8
_0-d_0_1
  6
CONTINUOUS
 62
    7
 10
104.50371737170734
 20
222.25000170106301
 11
106.62139124560871
 21
224.3676753365458
  0
LINE
  8
_0-d_0_1
  6
CONTINUOUS
 62
    7
 10
104.36230177569904
 20
222.25000170106301
 11
106.60560793567218
 21
224.49331620568643
  0
LINE
  8
_0-d_0_1
  6
CONTINUOUS
 62
    7
 10
104.22088713336505
 20
222.25000170106301
 11
106.58903689075031
 21
224.61815241212258
  0
LINE
  8
_0-d_0_1
  6
CONTINUOUS
 62
    7
 10
104.07945437121906
 20
222.25000170106301
 11
106.57164568591632
 21
224.74218371743569
  0
LINE
  8
_0-d_0_1
  6
CONTINUOUS
 62
    7
 10
103.93803972888507
 20
222.25000170106301
 11
106.55346483874835
 21
224.8654187046946
  0
LINE
  8
_0-d_0_1
  6
CONTINUOUS
 62
    7
 10
103.79660696673908
 20
222.25000170106301
 11
106.53449816394367
 21
224.98788407678018
  0
LINE
  8
_0-d_0_1
  6
CONTINUOUS
 62
    7
 10
103.65519137073078
 20
222.25000170106301
 11
106.51479525256671
 21
225.10959676141152
  0
LINE
  8
_0-d_0_1
  6
CONTINUOUS
 62
    7
 10
103.51377672839679
 20
222.25000170106301
 11
106.49430651355304
 21
225.23054841393838
  0
LINE
  8
_0-d_0_1
  6
CONTINUOUS
 62
    7
 10
103.3723439662508
 20
222.25000170106301
 11
106.4730987041048
 21
225.35075643891702
  0
LINE
  8
_0-d_0_1
  6
CONTINUOUS
 62
    7
 10
103.2309112041048
 20
222.25000170106301
 11
106.45115656543292
 21
225.47024706239114
  0
LINE
  8
_0-d_0_1
  6
CONTINUOUS
 62
    7
 10
103.08949656177082
 20
222.25000170106301
 11
106.42851442981281
 21
225.58900287980447
  0
LINE
  8
_0-d_0_1
  6
CONTINUOUS
 62
    7
 10
102.94808191943683
 20
222.25000170106301
 11
106.40513796496906
 21
225.70705870026956
  0
LINE
  8
_0-d_0_1
  6
CONTINUOUS
 62
    7
 10
102.80666632342853
 20
222.25000170106301
 11
106.38106150317707
 21
225.82440594071755
  0
LINE
  8
_0-d_0_1
  6
CONTINUOUS
 62
    7
 10
102.66525168109455
 20
222.25000170106301
 11
106.35632128406085
 21
225.94107082719216
  0
LINE
  8
_0-d_0_1
  6
CONTINUOUS
 62
    7
 10
102.52381891894855
 20
222.25000170106301
 11
106.33087916064777
 21
226.05705312127481
  0
LINE
  8
_0-d_0_1
  6
CONTINUOUS
 62
    7
 10
102.38240427661457
 20
222.25000170106301
 11
106.30477327991046
 21
226.17236188287148
  0
LINE
  8
_0-d_0_1
  6
CONTINUOUS
 62
    7
 10
102.24097151446857
 20
222.25000170106301
 11
106.27798456836261
 21
226.2870142781199
  0
LINE
  8
_0-d_0_1
  6
CONTINUOUS
 62
    7
 10
102.09955591846027
 20
222.25000170106301
 11
106.2505645244173
 21
226.4010107838572
  0
LINE
  8
_0-d_0_1
  6
CONTINUOUS
 62
    7
 10
101.95814127612628
 20
222.25000170106301
 11
106.2224826304964
 21
226.51435116166482
  0
LINE
  8
_0-d_0_1
  6
CONTINUOUS
 62
    7
 10
101.8167266337923
 20
222.25000170106301
 11
106.19376749682941
 21
226.62705257768044
  0
LINE
  8
_0-d_0_1
  6
CONTINUOUS
 62
    7
 10
101.6752938716463
 20
222.25000170106301
 11
106.16442484546222
 21
226.73913315171609
  0
LINE
  8
_0-d_0_1
  6
CONTINUOUS
 62
    7
 10
101.533878275638
 20
222.25000170106301
 11
106.13445086169757
 21
226.85057476395974
  0
LINE
  8
_0-d_0_1
  6
CONTINUOUS
 62
    7
 10
101.39244646716632
 20
222.25000170106301
 11
106.10384936023273
 21
226.96140411729226
  0
LINE
  8
_0-d_0_1
  6
CONTINUOUS
 62
    7
 10
101.25103087115802
 20
222.25000170106301
 11
106.07265085864582
 21
227.07162121171365
  0
LINE
  8
_0-d_0_1
  6
CONTINUOUS
 62
    7
 10
101.10961622882404
 20
222.25000170106301
 11
106.04085726428546
 21
227.1812432133616
  0
LINE
  8
_0-d_0_1
  6
CONTINUOUS
 62
    7
 10
100.96820063281574
 20
222.25000170106301
 11
106.00845141101398
 21
227.29026153916726
  0
LINE
  8
_0-d_0_1
  6
CONTINUOUS
 62
    7
 10
100.82678599048175
 20
222.25000170106301
 11
105.97545237231769
 21
227.39868477219949
  0
LINE
  8
_0-d_0_1
  6
CONTINUOUS
 62
    7
 10
100.74981398273029
 20
222.31447135145078
 11
105.94187349963703
 21
227.50653103227029
  0
LINE
  8
_0-d_0_1
  6
CONTINUOUS
 62
    7
 10
100.7481870143465
 20
222.45425911480794
 11
105.90771860766925
 21
227.6137907826365
  0
LINE
  8
_0-d_0_1
  6
CONTINUOUS
 62
    7
 10
100.74489779162921
 20
222.59239337081323
 11
105.87300295520343
 21
227.72048214311013
  0
LINE
  8
_0-d_0_1
  6
CONTINUOUS
 62
    7
 10
100.74003309894123
 20
222.72893536323915
 11
105.83769411731281
 21
227.82660463685403
  0
LINE
  8
_0-d_0_1
  6
CONTINUOUS
 62
    7
 10
100.73359388995685
 20
222.86393752927194
 11
105.80182451892414
 21
227.93216732377419
  0
LINE
  8
_0-d_0_1
  6
CONTINUOUS
 62
    7
 10
100.72568506885089
 20
222.99743494624505
 11
105.76541132617511
 21
228.03716114396462
  0
LINE
  8
_0-d_0_1
  6
CONTINUOUS
 62
    7
 10
100.71632380176105
 20
223.12949756020913
 11
105.72843928027667
 21
228.14161280030618
  0
LINE
  8
_0-d_0_1
  6
CONTINUOUS
 62
    7
 10
100.70554537463703
 20
223.2601428353251
 11
105.69092364001789
 21
228.24551275605569
  0
LINE
  8
_0-d_0_1
  6
CONTINUOUS
 62
    7
 10
100.69341940570392
 20
223.38942340249429
 11
105.65284914660968
 21
228.34887102479348
  0
LINE
  8
_0-d_0_1
  6
CONTINUOUS
 62
    7
 10
100.67994684863605
 20
223.51738277310739
 11
105.61425013232746
 21
228.45169523591409
  0
LINE
  8
_0-d_0_1
  6
CONTINUOUS
 62
    7
 10
100.66519636798419
 20
223.64404741162667
 11
105.57512659717121
 21
228.55397680634866
  0
LINE
  8
_0-d_0_1
  6
CONTINUOUS
 62
    7
 10
100.64918608356037
 20
223.76945224637399
 11
105.5354594676546
 21
228.65574243897805
  0
LINE
  8
_0-d_0_1
  6
CONTINUOUS
 62
    7
 10
100.63193316150226
 20
223.89363220567117
 11
105.49528498340167
 21
228.75698307389627
  0
LINE
  8
_0-d_0_1
  6
CONTINUOUS
 62
    7
 10
100.6134910075716
 20
224.0166136347712
 11
105.45456690478839
 21
228.85769012803445
  0
LINE
  8
_0-d_0_1
  6
CONTINUOUS
 62
    7
 10
100.59389395404376
 20
224.13843146199594
 11
105.41336054492511
 21
228.95789888734231
  0
LINE
  8
_0-d_0_1
  6
CONTINUOUS
 62
    7
 10
100.57314200091876
 20
224.25910309190164
 11
105.37161249805011
 21
229.05758217210183
  0
LINE
  8
_0-d_0_1
  6
CONTINUOUS
 62
    7
 10
100.55126948047199
 20
224.37865498895059
 11
105.32938952136554
 21
229.15676668519387
  0
LINE
  8
_0-d_0_1
  6
CONTINUOUS
 62
    7
 10
100.52831263232746
 20
224.49712208146462
 11
105.28664393115558
 21
229.25544432038674
  0
LINE
  8
_0-d_0_1
  6
CONTINUOUS
 62
    7
 10
100.50428862262287
 20
224.6145129525126
 11
105.24339003253498
 21
229.35361412400613
  0
LINE
  8
_0-d_0_1
  6
CONTINUOUS
 62
    7
 10
100.47921461749591
 20
224.73085406655679
 11
105.19964594531574
 21
229.45129421586404
  0
LINE
  8
_0-d_0_1
  6
CONTINUOUS
 62
    7
 10
100.45310873675861
 20
224.84618023270974
 11
105.15541262317218
 21
229.54847505921731
  0
LINE
  8
_0-d_0_1
  6
CONTINUOUS
 62
    7
 10
100.42602247882404
 20
224.96049168939004
 11
105.11068911242999
 21
229.64516666764627
  0
LINE
  8
_0-d_0_1
  6
CONTINUOUS
 62
    7
 10
100.39792151141681
 20
225.07382324571023
 11
105.06547541308917
 21
229.74137667054543
  0
LINE
  8
_0-d_0_1
  6
CONTINUOUS
 62
    7
 10
100.36884016681232
 20
225.18617466325173
 11
105.01978869128742
 21
229.83710602158914
  0
LINE
  8
_0-d_0_1
  6
CONTINUOUS
 62
    7
 10
100.33883185077228
 20
225.29757288331399
 11
104.97359556842365
 21
229.93234470719705
  0
LINE
  8
_0-d_0_1
  6
CONTINUOUS
 62
    7
 10
100.307879397159
 20
225.40804341668496
 11
104.92694754291095
 21
230.02711132401834
  0
LINE
  8
_0-d_0_1
  6
CONTINUOUS
 62
    7
 10
100.27599901843585
 20
225.51759556168923
 11
104.87980837512531
 21
230.121396812147
  0
LINE
  8
_0-d_0_1
  6
CONTINUOUS
 62
    7
 10
100.24322600055255
 20
225.62622884148965
 11
104.83221525836505
 21
230.21521881455789
  0
LINE
  8
_0-d_0_1
  6
CONTINUOUS
 62
    7
 10
100.2095603435091
 20
225.73398736352334
 11
104.78413195300617
 21
230.30856779450784
  0
LINE
  8
_0-d_0_1
  6
CONTINUOUS
 62
    7
 10
100.1750030009798
 20
225.84085372323403
 11
104.73559374499835
 21
230.40145376557717
  0
LINE
  8
_0-d_0_1
  6
CONTINUOUS
 62
    7
 10
100.13958830524005
 20
225.9468624913157
 11
104.68660158801593
 21
230.49386671418557
  0
LINE
  8
_0-d_0_1
  6
CONTINUOUS
 62
    7
 10
100.10331530261554
 20
226.05201390618691
 11
104.63713545489826
 21
230.58582476014504
  0
LINE
  8
_0-d_0_1
  6
CONTINUOUS
 62
    7
 10
100.0662211864046
 20
226.15632537240396
 11
104.58721537280597
 21
230.67731932038674
  0
LINE
  8
_0-d_0_1
  6
CONTINUOUS
 62
    7
 10
100.0282859294466
 20
226.25981453294168
 11
104.53683943439044
 21
230.76836851472268
  0
LINE
  8
_0-d_0_1
  6
CONTINUOUS
 62
    7
 10
99.989529558902163
 20
226.36248138780007
 11
104.48600954700031
 21
230.85895326966653
  0
LINE
  8
_0-d_0_1
  6
CONTINUOUS
 62
    7
 10
99.949967333560366
 20
226.46434334153543
 11
104.43472380328693
 21
230.9490917050303
  0
LINE
  8
_0-d_0_1
  6
CONTINUOUS
 62
    7
 10
99.909600207095522
 20
226.56539991731057
 11
104.38298411059894
 21
231.03878382081399
  0
LINE
  8
_0-d_0_1
  6
CONTINUOUS
 62
    7
 10
99.868463465457339
 20
226.66567829484353
 11
104.33080668139972
 21
231.12802103394876
  0
LINE
  8
_0-d_0_1
  6
CONTINUOUS
 62
    7
 10
99.82653994250812
 20
226.7651694142283
 11
104.27817339587726
 21
231.21681192750344
  0
LINE
  8
_0-d_0_1
  6
CONTINUOUS
 62
    7
 10
99.783845850711245
 20
226.86389902467141
 11
104.2251214473299
 21
231.30516603822122
  0
LINE
  8
_0-d_0_1
  6
CONTINUOUS
 62
    7
 10
99.740399309878725
 20
226.96186807984719
 11
104.1715964763216
 21
231.39307382935891
  0
LINE
  8
_0-d_0_1
  6
CONTINUOUS
 62
    7
 10
99.696183153872866
 20
227.05907562608132
 11
104.11765188861408
 21
231.48054388398538
  0
LINE
  8
_0-d_0_1
  6
CONTINUOUS
 62
    7
 10
99.651231714969057
 20
227.15554788941751
 11
104.06326956439533
 21
231.56757620210061
  0
LINE
  8
_0-d_0_1
  6
CONTINUOUS
 62
    7
 10
99.605545946841616
 20
227.25127724046121
 11
104.00843138385333
 21
231.65417173737893
  0
LINE
  8
_0-d_0_1
  6
CONTINUOUS
 62
    7
 10
99.559124895816225
 20
227.34627989167581
 11
103.95317454028644
 21
231.74033811921487
  0
LINE
  8
_0-d_0_1
  6
CONTINUOUS
 62
    7
 10
99.511986681704897
 20
227.44055679673562
 11
103.89749712634601
 21
231.82606771821389
  0
LINE
  8
_0-d_0_1
  6
CONTINUOUS
 62
    7
 10
99.46411318469562
 20
227.53410700196633
 11
103.84136576343097
 21
231.91135958070168
  0
LINE
  8
_0-d_0_1
  6
CONTINUOUS
 62
    7
 10
99.4155396907381
 20
227.62696674699197
 11
103.7848138301424
 21
231.99623087281594
  0
LINE
  8
_0-d_0_1
  6
CONTINUOUS
 62
    7
 10
99.366267153506655
 20
227.71910837525735
 11
103.72784132648029
 21
232.08068254823098
  0
LINE
  8
_0-d_0_1
  6
CONTINUOUS
 62
    7
 10
99.316293665652651
 20
227.81055048341165
 11
103.67043203998126
 21
232.16468885774026
  0
LINE
  8
_0-d_0_1
  6
CONTINUOUS
 62
    7
 10
99.265621134524721
 20
227.90131023759255
 11
103.61260313678302
 21
232.24828317994485
  0
LINE
  8
_0-d_0_1
  6
CONTINUOUS
 62
    7
 10
99.214265772586245
 20
227.99136999482522
 11
103.55433554339923
 21
232.33144834870706
  0
LINE
  8
_0-d_0_1
  6
CONTINUOUS
 62
    7
 10
99.162228533511538
 20
228.0807473980845
 11
103.49566645312824
 21
232.41419485444436
  0
LINE
  8
_0-d_0_1
  6
CONTINUOUS
 62
    7
 10
99.109508463626284
 20
228.16946009034524
 11
103.43657774615802
 21
232.49652078980813
  0
LINE
  8
_0-d_0_1
  6
CONTINUOUS
 62
    7
 10
99.056123682742495
 20
228.25748995179543
 11
103.37705130267658
 21
232.57841757172952
  0
LINE
  8
_0-d_0_1
  6
CONTINUOUS
 62
    7
 10
99.002073237185854
 20
228.34484651917825
 11
103.31712145495929
 21
232.65990332002053
  0
LINE
  8
_0-d_0_1
  6
CONTINUOUS
 62
    7
 10
98.947340914492983
 20
228.43154648179421
 11
103.2567729442171
 21
232.74096945161233
  0
LINE
  8
_0-d_0_1
  6
CONTINUOUS
 62
    7
 10
98.891961046939272
 20
228.5175822102488
 11
103.19598669696369
 21
232.82161596650491
  0
LINE
  8
_0-d_0_1
  6
CONTINUOUS
 62
    7
 10
98.835916468387026
 20
228.60296133393655
 11
103.13481516528644
 21
232.90185907716165
  0
LINE
  8
_0-d_0_1
  6
CONTINUOUS
 62
    7
 10
98.779225298648257
 20
228.68769291276345
 11
103.07320589709796
 21
232.98167398805032
  0
LINE
  8
_0-d_0_1
  6
CONTINUOUS
 62
    7
 10
98.721885630374331
 20
228.77176884049783
 11
103.01119513202228
 21
233.06107786530862
  0
LINE
  8
_0-d_0_1
  6
CONTINUOUS
 62
    7
 10
98.66388125110187
 20
228.8551967465342
 11
102.94878096271076
 21
233.1400792920054
  0
LINE
  8
_0-d_0_1
  6
CONTINUOUS
 62
    7
 10
98.605264612918276
 20
228.93798664445291
 11
102.88593001056232
 21
233.21866110200295
  0
LINE
  8
_0-d_0_1
  6
CONTINUOUS
 62
    7
 10
98.545983263736147
 20
229.02012852067361
 11
102.82267660785236
 21
233.29682234162698
  0
LINE
  8
_0-d_0_1
  6
CONTINUOUS
 62
    7
 10
98.486071535830874
 20
229.10164097184548
 11
102.75902075458087
 21
233.37459066743264
  0
LINE
  8
_0-d_0_1
  6
CONTINUOUS
 62
    7
 10
98.425529429202456
 20
229.18251446122537
 11
102.69496245074787
 21
233.45193842286477
  0
LINE
  8
_0-d_0_1
  6
CONTINUOUS
 62
    7
 10
98.364340731387514
 20
229.26275804871926
 11
102.63046641040363
 21
233.52887514466653
  0
LINE
  8
_0-d_0_1
  6
CONTINUOUS
 62
    7
 10
98.302522608523745
 20
229.34236315125833
 11
102.56558508563556
 21
233.60540846223245
  0
LINE
  8
_0-d_0_1
  6
CONTINUOUS
 62
    7
 10
98.240091273074526
 20
229.42134693498025
 11
102.50028509784259
 21
233.68153169984231
  0
LINE
  8
_0-d_0_1
  6
CONTINUOUS
 62
    7
 10
98.177029558902163
 20
229.49970081681619
 11
102.43458170581378
 21
233.75725248689065
  0
LINE
  8
_0-d_0_1
  6
CONTINUOUS
 62
    7
 10
98.113339373355288
 20
229.57743385667214
 11
102.36845869708576
 21
233.83256224030862
  0
LINE
  8
_0-d_0_1
  6
CONTINUOUS
 62
    7
 10
98.049017855410952
 20
229.65453651780496
 11
102.3019675700716
 21
233.90746858949075
  0
LINE
  8
_0-d_0_1
  6
CONTINUOUS
 62
    7
 10
97.984102198367495
 20
229.73102692002664
 11
102.23502249408283
 21
233.98196485871682
  0
LINE
  8
_0-d_0_1
  6
CONTINUOUS
 62
    7
 10
97.918521830325503
 20
229.80688742036233
 11
102.16769213367023
 21
234.05605772370706
  0
LINE
  8
_0-d_0_1
  6
CONTINUOUS
 62
    7
 10
97.852363535647768
 20
229.88213566178689
 11
102.0999764888338
 21
234.12973955506692
  0
LINE
  8
_0-d_0_1
  6
CONTINUOUS
 62
    7
 10
97.785574862246889
 20
229.95676258439431
 11
102.03182310748615
 21
234.20302847260842
  0
LINE
  8
_0-d_0_1
  6
CONTINUOUS
 62
    7
 10
97.718139597659487
 20
230.03076866502175
 11
101.96328539538898
 21
234.27590540284524
  0
LINE
  8
_0-d_0_1
  6
CONTINUOUS
 62
    7
 10
97.650126406436343
 20
230.1041620099009
 11
101.89434523273029
 21
234.34837129945168
  0
LINE
  8
_0-d_0_1
  6
CONTINUOUS
 62
    7
 10
97.58148379016437
 20
230.17694261903176
 11
101.82498545337238
 21
234.42044428223977
  0
LINE
  8
_0-d_0_1
  6
CONTINUOUS
 62
    7
 10
97.512228914981264
 20
230.2491028630198
 11
101.75523943591632
 21
234.49211386079202
  0
LINE
  8
_0-d_0_1
  6
CONTINUOUS
 62
    7
 10
97.442343661075014
 20
230.32064989442239
 11
101.68507475543537
 21
234.56337240571389
  0
ARC
  8
_0-d_0_1
  6
CONTINUOUS
 62
    7
 10
89.250000000004917
 20
222.25000000000381
 40
29.999996185308913
 50
209.22578430175957
 51
210.77421569824367
  0
ARC
  8
_0-d_0_1
  6
CONTINUOUS
 62
    7
 10
89.250000000258751
 20
222.25000000017309
 40
29.999996185614041
 50
212.97578430176611
 51
214.5242156982344
  0
ARC
  8
_0-d_0_1
  6
CONTINUOUS
 62
    7
 10
89.250000000020435
 20
222.25000000001569
 40
29.999996185328509
 50
216.72578430175852
 51
218.27421569824165
  0
ARC
  8
_0-d_0_1
  6
CONTINUOUS
 62
    7
 10
89.250000000124373
 20
222.25000000011028
 40
29.999996185468962
 50
220.47578430176384
 51
222.0242156982396
  0
ARC
  8
_0-d_0_1
  6
CONTINUOUS
 62
    7
 10
89.249999999981213
 20
222.24999999998124
 40
29.999996185276181
 50
224.2257843017571
 51
225.77421569824284
  0
ARC
  8
_0-d_0_1
  6
CONTINUOUS
 62
    7
 10
89.250000000043073
 20
222.25000000004883
 40
29.999996185367856
 50
227.97578430175915
 51
229.52421569824011
  0
ARC
  8
_0-d_0_1
  6
CONTINUOUS
 62
    7
 10
89.250000000015675
 20
222.25000000002044
 40
29.999996185328499
 50
231.72578430175847
 51
233.27421569824151
  0
ARC
  8
_0-d_0_1
  6
CONTINUOUS
 62
    7
 10
89.25000000015028
 20
222.25000000022311
 40
29.999996185571721
 50
235.47578430176281
 51
237.02421569823332
  0
ARC
  8
_0-d_0_1
  6
CONTINUOUS
 62
    7
 10
89.249999999977035
 20
222.24999999995782
 40
29.999996185254734
 50
239.22578430175417
 51
240.77421569824111
  0
ARC
  8
_0-d_0_1
  6
CONTINUOUS
 62
    7
 10
89.24999999989079
 20
222.25000000019028
 40
29.999996185522111
 50
299.22578430176236
 51
300.77421569823542
  0
ARC
  8
_0-d_0_1
  6
CONTINUOUS
 62
    7
 10
89.250000000184855
 20
222.24999999972252
 40
29.999996184969337
 50
302.97578430175002
 51
304.52421569825162
  0
ARC
  8
_0-d_0_1
  6
CONTINUOUS
 62
    7
 10
89.250000000041368
 20
222.24999999994711
 40
29.999996185235585
 50
306.72578430175491
 51
308.2742156982427
  0
ARC
  8
_0-d_0_1
  6
CONTINUOUS
 62
    7
 10
89.249999999956898
 20
222.25000000004883
 40
29.999996185367856
 50
310.47578430175986
 51
312.02421569824088
  0
ARC
  8
_0-d_0_1
  6
CONTINUOUS
 62
    7
 10
89.249999999903878
 20
222.25000000009501
 40
29.999996185167596
 50
134.2257843017529
 51
135.77421569824426
  0
ARC
  8
_0-d_0_1
  6
CONTINUOUS
 62
    7
 10
89.249999999973227
 20
222.2500000000241
 40
29.999996185266721
 50
137.97578430175781
 51
139.52421569824409
  0
ARC
  8
_0-d_0_1
  6
CONTINUOUS
 62
    7
 10
89.250000000076753
 20
222.24999999994162
 40
29.999996185399166
 50
141.72578430176111
 51
143.27421569824057
  0
ARC
  8
_0-d_0_1
  6
CONTINUOUS
 62
    7
 10
89.25000000015153
 20
222.24999999989751
 40
29.999996185485667
 50
145.47578430176057
 51
147.02421569823559
  0
CIRCLE
  8
_0-d_0_1
  6
CONTINUOUS
 62
    7
 10
89.249999999999986
 20
222.25
 40
8.5
  0
CIRCLE
  8
_0-d_0_1
  6
CONTINUOUS
 62
    7
 10
89.249999999999986
 20
222.25
 40
6.9999995231628418
  0
ARC
  8
_0-d_0_1
  6
CONTINUOUS
 62
    7
 10
89.249999999999915
 20
222.24999999999991
 40
20.500000000000004
 50
141.25959777832
 51
128.74040222167929
  0
ARC
  8
_0-d_0_1
  6
CONTINUOUS
 62
    7
 10
89.250000000000071
 20
222.24999999999997
 40
17.500000000000082
 50
143.62396240234384
 51
179.99999999999994
  0
ARC
  8
_0-d_0_1
  6
CONTINUOUS
 62
    7
 10
89.249999999999815
 20
222.25000000000003
 40
11.499999999999828
 50
152.32049560546858
 51
180.00000000000011
  0
ARC
  8
_0-d_0_1
  6
CONTINUOUS
 62
    7
 10
89.249999999999986
 20
222.24999999999997
 40
13.999999046325652
 50
224.99999999999986
 51
315.00000000000017
  0
ARC
  8
_0-d_0_1
  6
CONTINUOUS
 62
    7
 10
89.250000000000043
 20
222.24999999999977
 40
14.999998092651166
 50
241.4182434082025
 51
315.00000000000045
  0
ARC
  8
_0-d_0_1
  6
CONTINUOUS
 62
    7
 10
89.25
 20
222.25000000000011
 40
14.999998092651275
 50
60.845993041992024
 51
123.64886474609413
  0
ARC
  8
_0-d_0_1
  6
CONTINUOUS
 62
    7
 10
89.25
 20
222.24999999999991
 40
13.999999046325755
 50
44.999923706055029
 51
122.26919555664058
  0
ARC
  8
_0-d_0_1
  6
CONTINUOUS
 62
    7
 10
89.249999999999972
 20
222.24999999999994
 40
13.999999046325634
 50
224.36732482910148
 51
315.00000000000028
  0
ARC
  8
_0-d_0_1
  6
CONTINUOUS
 62
    7
 10
89.25
 20
222.24999999999991
 40
13.999999046325755
 50
44.999923706055029
 51
122.26919555664058
  0
ARC
  8
_0-d_0_1
  6
CONTINUOUS
 62
    7
 10
89.250000000000028
 20
222.25
 40
11.499999999999957
 50
0
 51
44.988250732421932
  0
ARC
  8
_0-d_0_1
  6
CONTINUOUS
 62
    7
 10
89.249999999999616
 20
222.24999999999989
 40
17.500000000000369
 50
0.0000000000003722
 51
44.992324829100966
  0
LINE
  8
_0-d_0_1
  6
CONTINUOUS
 62
    7
 10
50.634127901117779
 20
227.84051181601515
 11
51.050882881663568
 21
230.2040467604196
  0
LINE
  8
_0-d_0_1
  6
CONTINUOUS
 62
    7
 10
52.191571956769479
 20
234.46115519870821
 11
53.012419028665363
 21
236.71641399356761
  0
LINE
  8
_0-d_0_1
  6
CONTINUOUS
 62
    7
 10
54.875017596045268
 20
240.71076880983122
 11
56.075015736380351
 21
242.78922655787974
  0
LINE
  8
_0-d_0_1
  6
CONTINUOUS
 62
    7
 10
58.602929681084902
 20
246.3994613022673
 11
60.145617553593468
 21
248.23796511658091
  0
LINE
  8
_0-d_0_1
  6
CONTINUOUS
 62
    7
 10
63.262037489598811
 20
251.35438463325102
 11
65.100541303912451
 21
252.89707250575958
  0
LINE
  8
_0-d_0_1
  6
CONTINUOUS
 62
    7
 10
50.634127901117779
 20
227.84051181601515
 11
59.549487538485039
 21
226.57311646244307
  0
LINE
  8
_0-d_0_1
  6
CONTINUOUS
 62
    7
 10
52.191571956769479
 20
234.46115519870821
 11
60.751406355009578
 21
231.66487847410465
  0
LINE
  8
_0-d_0_1
  6
CONTINUOUS
 62
    7
 10
54.875017596045268
 20
240.71076880983122
 11
62.81924051845283
 21
236.47057416748893
  0
LINE
  8
_0-d_0_1
  6
CONTINUOUS
 62
    7
 10
58.602929681084902
 20
246.3994613022673
 11
65.690159934133305
 21
240.84418491075186
  0
LINE
  8
_0-d_0_1
  6
CONTINUOUS
 62
    7
 10
63.262037489598811
 20
251.35438463325102
 11
69.276933168360841
 21
244.65282075461315
  0
LINE
  8
_0-d_0_1
  6
CONTINUOUS
 62
    7
 10
59.862055285029157
 20
228.34577624081737
 11
51.050882881663568
 21
230.2040467604196
  0
LINE
  8
_0-d_0_1
  6
CONTINUOUS
 62
    7
 10
61.367044635285879
 20
233.35633074771576
 11
53.012419028665363
 21
236.71641399356761
  0
LINE
  8
_0-d_0_1
  6
CONTINUOUS
 62
    7
 10
63.719243474843211
 20
238.02942501491927
 11
56.075015736380351
 21
242.78922655787974
  0
LINE
  8
_0-d_0_1
  6
CONTINUOUS
 62
    7
 10
66.847181432231309
 20
242.22306943781888
 11
60.145617553593468
 21
248.23796511658091
  0
LINE
  8
_0-d_0_1
  6
CONTINUOUS
 62
    7
 10
70.655817695427857
 20
245.80984225271112
 11
65.100541303912451
 21
252.89707250575958
  0
LINE
  8
_0-d_0_1
  6
CONTINUOUS
 62
    7
 10
59.636317821935961
 20
227.06555547037027
 11
59.549487538485039
 21
226.57311646244307
  0
LINE
  8
_0-d_0_1
  6
CONTINUOUS
 62
    7
 10
60.922428627686912
 20
232.13475830650947
 11
60.751406355009578
 21
231.66487847410465
  0
LINE
  8
_0-d_0_1
  6
CONTINUOUS
 62
    7
 10
63.069258355142779
 20
236.9036177634344
 11
62.81924051845283
 21
236.47057416748893
  0
LINE
  8
_0-d_0_1
  6
CONTINUOUS
 62
    7
 10
66.011576669383203
 20
241.22723445970578
 11
65.690159934133305
 21
240.84418491075186
  0
LINE
  8
_0-d_0_1
  6
CONTINUOUS
 62
    7
 10
69.659982717314762
 20
244.97423748986301
 11
69.276933168360841
 21
244.65282075461315
  0
LINE
  8
_0-d_0_1
  6
CONTINUOUS
 62
    7
 10
61.113525249061183
 20
226.80504838693142
 11
59.636317821935961
 21
227.06555547037027
  0
LINE
  8
_0-d_0_1
  6
CONTINUOUS
 62
    7
 10
62.331957374418579
 20
231.62169453326797
 11
60.922428627686912
 21
232.13475830650947
  0
LINE
  8
_0-d_0_1
  6
CONTINUOUS
 62
    7
 10
64.368280603767403
 20
236.15358648351736
 11
63.069258355142779
 21
236.9036177634344
  0
LINE
  8
_0-d_0_1
  6
CONTINUOUS
 62
    7
 10
67.160622286213311
 20
240.26302499401936
 11
66.011576669383203
 21
241.22723445970578
  0
LINE
  8
_0-d_0_1
  6
CONTINUOUS
 62
    7
 10
70.624138532728068
 20
243.82514685510853
 11
69.659982717314762
 21
244.97423748986301
  0
LINE
  8
_0-d_0_1
  6
CONTINUOUS
 62
    7
 10
59.862055285029157
 20
228.34577624081737
 11
59.775225001578264
 21
227.85333723289017
  0
LINE
  8
_0-d_0_1
  6
CONTINUOUS
 62
    7
 10
61.367044635285879
 20
233.35633074771576
 11
61.196022362608574
 21
232.88645091531095
  0
LINE
  8
_0-d_0_1
  6
CONTINUOUS
 62
    7
 10
63.719243474843211
 20
238.02942501491927
 11
63.469225638153262
 21
237.59638141897383
  0
LINE
  8
_0-d_0_1
  6
CONTINUOUS
 62
    7
 10
66.847181432231309
 20
242.22306943781888
 11
66.525764696981469
 21
241.84001988886493
  0
LINE
  8
_0-d_0_1
  6
CONTINUOUS
 62
    7
 10
70.655817695427857
 20
245.80984225271112
 11
70.272768146473908
 21
245.48842551746128
  0
LINE
  8
_0-d_0_1
  6
CONTINUOUS
 62
    7
 10
61.252444590233097
 20
227.59289912091296
 11
59.775225001578264
 21
227.85333723289017
  0
LINE
  8
_0-d_0_1
  6
CONTINUOUS
 62
    7
 10
62.605575062877477
 20
232.37345295387215
 11
61.196022362608574
 21
232.88645091531095
  0
LINE
  8
_0-d_0_1
  6
CONTINUOUS
 62
    7
 10
64.768282904506691
 20
236.84641079154224
 11
63.469225638153262
 21
237.59638141897383
  0
LINE
  8
_0-d_0_1
  6
CONTINUOUS
 62
    7
 10
67.674855331735955
 20
240.87586407345165
 11
66.525764696981469
 21
241.84001988886493
  0
LINE
  8
_0-d_0_1
  6
CONTINUOUS
 62
    7
 10
71.236977612160359
 20
244.33937990063117
 11
70.272768146473908
 21
245.48842551746128
  0
LINE
  8
_0-d_0_1
  6
CONTINUOUS
 62
    7
 10
49.039238873532668
 20
229.10272845213009
 11
50.673909858331001
 21
228.06612650670726
  0
LINE
  8
_0-d_0_1
  6
CONTINUOUS
 62
    7
 10
50.840094495891776
 20
235.98114550115639
 11
52.26992711655663
 21
234.67643423092116
  0
LINE
  8
_0-d_0_1
  6
CONTINUOUS
 62
    7
 10
53.808015660643207
 20
242.44234864242486
 11
54.989565176525844
 21
240.90917103910766
  0
LINE
  8
_0-d_0_1
  6
CONTINUOUS
 62
    7
 10
57.85282358503656
 20
248.29001748801474
 11
58.750189211989834
 21
246.57495837726705
  0
LINE
  8
_0-d_0_1
  6
CONTINUOUS
 62
    7
 10
62.851618827060719
 20
253.34647357911595
 11
63.437534564598593
 21
251.50164416415598
  0
LINE
  8
_0-d_0_1
  6
CONTINUOUS
 62
    7
 10
49.137500490913339
 20
229.56542568265112
 11
51.010778845745961
 21
229.97660547062674
  0
LINE
  8
_0-d_0_1
  6
CONTINUOUS
 62
    7
 10
51.017209829403328
 20
236.41975037027797
 11
52.933429497667873
 21
236.4993920407787
  0
LINE
  8
_0-d_0_1
  6
CONTINUOUS
 62
    7
 10
54.058603150501483
 20
242.84353436314356
 11
55.959540767231715
 21
242.58921804431185
  0
LINE
  8
_0-d_0_1
  6
CONTINUOUS
 62
    7
 10
58.169269257165695
 20
248.6415942352163
 11
59.997165794798093
 21
248.06104719970961
  0
LINE
  8
_0-d_0_1
  6
CONTINUOUS
 62
    7
 10
63.224307639842266
 20
253.63775887124305
 11
64.923623387041118
 21
252.74862074696421
  0
LINE
  8
_0-d_0_1
  6
CONTINUOUS
 62
    7
 10
58.558899114692878
 20
226.71393689107828
 11
58.883043229770692
 21
228.55224951785513
  0
LINE
  8
_0-d_0_1
  6
CONTINUOUS
 62
    7
 10
59.800320406025662
 20
231.97557339861658
 11
60.43875968126946
 21
233.72967089104196
  0
LINE
  8
_0-d_0_1
  6
CONTINUOUS
 62
    7
 10
61.936555309564369
 20
236.9417032798155
 11
62.869891090661781
 21
238.5582882731982
  0
LINE
  8
_0-d_0_1
  6
CONTINUOUS
 62
    7
 10
64.902695408752095
 20
241.46143319121785
 11
66.102568760285124
 21
242.89138656856542
  0
LINE
  8
_0-d_0_1
  6
CONTINUOUS
 62
    7
 10
68.608616037614297
 20
245.3974334265593
 11
70.03856941496187
 21
246.59730677809236
  0
ARC
  8
_0-d_0_1
  6
CONTINUOUS
 62
    7
 10
89.249999999935028
 20
222.25000000001114
 40
29.999996185236835
 50
169.22578430175562
 51
170.77421569824332
  0
ARC
  8
_0-d_0_1
  6
CONTINUOUS
 62
    7
 10
89.249999999868876
 20
222.25000000004738
 40
29.999996185163312
 50
159.22578430175363
 51
160.77421569824517
  0
ARC
  8
_0-d_0_1
  6
CONTINUOUS
 62
    7
 10
89.250000000121062
 20
222.24999999993014
 40
29.999996185442509
 50
149.22578430176159
 51
150.77421569823872
  0
ARC
  8
_0-d_0_1
  6
CONTINUOUS
 62
    7
 10
89.249999999991402
 20
222.25000000000713
 40
29.999996185291579
 50
139.22578430175747
 51
140.77421569824236
  0
ARC
  8
_0-d_0_1
  6
CONTINUOUS
 62
    7
 10
89.250000000121318
 20
222.24999999985545
 40
29.999996185491455
 50
129.22578430176279
 51
130.77421569823736
  0
ARC
  8
_0-d_0_1
  6
CONTINUOUS
 62
    7
 10
61.182986552638965
 20
227.19897173867702
 40
0.400000005960428
 50
259.99999999999704
 51
80.00000000000253
  0
ARC
  8
_0-d_0_1
  6
CONTINUOUS
 62
    7
 10
62.468767476887365
 20
231.99757147537494
 40
0.4000000059604552
 50
250.00000000000043
 51
69.99999999999855
  0
ARC
  8
_0-d_0_1
  6
CONTINUOUS
 62
    7
 10
64.568282599392973
 20
236.49999618530268
 40
0.4000000059604493
 50
239.99999999999764
 51
60.000000000001435
  0
ARC
  8
_0-d_0_1
  6
CONTINUOUS
 62
    7
 10
67.417739215564382
 20
240.56944197198612
 40
0.4000000059604901
 50
230.00000000000671
 51
49.999999999992617
  0
ARC
  8
_0-d_0_1
  6
CONTINUOUS
 62
    7
 10
70.930558028013877
 20
244.08226078443559
 40
0.4000000059604664
 50
219.99999999999878
 51
39.999999999998835
  0
ARC
  8
_0-d_0_1
  6
CONTINUOUS
 62
    7
 10
49.168334971284793
 20
229.31747897628139
 40
0.2500000000000555
 50
97.088562011723468
 51
238.98876953123897
  0
ARC
  8
_0-d_0_1
  6
CONTINUOUS
 62
    7
 10
51.004520371013598
 20
236.17021618018541
 40
0.2500000000000465
 50
87.088562011723639
 51
228.98876953123991
  0
ARC
  8
_0-d_0_1
  6
CONTINUOUS
 62
    7
 10
54.002775316122609
 20
242.59999465942377
 40
0.2500000000000249
 50
77.088562011724946
 51
218.98876953123906
  0
ARC
  8
_0-d_0_1
  6
CONTINUOUS
 62
    7
 10
58.071999347294991
 20
248.41144884852977
 40
0.2499999999999986
 50
67.088562011713194
 51
208.98876953125097
  0
ARC
  8
_0-d_0_1
  6
CONTINUOUS
 62
    7
 10
63.088551151470227
 20
253.42800065270498
 40
0.2500000000000319
 50
57.088562011728598
 51
198.98876953123931
  0
ARC
  8
_0-d_0_1
  6
CONTINUOUS
 62
    7
 10
89.25
 20
222.25
 40
29.000000000000011
 50
180.79029846191409
 51
129.28023732623319
  0
ARC
  8
_0-d_0_1
  6
CONTINUOUS
 62
    7
 10
89.250000000001535
 20
222.24999999999829
 40
29.000000000002299
 50
130.86192776839741
 51
139.1502269209156
  0
ARC
  8
_0-d_0_1
  6
CONTINUOUS
 62
    7
 10
89.250000000000142
 20
222.24999999999994
 40
29.000000000000163
 50
140.92978535617615
 51
149.26600646972659
  0
ARC
  8
_0-d_0_1
  6
CONTINUOUS
 62
    7
 10
89.249999999996305
 20
222.25000000000176
 40
28.999999999995921
 50
150.79028992277367
 51
159.1834498578948
  0
ARC
  8
_0-d_0_1
  6
CONTINUOUS
 62
    7
 10
89.250000000003055
 20
222.24999999999915
 40
29.000000000003169
 50
160.7482007410884
 51
169.14728062013651
  0
ARC
  8
_0-d_0_1
  6
CONTINUOUS
 62
    7
 10
89.250000000001009
 20
222.2499999999998
 40
29.000000000001027
 50
170.88005857394279
 51
179.20970153808554
  0
TEXT
  8
_0-d_0_1
 62
    7
 10
77.259251281809327
 20
236.15415273345323
 40
5
 41
1
 50
29.999957756663811
  1
10
  0
TEXT
  8
_0-d_0_1
 62
    7
 10
82.223715986511579
 20
239.25284957456574
 40
5
 41
1
 50
14.999989403430712
  1
9
  0
TEXT
  8
_0-d_0_1
 62
    7
 10
85.843761870150942
 20
240.38529375428567
 40
5
 41
1
 50
0
  1
8
  0
TEXT
  8
_0-d_0_1
 62
    7
 10
90.737005307180652
 20
240.67420558504801
 40
5
 41
1
 50
-14.999979702261436
  1
7
  0
TEXT
  8
_0-d_0_1
 62
    7
 10
95.427637871616227
 20
239.66159164453424
 40
5
 41
1
 50
-29.999975896259983
  1
6
  0
TEXT
  8
_0-d_0_1
 62
    7
 10
99.66588954828832
 20
237.47591135466951
 40
5
 41
1
 50
-45.000009091158226
  1
5
  0
TEXT
  8
_0-d_0_1
 62
    7
 10
103.28393419231313
 20
234.32873549115823
 40
5
 41
1
 50
-59.999912760333956
  1
4
  0
TEXT
  8
_0-d_0_1
 62
    7
 10
105.94349340625999
 20
230.18026272118956
 40
5
 41
1
 50
-75.000243003075795
  1
3
  0
TEXT
  8
_0-d_0_1
 62
    7
 10
107.45020861316242
 20
225.61421087617288
 40
5
 41
1
 50
-90
  1
2
  0
TEXT
  8
_0-d_0_1
 62
    7
 10
107.63595616540398
 20
220.72452840616731
 40
5
 41
1
 50
-104.99975616503994
  1
1
  0
TEXT
  8
_0-d_0_1
 62
    7
 10
107.33312794793805
 20
217.21836986406521
 40
5
 41
1
 50
-120.00005854257884
  1
24
  0
TEXT
  8
_0-d_0_1
 62
    7
 10
105.39337916064778
 20
212.69173983062856
 40
5
 41
1
 50
-135.00000000000023
  1
23
  0
TEXT
  8
_0-d_0_1
 62
    7
 10
102.33627747487471
 20
208.74137392700007
 40
5
 41
1
 50
-150.00003053215434
  1
22
  0
TEXT
  8
_0-d_0_1
 62
    7
 10
98.461844413814262
 20
205.8417950840261
 40
5
 41
1
 50
-164.9999646800598
  1
21
  0
TEXT
  8
_0-d_0_1
 62
    7
 10
93.933866688495058
 20
203.90524652833352
 40
5
 41
1
 50
180
  1
20
  0
TEXT
  8
_0-d_0_1
 62
    7
 10
88.970166665597304
 20
203.39356918027724
 40
5
 41
1
 50
164.99998951754628
  1
19
  0
TEXT
  8
_0-d_0_1
 62
    7
 10
84.13212115282019
 20
204.16220600741642
 40
5
 41
1
 50
150.00003053215451
  1
18
  0
TEXT
  8
_0-d_0_1
 62
    7
 10
78.79244417925122
 20
206.8032970749812
 40
5
 41
1
 50
135.0000193187177
  1
17
  0
TEXT
  8
_0-d_0_1
 62
    7
 10
75.145564496534831
 20
210.11552106168401
 40
5
 41
1
 50
119.99999141718865
  1
16
  0
TEXT
  8
_0-d_0_1
 62
    7
 10
72.545376416693102
 20
214.11818441876306
 40
5
 41
1
 50
105.00004571869744
  1
15
  0
TEXT
  8
_0-d_0_1
 62
    7
 10
71.090473124270829
 20
218.80559876794229
 40
5
 41
1
 50
90
  1
14
  0
TEXT
  8
_0-d_0_1
 62
    7
 10
70.872935851553166
 20
223.63019249279219
 40
5
 41
1
 50
74.999957816881491
  1
13
  0
TEXT
  8
_0-d_0_1
 62
    7
 10
71.821014615475008
 20
228.26990495360704
 40
5
 41
1
 50
60.000042243336416
  1
12
  0
LINE
  8
_0-d_0_1
  6
CONTINUOUS
 62
    7
 10
68.134921273080977
 20
255.06147437525854
 11
70.192119606678091
 21
256.29756383944607
  0
LINE
  8
_0-d_0_1
  6
CONTINUOUS
 62
    7
 10
68.134921273080977
 20
255.06147437525854
 11
73.027408044602623
 21
247.50148088079445
  0
LINE
  8
_0-d_0_1
  6
CONTINUOUS
 62
    7
 10
74.570314254108723
 20
248.42855246093976
 11
70.192119606678091
 21
256.29756383944607
  0
LINE
  8
_0-d_0_1
  6
CONTINUOUS
 62
    7
 10
73.456022273008443
 20
247.75901829139838
 11
73.027408044602623
 21
247.50148088079445
  0
LINE
  8
_0-d_0_1
  6
CONTINUOUS
 62
    7
 10
74.228550351678621
 20
246.47324766996468
 11
73.456022273008443
 21
247.75901829139838
  0
LINE
  8
_0-d_0_1
  6
CONTINUOUS
 62
    7
 10
74.570314254108723
 20
248.42855246093976
 11
74.14170002570296
 21
248.1710150503358
  0
LINE
  8
_0-d_0_1
  6
CONTINUOUS
 62
    7
 10
74.914288136477268
 20
246.88528049982941
 11
74.14170002570296
 21
248.1710150503358
  0
LINE
  8
_0-d_0_1
  6
CONTINUOUS
 62
    7
 10
68.041186913888367
 20
257.09324102443452
 11
68.331294153805942
 21
255.1794671059312
  0
LINE
  8
_0-d_0_1
  6
CONTINUOUS
 62
    7
 10
68.454854367790915
 20
257.32263873620127
 11
69.994156871470523
 21
256.17861582782496
  0
LINE
  8
_0-d_0_1
  6
CONTINUOUS
 62
    7
 10
72.483802091742348
 20
248.34147396796058
 11
74.083851916006267
 21
249.30288089584275
  0
ARC
  8
_0-d_0_1
  6
CONTINUOUS
 62
    7
 10
89.24999999996129
 20
222.25000000006511
 40
29.999996185226998
 50
120.22578430175655
 51
121.77421569824479
  0
ARC
  8
_0-d_0_1
  6
CONTINUOUS
 62
    7
 10
74.571418794492104
 20
246.6792615303427
 40
0.4000000059604619
 50
210.9999999999967
 51
31.000000000003695
  0
ARC
  8
_0-d_0_1
  6
CONTINUOUS
 62
    7
 10
68.287955852360938
 20
257.13669998304147
 40
0.2500000000000415
 50
48.088562011735412
 51
189.98876953125489
  0
LINE
  8
_0-d_0_1
  6
CONTINUOUS
 62
    7
 10
59.25274091076335
 20
222.65536698932061
 11
52.250003865475264
 21
222.75000235671411
  0
LINE
  8
_0-d_0_1
  6
CONTINUOUS
 62
    7
 10
52.250003865475264
 20
221.75000104541192
 11
59.25274091076335
 21
221.84463641280541
  0
ARC
  8
_0-d_0_1
  6
CONTINUOUS
 62
    7
 10
89.249999999973809
 20
222.25
 40
29.99999618527653
 50
179.22578430175719
 51
180.77421569824276
  0
LINE
  8
_0-1_作画層１
  6
CENTER
 62
    7
 10
142.25
 20
222.25
 11
36.25
 21
222.25
  0
LINE
  8
_0-d_0_1
  6
CONTINUOUS
 62
    7
 10
133.249999949222
 20
267.75000170106301
 11
45.249999949222001
 21
267.75000170106301
  0
LINE
  8
_0-d_0_1
  6
CONTINUOUS
 62
    7
 10
133.249999949222
 20
143.75000170106301
 11
133.249999949222
 21
267.75000170106301
  0
LINE
  8
_0-d_0_1
  6
CONTINUOUS
 62
    7
 10
45.249999949222001
 20
267.75000170106301
 11
45.249999949222001
 21
143.75000170106301
  0
LINE
  8
_0-d_0_1
  6
CONTINUOUS
 62
    7
 10
54.249999949222001
 20
134.75000170106301
 11
124.249999949222
 21
134.75000170106301
  0
LINE
  8
_0-d_0_1
  6
CONTINUOUS
 62
    7
 10
45.249999949222001
 20
143.75000170106301
 11
50.249999949222001
 21
143.75000170106301
  0
LINE
  8
_0-d_0_1
  6
CONTINUOUS
 62
    7
 10
54.249999949222001
 20
139.75000170106301
 11
54.249999949222001
 21
134.75000170106301
  0
LINE
  8
_0-d_0_1
  6
CONTINUOUS
 62
    7
 10
124.249999949222
 20
134.75000170106301
 11
124.249999949222
 21
139.75000170106301
  0
LINE
  8
_0-d_0_1
  6
CONTINUOUS
 62
    7
 10
54.249999949222001
 20
130.75000170106301
 11
124.249999949222
 21
130.75000170106301
  0
LINE
  8
_0-d_0_1
  6
CONTINUOUS
 62
    7
 10
133.249999949222
 20
269.75000170106301
 11
45.249999949222001
 21
269.75000170106301
  0
LINE
  8
_0-d_0_1
  6
CONTINUOUS
 62
    7
 10
43.249999949222001
 20
134.75000170106301
 11
43.249999949222001
 21
267.75000170106301
  0
LINE
  8
_0-d_0_1
  6
CONTINUOUS
 62
    7
 10
133.249999949222
 20
132.75000170106301
 11
45.249999949222001
 21
132.75000170106301
  0
LINE
  8
_0-d_0_1
  6
CONTINUOUS
 62
    7
 10
135.249999949222
 20
134.75000170106301
 11
135.249999949222
 21
267.75000170106301
  0
LINE
  8
_0-d_0_1
  6
CONTINUOUS
 62
    7
 10
133.249999949222
 20
271.75000170106301
 11
45.249999949222001
 21
271.75000170106301
  0
LINE
  8
_0-d_0_1
  6
CONTINUOUS
 62
    7
 10
137.249999949222
 20
134.75000170106301
 11
137.249999949222
 21
267.75000170106301
  0
LINE
  8
_0-d_0_1
  6
CONTINUOUS
 62
    7
 10
41.249999949222001
 20
134.75000170106301
 11
41.249999949222001
 21
267.75000170106301
  0
LINE
  8
_0-d_0_1
  6
CONTINUOUS
 62
    7
 10
45.249999949222001
 20
130.75000170106301
 11
133.249999949222
 21
130.75000170106301
  0
LINE
  8
_0-d_0_1
  6
CONTINUOUS
 62
    7
 10
59.750003763919267
 20
127.74999407166848
 11
59.750003763919267
 21
128.49999407166848
  0
LINE
  8
_0-d_0_1
  6
CONTINUOUS
 62
    7
 10
59.750003763919267
 20
127.74999407166848
 11
59.750003763919267
 21
127.00000170106301
  0
LINE
  8
_0-d_0_1
  6
CONTINUOUS
 62
    7
 10
65.750011393313798
 20
127.74999407166848
 11
65.750011393313798
 21
127.00000170106301
  0
LINE
  8
_0-d_0_1
  6
CONTINUOUS
 62
    7
 10
65.750011393313798
 20
127.74999407166848
 11
65.750011393313798
 21
128.49999407166848
  0
LINE
  8
_0-d_0_1
  6
CONTINUOUS
 62
    7
 10
62.750007578616533
 20
130.75000170106301
 11
63.500003763919267
 21
130.75000170106301
  0
LINE
  8
_0-d_0_1
  6
CONTINUOUS
 62
    7
 10
62.750007578616533
 20
130.75000170106301
 11
62.000011393313798
 21
130.75000170106301
  0
LINE
  8
_0-d_0_1
  6
CONTINUOUS
 62
    7
 10
62.750007578616533
 20
124.74999407166848
 11
62.000011393313798
 21
124.74999407166848
  0
LINE
  8
_0-d_0_1
  6
CONTINUOUS
 62
    7
 10
62.750007578616533
 20
124.74999407166848
 11
63.500003763919267
 21
124.74999407166848
  0
LINE
  8
_0-d_0_1
  6
CONTINUOUS
 62
    7
 10
61.249996134524736
 20
128.49999407166848
 11
59.750003763919267
 21
128.49999407166848
  0
LINE
  8
_0-d_0_1
  6
CONTINUOUS
 62
    7
 10
62.000011393313798
 20
129.25000933045754
 11
62.000011393313798
 21
130.75000170106301
  0
LINE
  8
_0-d_0_1
  6
CONTINUOUS
 62
    7
 10
63.500003763919267
 20
129.25000933045754
 11
63.500003763919267
 21
130.75000170106301
  0
LINE
  8
_0-d_0_1
  6
CONTINUOUS
 62
    7
 10
64.250019022708329
 20
128.49999407166848
 11
65.750011393313798
 21
128.49999407166848
  0
LINE
  8
_0-d_0_1
  6
CONTINUOUS
 62
    7
 10
64.250019022708329
 20
127.00000170106301
 11
65.750011393313798
 21
127.00000170106301
  0
LINE
  8
_0-d_0_1
  6
CONTINUOUS
 62
    7
 10
63.500003763919267
 20
126.24998644227395
 11
63.500003763919267
 21
124.74999407166848
  0
LINE
  8
_0-d_0_1
  6
CONTINUOUS
 62
    7
 10
62.000011393313798
 20
126.24998644227395
 11
62.000011393313798
 21
124.74999407166848
  0
LINE
  8
_0-d_0_1
  6
CONTINUOUS
 62
    7
 10
61.249996134524736
 20
127.00000170106301
 11
59.750003763919267
 21
127.00000170106301
  0
LINE
  8
_0-d_0_1
  6
CONTINUOUS
 62
    7
 10
114.74999041247884
 20
127.74999407166848
 11
114.74999041247884
 21
128.00000170106301
  0
LINE
  8
_0-d_0_1
  6
CONTINUOUS
 62
    7
 10
114.74999041247884
 20
127.74999407166848
 11
114.74999041247884
 21
127.49999407166848
  0
LINE
  8
_0-d_0_1
  6
CONTINUOUS
 62
    7
 10
116.7499942271761
 20
127.74999407166848
 11
116.7499942271761
 21
127.49999407166848
  0
LINE
  8
_0-d_0_1
  6
CONTINUOUS
 62
    7
 10
116.7499942271761
 20
127.74999407166848
 11
116.7499942271761
 21
128.00000170106301
  0
LINE
  8
_0-d_0_1
  6
CONTINUOUS
 62
    7
 10
115.74999231982747
 20
128.75000170106301
 11
115.99999613452474
 21
128.75000170106301
  0
LINE
  8
_0-d_0_1
  6
CONTINUOUS
 62
    7
 10
115.74999231982747
 20
128.75000170106301
 11
115.49998659778157
 21
128.75000170106301
  0
LINE
  8
_0-d_0_1
  6
CONTINUOUS
 62
    7
 10
115.74999231982747
 20
126.74999407166848
 11
115.49998659778157
 21
126.74999407166848
  0
LINE
  8
_0-d_0_1
  6
CONTINUOUS
 62
    7
 10
115.74999231982747
 20
126.74999407166848
 11
115.99999613452474
 21
126.74999407166848
  0
LINE
  8
_0-d_0_1
  6
CONTINUOUS
 62
    7
 10
115.24998278308431
 20
128.00000170106301
 11
114.74999041247884
 21
128.00000170106301
  0
LINE
  8
_0-d_0_1
  6
CONTINUOUS
 62
    7
 10
115.49998659778157
 20
128.25000933045754
 11
115.49998659778157
 21
128.75000170106301
  0
LINE
  8
_0-d_0_1
  6
CONTINUOUS
 62
    7
 10
115.99999613452474
 20
128.25000933045754
 11
115.99999613452474
 21
128.75000170106301
  0
LINE
  8
_0-d_0_1
  6
CONTINUOUS
 62
    7
 10
116.25000185657063
 20
128.00000170106301
 11
116.7499942271761
 21
128.00000170106301
  0
LINE
  8
_0-d_0_1
  6
CONTINUOUS
 62
    7
 10
116.25000185657063
 20
127.49999407166848
 11
116.7499942271761
 21
127.49999407166848
  0
LINE
  8
_0-d_0_1
  6
CONTINUOUS
 62
    7
 10
115.99999613452474
 20
127.24998644227395
 11
115.99999613452474
 21
126.74999407166848
  0
LINE
  8
_0-d_0_1
  6
CONTINUOUS
 62
    7
 10
115.49998659778157
 20
127.24998644227395
 11
115.49998659778157
 21
126.74999407166848
  0
LINE
  8
_0-d_0_1
  6
CONTINUOUS
 62
    7
 10
115.24998278308431
 20
127.49999407166848
 11
114.74999041247884
 21
127.49999407166848
  0
LINE
  8
_0-d_0_1
  6
CONTINUOUS
 62
    7
 10
112.24999613452474
 20
117.25000933045754
 11
66.250003763919267
 21
117.25000933045754
  0
LINE
  8
_0-d_0_1
  6
CONTINUOUS
 62
    7
 10
117.92157549548665
 20
121.75000933045754
 11
112.24999613452474
 21
121.75000933045754
  0
LINE
  8
_0-d_0_1
  6
CONTINUOUS
 62
    7
 10
117.92157549548665
 20
121.75000933045754
 11
120.74999804187337
 21
124.57843187684426
  0
LINE
  8
_0-d_0_1
  6
CONTINUOUS
 62
    7
 10
60.578424402957353
 20
121.75000933045754
 11
66.250003763919267
 21
121.75000933045754
  0
LINE
  8
_0-d_0_1
  6
CONTINUOUS
 62
    7
 10
60.578424402957353
 20
121.75000933045754
 11
57.750001856570634
 21
124.57843187684426
  0
LINE
  8
_0-d_0_1
  6
CONTINUOUS
 62
    7
 10
120.74999804187337
 20
124.57843187684426
 11
120.74999804187337
 21
130.75000170106301
  0
LINE
  8
_0-d_0_1
  6
CONTINUOUS
 62
    7
 10
57.750001856570634
 20
124.57843187684426
 11
57.750001856570634
 21
130.75000170106301
  0
LINE
  8
_0-d_0_1
  6
CONTINUOUS
 62
    7
 10
56.249999949222001
 20
130.75000170106301
 11
122.24999231982747
 21
130.75000170106301
  0
LINE
  8
_0-d_0_1
  6
CONTINUOUS
 62
    7
 10
122.24999231982747
 20
123.95710161561379
 11
122.24999231982747
 21
130.75000170106301
  0
LINE
  8
_0-d_0_1
  6
CONTINUOUS
 62
    7
 10
118.54289621997395
 20
120.25000170106301
 11
122.24999231982747
 21
123.95710161561379
  0
LINE
  8
_0-d_0_1
  6
CONTINUOUS
 62
    7
 10
118.54289621997395
 20
120.25000170106301
 11
113.7499885051302
 21
120.25000170106301
  0
LINE
  8
_0-d_0_1
  6
CONTINUOUS
 62
    7
 10
113.7499885051302
 20
120.25000170106301
 11
113.7499885051302
 21
115.75000933045754
  0
LINE
  8
_0-d_0_1
  6
CONTINUOUS
 62
    7
 10
113.7499885051302
 20
115.75000933045754
 11
64.750001856570634
 21
115.75000933045754
  0
LINE
  8
_0-d_0_1
  6
CONTINUOUS
 62
    7
 10
64.750001856570634
 20
120.25000170106301
 11
64.750001856570634
 21
115.75000933045754
  0
LINE
  8
_0-d_0_1
  6
CONTINUOUS
 62
    7
 10
59.957113215213212
 20
120.25000170106301
 11
64.750001856570634
 21
120.25000170106301
  0
LINE
  8
_0-d_0_1
  6
CONTINUOUS
 62
    7
 10
59.957113215213212
 20
120.25000170106301
 11
56.249999949222001
 21
123.95711687440286
  0
LINE
  8
_0-d_0_1
  6
CONTINUOUS
 62
    7
 10
56.249999949222001
 20
123.95711687440286
 11
56.249999949222001
 21
130.75000170106301
  0
LINE
  8
_0-d_0_1
  6
CONTINUOUS
 62
    7
 10
66.250003763919267
 20
130.75000170106301
 11
66.250003763919267
 21
130.67856005067239
  0
LINE
  8
_0-d_0_1
  6
CONTINUOUS
 62
    7
 10
66.250003763919267
 20
124.92156389588723
 11
66.250003763919267
 21
117.25000933045754
  0
ARC
  8
_0-d_0_1
  6
CONTINUOUS
 62
    7
 10
50.249999999999972
 20
139.75
 40
4.0000000000000213
 50
0
 51
89.999999999999687
  0
ARC
  8
_0-d_0_1
  6
CONTINUOUS
 62
    7
 10
45.25
 20
267.75
 40
2
 50
89.999999999999588
 51
180
  0
ARC
  8
_0-d_0_1
  6
CONTINUOUS
 62
    7
 10
133.25000000000006
 20
267.75000000000006
 40
1.9999999999999574
 50
359.99999999999835
 51
90.000000000001208
  0
ARC
  8
_0-d_0_1
  6
CONTINUOUS
 62
    7
 10
45.25
 20
134.74999999999997
 40
1.9999999999999858
 50
179.99999999999918
 51
270.0000000000004
  0
ARC
  8
_0-d_0_1
  6
CONTINUOUS
 62
    7
 10
133.25000000000006
 20
134.74999999999997
 40
1.9999999999999716
 50
269.99999999999875
 51
0.0000000000008142
  0
ARC
  8
_0-d_0_1
  6
CONTINUOUS
 62
    7
 10
45.249999999999972
 20
267.75000000000006
 40
3.9999999999999432
 50
89.999999999999588
 51
180.0000000000008
  0
ARC
  8
_0-d_0_1
  6
CONTINUOUS
 62
    7
 10
133.25000000000006
 20
267.75000000000006
 40
3.9999999999999574
 50
359.9999999999992
 51
90.000000000000611
  0
ARC
  8
_0-d_0_1
  6
CONTINUOUS
 62
    7
 10
133.25
 20
134.75000000000003
 40
4.0000000000000284
 50
270
 51
359.9999999999996
  0
ARC
  8
_0-d_0_1
  6
CONTINUOUS
 62
    7
 10
45.250000000000028
 20
134.75
 40
4.0000000000000213
 50
180
 51
269.99999999999972
  0
ARC
  8
_0-d_0_1
  6
CONTINUOUS
 62
    7
 10
61.249992370605469
 20
129.25001525878906
 40
0.7499999999999853
 50
269.99999999999886
 51
0.0000000000010941
  0
ARC
  8
_0-d_0_1
  6
CONTINUOUS
 62
    7
 10
64.250015258789063
 20
129.25001525878906
 40
0.7499999999999853
 50
179.99999999999892
 51
270.00000000000114
  0
ARC
  8
_0-d_0_1
  6
CONTINUOUS
 62
    7
 10
64.250015258789063
 20
126.24998474121095
 40
0.7499999999999853
 50
89.99999999999892
 51
180.00000000000108
  0
ARC
  8
_0-d_0_1
  6
CONTINUOUS
 62
    7
 10
61.249992370605469
 20
126.24998474121095
 40
0.7499999999999853
 50
359.99999999999892
 51
90.000000000001094
  0
CIRCLE
  8
_0-d_0_1
  6
CONTINUOUS
 62
    7
 10
115.74998474121094
 20
127.75
 40
1.5
  0
ARC
  8
_0-d_0_1
  6
CONTINUOUS
 62
    7
 10
115.24998474121094
 20
128.25001525878906
 40
0.25
 50
270
 51
0
  0
ARC
  8
_0-d_0_1
  6
CONTINUOUS
 62
    7
 10
116.25
 20
128.25001525878906
 40
0.25
 50
180
 51
270
  0
ARC
  8
_0-d_0_1
  6
CONTINUOUS
 62
    7
 10
116.25
 20
127.24998474121094
 40
0.25
 50
90
 51
180
  0
ARC
  8
_0-d_0_1
  6
CONTINUOUS
 62
    7
 10
115.24998474121094
 20
127.24998474121094
 40
0.25
 50
0
 51
90
  0
ARC
  8
_0-d_0_1
  6
CONTINUOUS
 62
    7
 10
62.750007629394531
 20
127.75
 40
4.4999999999999982
 50
139.39877319335923
 51
40.601364135742301
  0
LINE
  8
_0-d_0_1
  6
DOT_18
 62
    7
 10
70.750001856570634
 20
125.75000933045754
 11
70.750001856570634
 21
126.25002458924661
  0
LINE
  8
_0-d_0_1
  6
DOT_18
 62
    7
 10
70.750001856570634
 20
125.75000933045754
 11
70.750001856570634
 21
125.25000170106301
  0
LINE
  8
_0-d_0_1
  6
DOT_18
 62
    7
 10
74.750006624942216
 20
125.75000933045754
 11
74.750006624942216
 21
125.25000170106301
  0
LINE
  8
_0-d_0_1
  6
DOT_18
 62
    7
 10
74.750006624942216
 20
125.75000933045754
 11
74.750006624942216
 21
126.25002458924661
  0
LINE
  8
_0-d_0_1
  6
DOT_18
 62
    7
 10
72.750003763919267
 20
127.75001695985208
 11
73.250013300662431
 21
127.75001695985208
  0
LINE
  8
_0-d_0_1
  6
DOT_18
 62
    7
 10
72.750003763919267
 20
127.75001695985208
 11
72.249994227176103
 21
127.75001695985208
  0
LINE
  8
_0-d_0_1
  6
DOT_18
 62
    7
 10
72.750003763919267
 20
123.75000933045754
 11
72.249994227176103
 21
123.75000933045754
  0
LINE
  8
_0-d_0_1
  6
DOT_18
 62
    7
 10
72.750003763919267
 20
123.75000933045754
 11
73.250013300662431
 21
123.75000933045754
  0
LINE
  8
_0-d_0_1
  6
DOT_18
 62
    7
 10
71.750001856570634
 20
126.25002458924661
 11
70.750001856570634
 21
126.25002458924661
  0
LINE
  8
_0-d_0_1
  6
DOT_18
 62
    7
 10
72.249994227176103
 20
126.75001695985208
 11
72.249994227176103
 21
127.75001695985208
  0
LINE
  8
_0-d_0_1
  6
DOT_18
 62
    7
 10
73.250013300662431
 20
126.75001695985208
 11
73.250013300662431
 21
127.75001695985208
  0
LINE
  8
_0-d_0_1
  6
DOT_18
 62
    7
 10
73.7500056712679
 20
126.25002458924661
 11
74.750006624942216
 21
126.25002458924661
  0
LINE
  8
_0-d_0_1
  6
DOT_18
 62
    7
 10
73.7500056712679
 20
125.25000170106301
 11
74.750006624942216
 21
125.25000170106301
  0
LINE
  8
_0-d_0_1
  6
DOT_18
 62
    7
 10
73.250013300662431
 20
124.75000933045754
 11
73.250013300662431
 21
123.75000933045754
  0
LINE
  8
_0-d_0_1
  6
DOT_18
 62
    7
 10
72.249994227176103
 20
124.75000933045754
 11
72.249994227176103
 21
123.75000933045754
  0
LINE
  8
_0-d_0_1
  6
DOT_18
 62
    7
 10
71.750001856570634
 20
125.25000170106301
 11
70.750001856570634
 21
125.25000170106301
  0
LINE
  8
_0-d_0_1
  6
DOT_18
 62
    7
 10
81.749998518710527
 20
125.75000933045754
 11
81.749998518710527
 21
126.25002458924661
  0
LINE
  8
_0-d_0_1
  6
DOT_18
 62
    7
 10
81.749998518710527
 20
125.75000933045754
 11
81.749998518710527
 21
125.25000170106301
  0
LINE
  8
_0-d_0_1
  6
DOT_18
 62
    7
 10
85.750004002337846
 20
125.75000933045754
 11
85.750004002337846
 21
125.25000170106301
  0
LINE
  8
_0-d_0_1
  6
DOT_18
 62
    7
 10
85.750004002337846
 20
125.75000933045754
 11
85.750004002337846
 21
126.25002458924661
  0
LINE
  8
_0-d_0_1
  6
DOT_18
 62
    7
 10
83.750001379733476
 20
127.75001695985208
 11
84.25001091647664
 21
127.75001695985208
  0
LINE
  8
_0-d_0_1
  6
DOT_18
 62
    7
 10
83.750001379733476
 20
127.75001695985208
 11
83.249991842990312
 21
127.75001695985208
  0
LINE
  8
_0-d_0_1
  6
DOT_18
 62
    7
 10
83.750001379733476
 20
123.75000933045754
 11
83.249991842990312
 21
123.75000933045754
  0
LINE
  8
_0-d_0_1
  6
DOT_18
 62
    7
 10
83.750001379733476
 20
123.75000933045754
 11
84.25001091647664
 21
123.75000933045754
  0
LINE
  8
_0-d_0_1
  6
DOT_18
 62
    7
 10
82.749999949222001
 20
126.25002458924661
 11
81.749998518710527
 21
126.25002458924661
  0
LINE
  8
_0-d_0_1
  6
DOT_18
 62
    7
 10
83.249991842990312
 20
126.75001695985208
 11
83.249991842990312
 21
127.75001695985208
  0
LINE
  8
_0-d_0_1
  6
DOT_18
 62
    7
 10
84.25001091647664
 20
126.75001695985208
 11
84.25001091647664
 21
127.75001695985208
  0
LINE
  8
_0-d_0_1
  6
DOT_18
 62
    7
 10
84.750002810244951
 20
126.25002458924661
 11
85.750004002337846
 21
126.25002458924661
  0
LINE
  8
_0-d_0_1
  6
DOT_18
 62
    7
 10
84.750002810244951
 20
125.25000170106301
 11
85.750004002337846
 21
125.25000170106301
  0
LINE
  8
_0-d_0_1
  6
DOT_18
 62
    7
 10
84.25001091647664
 20
124.75000933045754
 11
84.25001091647664
 21
123.75000933045754
  0
LINE
  8
_0-d_0_1
  6
DOT_18
 62
    7
 10
83.249991842990312
 20
124.75000933045754
 11
83.249991842990312
 21
123.75000933045754
  0
LINE
  8
_0-d_0_1
  6
DOT_18
 62
    7
 10
82.749999949222001
 20
125.25000170106301
 11
81.749998518710527
 21
125.25000170106301
  0
LINE
  8
_0-d_0_1
  6
DOT_18
 62
    7
 10
92.749995896106157
 20
125.75000933045754
 11
92.749995896106157
 21
126.25002458924661
  0
LINE
  8
_0-d_0_1
  6
DOT_18
 62
    7
 10
92.749995896106157
 20
125.75000933045754
 11
92.749995896106157
 21
125.25000170106301
  0
LINE
  8
_0-d_0_1
  6
DOT_18
 62
    7
 10
96.750001379733476
 20
125.75000933045754
 11
96.750001379733476
 21
125.25000170106301
  0
LINE
  8
_0-d_0_1
  6
DOT_18
 62
    7
 10
96.750001379733476
 20
125.75000933045754
 11
96.750001379733476
 21
126.25002458924661
  0
LINE
  8
_0-d_0_1
  6
DOT_18
 62
    7
 10
94.749998518710527
 20
127.75001695985208
 11
95.250008055453691
 21
127.75001695985208
  0
LINE
  8
_0-d_0_1
  6
DOT_18
 62
    7
 10
94.749998518710527
 20
127.75001695985208
 11
94.249988981967363
 21
127.75001695985208
  0
LINE
  8
_0-d_0_1
  6
DOT_18
 62
    7
 10
94.749998518710527
 20
123.75000933045754
 11
94.249988981967363
 21
123.75000933045754
  0
LINE
  8
_0-d_0_1
  6
DOT_18
 62
    7
 10
94.749998518710527
 20
123.75000933045754
 11
95.250008055453691
 21
123.75000933045754
  0
LINE
  8
_0-d_0_1
  6
DOT_18
 62
    7
 10
93.749997088199052
 20
126.25002458924661
 11
92.749995896106157
 21
126.25002458924661
  0
LINE
  8
_0-d_0_1
  6
DOT_18
 62
    7
 10
94.249988981967363
 20
126.75001695985208
 11
94.249988981967363
 21
127.75001695985208
  0
LINE
  8
_0-d_0_1
  6
DOT_18
 62
    7
 10
95.250008055453691
 20
126.75001695985208
 11
95.250008055453691
 21
127.75001695985208
  0
LINE
  8
_0-d_0_1
  6
DOT_18
 62
    7
 10
95.749999949222001
 20
126.25002458924661
 11
96.750001379733476
 21
126.25002458924661
  0
LINE
  8
_0-d_0_1
  6
DOT_18
 62
    7
 10
95.749999949222001
 20
125.25000170106301
 11
96.750001379733476
 21
125.25000170106301
  0
LINE
  8
_0-d_0_1
  6
DOT_18
 62
    7
 10
95.250008055453691
 20
124.75000933045754
 11
95.250008055453691
 21
123.75000933045754
  0
LINE
  8
_0-d_0_1
  6
DOT_18
 62
    7
 10
94.249988981967363
 20
124.75000933045754
 11
94.249988981967363
 21
123.75000933045754
  0
LINE
  8
_0-d_0_1
  6
DOT_18
 62
    7
 10
93.749997088199052
 20
125.25000170106301
 11
92.749995896106157
 21
125.25000170106301
  0
LINE
  8
_0-d_0_1
  6
DOT_18
 62
    7
 10
103.74999327350179
 20
125.75000933045754
 11
103.74999327350179
 21
126.25002458924661
  0
LINE
  8
_0-d_0_1
  6
DOT_18
 62
    7
 10
103.74999327350179
 20
125.75000933045754
 11
103.74999327350179
 21
125.25000170106301
  0
LINE
  8
_0-d_0_1
  6
DOT_18
 62
    7
 10
107.74999804187337
 20
125.75000933045754
 11
107.74999804187337
 21
125.25000170106301
  0
LINE
  8
_0-d_0_1
  6
DOT_18
 62
    7
 10
107.74999804187337
 20
125.75000933045754
 11
107.74999804187337
 21
126.25002458924661
  0
LINE
  8
_0-d_0_1
  6
DOT_18
 62
    7
 10
105.74999613452474
 20
127.75001695985208
 11
106.2500056712679
 21
127.75001695985208
  0
LINE
  8
_0-d_0_1
  6
DOT_18
 62
    7
 10
105.74999613452474
 20
127.75001695985208
 11
105.24998659778157
 21
127.75001695985208
  0
LINE
  8
_0-d_0_1
  6
DOT_18
 62
    7
 10
105.74999613452474
 20
123.75000933045754
 11
105.24998659778157
 21
123.75000933045754
  0
LINE
  8
_0-d_0_1
  6
DOT_18
 62
    7
 10
105.74999613452474
 20
123.75000933045754
 11
106.2500056712679
 21
123.75000933045754
  0
LINE
  8
_0-d_0_1
  6
DOT_18
 62
    7
 10
104.7499942271761
 20
126.25002458924661
 11
103.74999327350179
 21
126.25002458924661
  0
LINE
  8
_0-d_0_1
  6
DOT_18
 62
    7
 10
105.24998659778157
 20
126.75001695985208
 11
105.24998659778157
 21
127.75001695985208
  0
LINE
  8
_0-d_0_1
  6
DOT_18
 62
    7
 10
106.2500056712679
 20
126.75001695985208
 11
106.2500056712679
 21
127.75001695985208
  0
LINE
  8
_0-d_0_1
  6
DOT_18
 62
    7
 10
106.74999804187337
 20
126.25002458924661
 11
107.74999804187337
 21
126.25002458924661
  0
LINE
  8
_0-d_0_1
  6
DOT_18
 62
    7
 10
106.74999804187337
 20
125.25000170106301
 11
107.74999804187337
 21
125.25000170106301
  0
LINE
  8
_0-d_0_1
  6
DOT_18
 62
    7
 10
106.2500056712679
 20
124.75000933045754
 11
106.2500056712679
 21
123.75000933045754
  0
LINE
  8
_0-d_0_1
  6
DOT_18
 62
    7
 10
105.24998659778157
 20
124.75000933045754
 11
105.24998659778157
 21
123.75000933045754
  0
LINE
  8
_0-d_0_1
  6
DOT_18
 62
    7
 10
104.7499942271761
 20
125.25000170106301
 11
103.74999327350179
 21
125.25000170106301
  0
LINE
  8
_0-d_0_1
  6
DOT_18
 62
    7
 10
110.2499942271761
 20
130.75000170106301
 11
110.2499942271761
 21
117.25000933045754
  0
LINE
  8
_0-d_0_1
  6
DOT_18
 62
    7
 10
68.2500056712679
 20
130.75000170106301
 11
68.2500056712679
 21
117.25000933045754
  0
LINE
  8
_0-d_0_1
  6
DOT_18
 62
    7
 10
101.24999899554768
 20
130.75000170106301
 11
101.24999899554768
 21
117.25000933045754
  0
LINE
  8
_0-d_0_1
  6
DOT_18
 62
    7
 10
99.249996134524736
 20
130.75000170106301
 11
99.249996134524736
 21
117.25000933045754
  0
LINE
  8
_0-d_0_1
  6
DOT_18
 62
    7
 10
90.250001260524186
 20
130.75000170106301
 11
90.250001260524186
 21
117.25000933045754
  0
LINE
  8
_0-d_0_1
  6
DOT_18
 62
    7
 10
79.250003763919267
 20
130.75000170106301
 11
79.250003763919267
 21
117.25000933045754
  0
LINE
  8
_0-d_0_1
  6
DOT_18
 62
    7
 10
77.250000902896318
 20
130.75000170106301
 11
77.250000902896318
 21
117.25000933045754
  0
LINE
  8
_0-d_0_1
  6
DOT_18
 62
    7
 10
68.2500056712679
 20
130.75000170106301
 11
77.250000902896318
 21
130.75000170106301
  0
LINE
  8
_0-d_0_1
  6
DOT_18
 62
    7
 10
88.249998637919816
 20
130.75000170106301
 11
88.249998637919816
 21
117.25000933045754
  0
LINE
  8
_0-d_0_1
  6
DOT_18
 62
    7
 10
79.250003763919267
 20
130.75000170106301
 11
88.249998637919816
 21
130.75000170106301
  0
LINE
  8
_0-d_0_1
  6
DOT_18
 62
    7
 10
90.250001260524186
 20
130.75000170106301
 11
99.249996134524736
 21
130.75000170106301
  0
LINE
  8
_0-d_0_1
  6
DOT_18
 62
    7
 10
101.24999899554768
 20
130.75000170106301
 11
110.2499942271761
 21
130.75000170106301
  0
LINE
  8
_0-d_0_1
  6
DOT_18
 62
    7
 10
77.250000902896318
 20
120.25001695985208
 11
68.2500056712679
 21
120.25001695985208
  0
LINE
  8
_0-d_0_1
  6
DOT_18
 62
    7
 10
88.249998637919816
 20
120.25001695985208
 11
79.250003763919267
 21
120.25001695985208
  0
LINE
  8
_0-d_0_1
  6
DOT_18
 62
    7
 10
99.249996134524736
 20
120.25001695985208
 11
90.250001260524186
 21
120.25001695985208
  0
LINE
  8
_0-d_0_1
  6
DOT_18
 62
    7
 10
110.2499942271761
 20
120.25001695985208
 11
101.24999899554768
 21
120.25001695985208
  0
LINE
  8
_0-d_0_1
  6
DOT_18
 62
    7
 10
112.24999613452474
 20
130.75000170106301
 11
112.24999613452474
 21
117.25000933045754
  0
CIRCLE
  8
_0-d_0_1
  6
DOT_18
 62
    7
 10
72.75
 20
125.75001525878906
 40
3
  0
ARC
  8
_0-d_0_1
  6
DOT_18
 62
    7
 10
71.75
 20
126.75001525878905
 40
0.4999999999999856
 50
269.99999999999835
 51
0.0000000000016666
  0
ARC
  8
_0-d_0_1
  6
DOT_18
 62
    7
 10
73.75
 20
126.75001525878905
 40
0.4999999999999856
 50
179.99999999999838
 51
270.00000000000159
  0
ARC
  8
_0-d_0_1
  6
DOT_18
 62
    7
 10
73.75
 20
124.75001525878908
 40
0.4999999999999856
 50
89.99999999999838
 51
180.00000000000162
  0
ARC
  8
_0-d_0_1
  6
DOT_18
 62
    7
 10
71.75
 20
124.75001525878908
 40
0.4999999999999856
 50
359.99999999999835
 51
90.000000000001663
  0
CIRCLE
  8
_0-d_0_1
  6
DOT_18
 62
    7
 10
83.75
 20
125.75001525878906
 40
3
  0
ARC
  8
_0-d_0_1
  6
DOT_18
 62
    7
 10
82.750000000000014
 20
126.75001525878905
 40
0.4999999999999856
 50
269.99999999999835
 51
0.0000000000016666
  0
ARC
  8
_0-d_0_1
  6
DOT_18
 62
    7
 10
84.749999999999986
 20
126.75001525878905
 40
0.4999999999999856
 50
179.99999999999838
 51
270.00000000000159
  0
ARC
  8
_0-d_0_1
  6
DOT_18
 62
    7
 10
84.749999999999986
 20
124.75001525878908
 40
0.4999999999999856
 50
89.99999999999838
 51
180.00000000000162
  0
ARC
  8
_0-d_0_1
  6
DOT_18
 62
    7
 10
82.750000000000014
 20
124.75001525878908
 40
0.4999999999999856
 50
359.99999999999835
 51
90.000000000001663
  0
CIRCLE
  8
_0-d_0_1
  6
DOT_18
 62
    7
 10
94.75
 20
125.75001525878906
 40
3
  0
ARC
  8
_0-d_0_1
  6
DOT_18
 62
    7
 10
93.750000000000014
 20
126.75001525878905
 40
0.4999999999999856
 50
269.99999999999835
 51
0.0000000000016666
  0
ARC
  8
_0-d_0_1
  6
DOT_18
 62
    7
 10
95.749999999999986
 20
126.75001525878905
 40
0.4999999999999856
 50
179.99999999999838
 51
270.00000000000159
  0
ARC
  8
_0-d_0_1
  6
DOT_18
 62
    7
 10
95.749999999999986
 20
124.75001525878908
 40
0.4999999999999856
 50
89.99999999999838
 51
180.00000000000162
  0
ARC
  8
_0-d_0_1
  6
DOT_18
 62
    7
 10
93.750000000000014
 20
124.75001525878908
 40
0.4999999999999856
 50
359.99999999999835
 51
90.000000000001663
  0
CIRCLE
  8
_0-d_0_1
  6
DOT_18
 62
    7
 10
105.75
 20
125.75001525878906
 40
3
  0
ARC
  8
_0-d_0_1
  6
DOT_18
 62
    7
 10
104.75000000000001
 20
126.75001525878905
 40
0.4999999999999856
 50
269.99999999999835
 51
0.0000000000016666
  0
ARC
  8
_0-d_0_1
  6
DOT_18
 62
    7
 10
106.74999999999999
 20
126.75001525878905
 40
0.4999999999999856
 50
179.99999999999838
 51
270.00000000000159
  0
ARC
  8
_0-d_0_1
  6
DOT_18
 62
    7
 10
106.74999999999999
 20
124.75001525878908
 40
0.4999999999999856
 50
89.99999999999838
 51
180.00000000000162
  0
ARC
  8
_0-d_0_1
  6
DOT_18
 62
    7
 10
104.75000000000001
 20
124.75001525878908
 40
0.4999999999999856
 50
359.99999999999835
 51
90.000000000001663
  0
LINE
  8
_0-1_作画層１
  6
CONTINUOUS
 62
    7
 10
89.25
 20
226.44537401199341
 11
89.25
 21
218.38870620727539
  0
LINE
  8
_0-1_作画層１
  6
CONTINUOUS
 62
    7
 10
85.6508629322052
 20
222.25
 11
89.25
 21
222.25
  0
LINE
  8
_0-1_作画層１
  6
CONTINUOUS
 62
    7
 10
89.25
 20
222.25
 11
92.249444246292114
 21
222.25
  0
LINE
  8
_0-d_0_1
  6
CONTINUOUS
 62
    7
 10
107.50757274785396
 20
79.261712772079733
 11
66.007561303762145
 21
79.261712772079733
  0
LINE
  8
_0-d_0_1
  6
CONTINUOUS
 62
    7
 10
42.257567025808044
 20
100.26170705003383
 11
41.257567025808044
 21
79.261712772079733
  0
LINE
  8
_0-d_0_1
  6
CONTINUOUS
 62
    7
 10
38.757570840505309
 20
79.261712772079733
 11
134.75756321111078
 21
79.261712772079733
  0
LINE
  8
_0-d_0_1
  6
CONTINUOUS
 62
    7
 10
38.757570840505309
 20
77.261710149475363
 11
38.757570840505309
 21
79.261712772079733
  0
LINE
  8
_0-d_0_1
  6
CONTINUOUS
 62
    7
 10
41.257567025808044
 20
72.261720878311422
 11
41.257567025808044
 21
32.261701327987936
  0
LINE
  8
_0-d_0_1
  6
CONTINUOUS
 62
    7
 10
38.757570840505309
 20
72.261720878311422
 11
38.757570840505309
 21
79.261712772079733
  0
LINE
  8
_0-d_0_1
  6
CONTINUOUS
 62
    7
 10
38.757570840505309
 20
79.261712772079733
 11
134.75756321111078
 21
79.261712772079733
  0
LINE
  8
_0-1_作画層１
  6
CENTER
 62
    7
 10
89.249999999999986
 20
24.75
 11
89.25
 21
106.86797638436485
  0
TEXT
  8
_0-7_注記層１
 62
    7
 10
107.25756702580806
 20
260.26170132798791
 40
4
 41
1
 50
0
  1
AUTO-RAIN
  0
ARC
  8
_0-d_0_1
  6
CONTINUOUS
 62
    7
 10
48.918593368382915
 20
252.5344226557074
 40
1.9999999999999729
 50
134.06081184084564
 51
223.97084322123854
  0
LINE
  8
_0-d_0_1
  6
CONTINUOUS
 62
    7
 10
47.527750443452362
 20
253.9716268715969
 11
59.02539794531549
 21
265.09838360144295
  0
ARC
  8
_0-d_0_1
  6
CONTINUOUS
 62
    7
 10
60.416240870246071
 20
263.66117938555334
 40
2.0000000000000644
 50
43.97085525630321
 51
134.06081184084368
  0
LINE
  8
_0-d_0_1
  6
CONTINUOUS
 62
    7
 10
47.47920695602869
 20
251.14583821249551
 11
52.760518758963315
 21
245.67130730750668
  0
ARC
  8
_0-d_0_1
  6
CONTINUOUS
 62
    7
 10
53.480211965140427
 20
246.3655995291127
 40
1.0000000000000466
 50
223.97084322124186
 51
314.06081184084468
  0
LINE
  8
_0-d_0_1
  6
CONTINUOUS
 62
    7
 10
61.855626990926027
 20
265.04976413111052
 11
67.134759662795688
 21
259.57749438205121
  0
LINE
  8
_0-d_0_1
  6
CONTINUOUS
 62
    7
 10
54.175633427605732
 20
245.6469974211679
 11
67.110488064920986
 21
258.1645999013279
  0
ARC
  8
_0-d_0_1
  6
CONTINUOUS
 62
    7
 10
66.415066602455653
 20
258.88320200927268
 40
1.0000000000000404
 50
314.06081184084701
 51
43.970855256300375
  0
LINE
  8
_0-d_0_1
  6
CONTINUOUS
 62
    7
 10
59.501758827927546
 20
265.55937804883575
 11
51.634923100276751
 21
262.41264375777547
  0
LINE
  8
_0-d_0_1
  6
CONTINUOUS
 62
    7
 10
47.607307643539599
 20
254.04861771788393
 11
51.092502228010602
 21
261.89030553294367
  0
ARC
  8
_0-d_0_1
  6
CONTINUOUS
 62
    7
 10
52.006313776630662
 20
261.48416706689039
 40
0.9999999999997593
 50
111.80140948634546
 51
156.03751102542645
  0
LINE
  8
_0-d_0_1
  6
CONTINUOUS
 62
    7
 10
81.877695509677324
 20
193.1699636303843
 11
80.15665621448079
 21
186.38134172791848
  0
LINE
  8
_0-d_0_1
  6
CONTINUOUS
 62
    7
 10
79.190730997805986
 20
186.64015749329934
 11
81.094584414248857
 21
193.37979486817727
  0
LINE
  8
_0-d_0_1
  6
CONTINUOUS
 62
    7
 10
83.79539866138019
 20
192.75004938477883
 11
82.522050806765932
 21
185.86339739198098
  0
LINE
  8
_0-d_0_1
  6
CONTINUOUS
 62
    7
 10
81.541261622195634
 20
186.05849626893411
 11
83.000249811892886
 21
192.90821817750344
  0
LINE
  8
_0-d_0_1
  6
CONTINUOUS
 62
    7
 10
85.736469694857973
 20
192.45646646851907
 11
84.916255423312563
 21
185.50128725404153
  0
LINE
  8
_0-d_0_1
  6
CONTINUOUS
 62
    7
 10
83.924810358767886
 20
185.63180712098489
 11
84.932676741366762
 21
192.56228235597024
  0
LINE
  8
_0-d_0_1
  6
CONTINUOUS
 62
    7
 10
87.692579814677615
 20
192.2904584729136
 11
87.329016038661379
 21
185.29652193421731
  0
LINE
  8
_0-d_0_1
  6
CONTINUOUS
 62
    7
 10
86.331158110385317
 20
185.36191728944192
 11
86.883590170627016
 21
192.34348467225442
  0
LINE
  8
_0-d_0_1
  6
CONTINUOUS
 62
    7
 10
89.655365237479586
 20
192.25274256104836
 11
89.75000060487308
 21
185.25000551576028
  0
LINE
  8
_0-d_0_1
  6
CONTINUOUS
 62
    7
 10
88.749999293570895
 20
185.25000551576028
 11
88.844634660964388
 21
192.25274256104836
  0
LINE
  8
_0-d_0_1
  6
CONTINUOUS
 62
    7
 10
91.616409727816958
 20
192.34348467225442
 11
92.168841788058657
 21
185.36192873353372
  0
LINE
  8
_0-d_0_1
  6
CONTINUOUS
 62
    7
 10
91.170983859782595
 20
185.29652193421731
 11
90.80742008376636
 21
192.2904584729136
  0
LINE
  8
_0-d_0_1
  6
CONTINUOUS
 62
    7
 10
93.567323157077212
 20
192.56228235597024
 11
94.575198122744936
 21
185.63180712098489
  0
LINE
  8
_0-d_0_1
  6
CONTINUOUS
 62
    7
 10
93.583753058200259
 20
185.50128725404153
 11
92.763530203586001
 21
192.45646646851907
  0
LINE
  8
_0-d_0_1
  6
CONTINUOUS
 62
    7
 10
95.499750086551089
 20
192.90821817750344
 11
96.958746859317202
 21
186.05849626893411
  0
LINE
  8
_0-d_0_1
  6
CONTINUOUS
 62
    7
 10
95.977940508609194
 20
185.86340502137551
 11
94.704609820132632
 21
192.75004938477883
  0
LINE
  8
_0-d_0_1
  6
CONTINUOUS
 62
    7
 10
97.405424067263979
 20
193.37979486817727
 11
99.309260317569155
 21
186.64015749329934
  0
LINE
  8
_0-d_0_1
  6
CONTINUOUS
 62
    7
 10
98.343343683963198
 20
186.38134172791848
 11
96.622304388766665
 21
193.1699636303843
  0
CIRCLE
  8
_0-d_0_1
  6
CONTINUOUS
 62
    7
 10
89.249999999999986
 20
222.25
 40
37.000003814697266
  0
LINE
  8
_0-d_0_1
  6
CONTINUOUS
 62
    7
 10
128.249999949222
 20
143.75000170106301
 11
133.249999949222
 21
143.75000170106301
  0
LINE
  8
_0-d_0_1
  6
CONTINUOUS
 62
    7
 10
125.249999949222
 20
185.75000170106301
 11
100.749999949222
 21
185.75000170106301
  0
LINE
  8
_0-d_0_1
  6
CONTINUOUS
 62
    7
 10
129.249999949222
 20
148.75000170106301
 11
129.249999949222
 21
181.75000170106301
  0
LINE
  8
_0-d_0_1
  6
CONTINUOUS
 62
    7
 10
101.249999949222
 20
161.75000170106301
 11
122.249999949222
 21
161.75000170106301
  0
LINE
  8
_0-d_0_1
  6
CONTINUOUS
 62
    7
 10
122.249999949222
 20
180.75000170106301
 11
101.249999949222
 21
180.75000170106301
  0
LINE
  8
_0-d_0_1
  6
CONTINUOUS
 62
    7
 10
125.249999949222
 20
164.75000170106301
 11
125.249999949222
 21
177.75000170106301
  0
LINE
  8
_0-d_0_1
  6
CONTINUOUS
 62
    7
 10
100.88353438067952
 20
177.83979967469583
 11
109.71714396167317
 21
177.83979967469583
  0
LINE
  8
_0-d_0_1
  6
CONTINUOUS
 62
    7
 10
108.56229204822102
 20
164.63979509705911
 11
99.728681513553056
 21
164.63979509705911
  0
LINE
  8
_0-d_0_1
  6
CONTINUOUS
 62
    7
 10
101.15097231555501
 20
170.79979875916848
 11
108.21786493945638
 21
170.79979875916848
  0
LINE
  8
_0-d_0_1
  6
CONTINUOUS
 62
    7
 10
101.22796053576985
 20
171.67979982728372
 11
108.29485506701985
 21
171.67979982728372
  0
LINE
  8
_0-d_0_1
  6
CONTINUOUS
 62
    7
 10
101.68990320849935
 20
176.95979860658059
 11
108.75679773974935
 21
176.95979860658059
  0
LINE
  8
_0-d_0_1
  6
CONTINUOUS
 62
    7
 10
100.88353438067952
 20
177.83979967469583
 11
101.68990320849935
 21
176.95979860658059
  0
LINE
  8
_0-d_0_1
  6
CONTINUOUS
 62
    7
 10
108.19355196643392
 20
170.79876116151223
 11
109.18354792285481
 21
171.23876360291848
  0
LINE
  8
_0-d_0_1
  6
CONTINUOUS
 62
    7
 10
101.26355261493245
 20
171.67876222962747
 11
100.27354902911702
 21
170.79876116151223
  0
LINE
  8
_0-d_0_1
  6
CONTINUOUS
 62
    7
 10
107.7535514323763
 20
165.51876238221536
 11
108.52355189013997
 21
164.63876512879739
  0
LINE
  8
_0-d_0_1
  6
CONTINUOUS
 62
    7
 10
99.728681513553056
 20
164.63979509705911
 11
100.26701349902669
 21
170.79294756287942
  0
LINE
  8
_0-d_0_1
  6
CONTINUOUS
 62
    7
 10
109.13996500659505
 20
171.24257830018411
 11
109.71714396167317
 21
177.83979967469583
  0
LINE
  8
_0-d_0_1
  6
CONTINUOUS
 62
    7
 10
107.75592417407552
 20
165.51979616517434
 11
100.68903727222005
 21
165.51979616517434
  0
LINE
  8
_0-d_0_1
  6
CONTINUOUS
 62
    7
 10
107.75592417407552
 20
165.51979616517434
 11
100.68903727222005
 21
165.51979616517434
  0
LINE
  8
_0-d_0_1
  6
CONTINUOUS
 62
    7
 10
100.68903727222005
 20
165.51979616517434
 11
101.15097231555501
 21
170.79979875916848
  0
LINE
  8
_0-d_0_1
  6
CONTINUOUS
 62
    7
 10
108.29485506701985
 20
171.67979982728372
 11
108.75679773974935
 21
176.95979860658059
  0
LINE
  8
_0-d_0_1
  6
CONTINUOUS
 62
    7
 10
114.08353800464192
 20
177.83979967469583
 11
122.91714472461263
 21
177.83979967469583
  0
LINE
  8
_0-d_0_1
  6
CONTINUOUS
 62
    7
 10
121.76229471850911
 20
164.63979509705911
 11
112.92868418384114
 21
164.63979509705911
  0
LINE
  8
_0-d_0_1
  6
CONTINUOUS
 62
    7
 10
114.35097307849446
 20
170.79979875916848
 11
121.41786188769856
 21
170.79979875916848
  0
LINE
  8
_0-d_0_1
  6
CONTINUOUS
 62
    7
 10
114.42796320605794
 20
171.67979982728372
 11
121.49485010791341
 21
171.67979982728372
  0
LINE
  8
_0-d_0_1
  6
CONTINUOUS
 62
    7
 10
114.88990587878743
 20
176.95979860658059
 11
121.9567985026888
 21
176.95979860658059
  0
LINE
  8
_0-d_0_1
  6
CONTINUOUS
 62
    7
 10
114.08353800464192
 20
177.83979967469583
 11
114.88990587878743
 21
176.95979860658059
  0
LINE
  8
_0-d_0_1
  6
CONTINUOUS
 62
    7
 10
121.39354700732747
 20
170.79876116151223
 11
122.38355250049153
 21
171.23876360291848
  0
LINE
  8
_0-d_0_1
  6
CONTINUOUS
 62
    7
 10
114.46355623889485
 20
171.67876222962747
 11
113.47355265307942
 21
170.79876116151223
  0
LINE
  8
_0-d_0_1
  6
CONTINUOUS
 62
    7
 10
120.95355410266438
 20
165.51876238221536
 11
121.72355265307942
 21
164.63876512879739
  0
LINE
  8
_0-d_0_1
  6
CONTINUOUS
 62
    7
 10
112.92868418384114
 20
164.63979509705911
 11
113.46700853992024
 21
170.79294756287942
  0
LINE
  8
_0-d_0_1
  6
CONTINUOUS
 62
    7
 10
122.33995814013997
 20
171.24257830018411
 11
122.91714472461263
 21
177.83979967469583
  0
LINE
  8
_0-d_0_1
  6
CONTINUOUS
 62
    7
 10
120.95592493701497
 20
165.51979616517434
 11
113.8890323131136
 21
165.51979616517434
  0
LINE
  8
_0-d_0_1
  6
CONTINUOUS
 62
    7
 10
120.95592493701497
 20
165.51979616517434
 11
113.8890323131136
 21
165.51979616517434
  0
LINE
  8
_0-d_0_1
  6
CONTINUOUS
 62
    7
 10
113.8890323131136
 20
165.51979616517434
 11
114.35097307849446
 21
170.79979875916848
  0
LINE
  8
_0-d_0_1
  6
CONTINUOUS
 62
    7
 10
121.49485010791341
 20
171.67979982728372
 11
121.9567985026888
 21
176.95979860658059
  0
LINE
  8
_0-d_0_1
  6
CONTINUOUS
 62
    7
 10
98.249999949222001
 20
164.75000170106301
 11
98.249999949222001
 21
177.75000170106301
  0
LINE
  8
_0-d_0_1
  6
CONTINUOUS
 62
    7
 10
91.749999949222001
 20
173.75000170106301
 11
86.749999949222001
 21
173.75000170106301
  0
LINE
  8
_0-d_0_1
  6
CONTINUOUS
 62
    7
 10
84.749999949222001
 20
171.75000170106301
 11
84.749999949222001
 21
166.75000170106301
  0
LINE
  8
_0-d_0_1
  6
CONTINUOUS
 62
    7
 10
91.749999949222001
 20
164.75000170106301
 11
86.749999949222001
 21
164.75000170106301
  0
LINE
  8
_0-d_0_1
  6
CONTINUOUS
 62
    7
 10
93.749999949222001
 20
166.75000170106301
 11
93.749999949222001
 21
171.75000170106301
  0
LINE
  8
_0-d_0_1
  6
CONTINUOUS
 62
    7
 10
92.749999949222001
 20
146.75000170106301
 11
97.749999949222001
 21
146.75000170106301
  0
LINE
  8
_0-d_0_1
  6
CONTINUOUS
 62
    7
 10
90.749999949222001
 20
148.75000170106301
 11
90.749999949222001
 21
153.75000170106301
  0
LINE
  8
_0-d_0_1
  6
CONTINUOUS
 62
    7
 10
110.749999949222
 20
146.75000170106301
 11
101.749999949222
 21
146.75000170106301
  0
LINE
  8
_0-d_0_1
  6
CONTINUOUS
 62
    7
 10
110.749999949222
 20
146.75000170106301
 11
106.249999949222
 21
155.75000170106301
  0
LINE
  8
_0-d_0_1
  6
CONTINUOUS
 62
    7
 10
106.249999949222
 20
155.75000170106301
 11
101.749999949222
 21
146.75000170106301
  0
LINE
  8
_0-d_0_1
  6
CONTINUOUS
 62
    7
 10
121.749999949222
 20
155.75000170106301
 11
112.749999949222
 21
155.75000170106301
  0
LINE
  8
_0-d_0_1
  6
CONTINUOUS
 62
    7
 10
112.749999949222
 20
155.75000170106301
 11
117.249999949222
 21
146.75000170106301
  0
LINE
  8
_0-d_0_1
  6
CONTINUOUS
 62
    7
 10
117.249999949222
 20
146.75000170106301
 11
121.749999949222
 21
155.75000170106301
  0
LINE
  8
_0-d_0_1
  6
CONTINUOUS
 62
    7
 10
97.749999949222001
 20
155.75000170106301
 11
92.749999949222001
 21
155.75000170106301
  0
LINE
  8
_0-d_0_1
  6
CONTINUOUS
 62
    7
 10
99.749999949222001
 20
153.75000170106301
 11
99.749999949222001
 21
148.75000170106301
  0
LINE
  8
_0-d_0_1
  6
CONTINUOUS
 62
    7
 10
93.249999949222001
 20
144.75000170106301
 11
125.249999949222
 21
144.75000170106301
  0
LINE
  8
_0-d_0_1
  6
CONTINUOUS
 62
    7
 10
96.749999949222001
 20
165.75000170106301
 11
96.749999949222001
 21
181.75000170106301
  0
LINE
  8
_0-d_0_1
  6
CONTINUOUS
 62
    7
 10
85.749999949222001
 20
161.75000170106301
 11
92.749999949222001
 21
161.75000170106301
  0
LINE
  8
_0-d_0_1
  6
CONTINUOUS
 62
    7
 10
81.749999949222001
 20
165.75000170106301
 11
81.749999949222001
 21
181.75000170106301
  0
LINE
  8
_0-d_0_1
  6
CONTINUOUS
 62
    7
 10
89.249999949222001
 20
148.75000170106301
 11
89.249999949222001
 21
161.75000170106301
  0
LINE
  8
_0-d_0_1
  6
CONTINUOUS
 62
    7
 10
123.58412165332356
 20
160.37803057069192
 11
123.6219710795931
 21
160.41587999696145
  0
LINE
  8
_0-d_0_1
  6
CONTINUOUS
 62
    7
 10
123.31953043628255
 20
160.25485781068215
 11
123.74514383960286
 21
160.68047121400247
  0
LINE
  8
_0-d_0_1
  6
CONTINUOUS
 62
    7
 10
123.17840189624349
 20
160.25515535706887
 11
123.74484629321614
 21
160.82159975404153
  0
LINE
  8
_0-d_0_1
  6
CONTINUOUS
 62
    7
 10
123.06665796924153
 20
160.28482988709817
 11
123.71517176318685
 21
160.93334368104348
  0
LINE
  8
_0-d_0_1
  6
CONTINUOUS
 62
    7
 10
122.97368998218099
 20
160.33328417176614
 11
123.66671747851888
 21
161.02631166810403
  0
LINE
  8
_0-d_0_1
  6
CONTINUOUS
 62
    7
 10
122.89593882251302
 20
160.39695528382668
 11
123.60304636645833
 21
161.104062827772
  0
LINE
  8
_0-d_0_1
  6
CONTINUOUS
 62
    7
 10
122.83247751880208
 20
160.474912437147
 11
123.52508921313802
 21
161.16752413148293
  0
LINE
  8
_0-d_0_1
  6
CONTINUOUS
 62
    7
 10
122.78425593066731
 20
160.56811312074075
 11
123.43188852954427
 21
161.2157457196177
  0
LINE
  8
_0-d_0_1
  6
CONTINUOUS
 62
    7
 10
122.75489802051106
 20
160.68017748231301
 11
123.319824167972
 21
161.24510362977395
  0
LINE
  8
_0-d_0_1
  6
CONTINUOUS
 62
    7
 10
122.75519556689778
 20
160.82189730042825
 11
123.17810434985677
 21
161.24480608338723
  0
LINE
  8
_0-d_0_1
  6
CONTINUOUS
 62
    7
 10
117.22286028552571
 20
146.80427721375833
 11
117.33141703296224
 21
146.91283586854348
  0
LINE
  8
_0-d_0_1
  6
CONTINUOUS
 62
    7
 10
117.17572016406575
 20
146.89856127137551
 11
117.47283930469075
 21
147.19568041200051
  0
LINE
  8
_0-d_0_1
  6
CONTINUOUS
 62
    7
 10
117.12858004260579
 20
146.9928453289927
 11
117.61425966907063
 21
147.47852495545754
  0
LINE
  8
_0-d_0_1
  6
CONTINUOUS
 62
    7
 10
117.08143992114583
 20
147.08712175721536
 11
117.75568194079915
 21
147.76136186952004
  0
LINE
  8
_0-d_0_1
  6
CONTINUOUS
 62
    7
 10
117.03429979968587
 20
147.18140581483254
 11
117.89710230517903
 21
148.04420641297708
  0
LINE
  8
_0-d_0_1
  6
CONTINUOUS
 62
    7
 10
116.98715777087727
 20
147.2756822430552
 11
118.03852457690755
 21
148.32705095643411
  0
LINE
  8
_0-d_0_1
  6
CONTINUOUS
 62
    7
 10
116.94001764941731
 20
147.36996630067239
 11
118.17994494128743
 21
148.60989549989114
  0
LINE
  8
_0-d_0_1
  6
CONTINUOUS
 62
    7
 10
116.89287752795735
 20
147.46424272889504
 11
118.32136721301595
 21
148.89273241395364
  0
LINE
  8
_0-d_0_1
  6
CONTINUOUS
 62
    7
 10
116.84573740649739
 20
147.55852678651223
 11
118.46278757739583
 21
149.17557695741067
  0
LINE
  8
_0-d_0_1
  6
CONTINUOUS
 62
    7
 10
116.79859728503743
 20
147.65281084412942
 11
118.60420984912435
 21
149.4584215008677
  0
LINE
  8
_0-d_0_1
  6
CONTINUOUS
 62
    7
 10
116.75145716357747
 20
147.74708727235208
 11
118.74563021350423
 21
149.74126604432473
  0
LINE
  8
_0-d_0_1
  6
CONTINUOUS
 62
    7
 10
116.70431513476888
 20
147.84137132996926
 11
118.88705248523274
 21
150.02410295838723
  0
LINE
  8
_0-d_0_1
  6
CONTINUOUS
 62
    7
 10
116.65717501330892
 20
147.93564775819192
 11
119.02847475696126
 21
150.30694750184426
  0
LINE
  8
_0-d_0_1
  6
CONTINUOUS
 62
    7
 10
116.61003489184895
 20
148.02993181580911
 11
119.16989512134114
 21
150.58979204530129
  0
LINE
  8
_0-d_0_1
  6
CONTINUOUS
 62
    7
 10
116.56289477038899
 20
148.12421587342629
 11
119.31131739306966
 21
150.87263658875833
  0
LINE
  8
_0-d_0_1
  6
CONTINUOUS
 62
    7
 10
116.51575464892903
 20
148.21849230164895
 11
119.45273775744954
 21
151.15548113221536
  0
LINE
  8
_0-d_0_1
  6
CONTINUOUS
 62
    7
 10
116.46861262012044
 20
148.31277635926614
 11
119.59416002917806
 21
151.43831804627786
  0
LINE
  8
_0-d_0_1
  6
CONTINUOUS
 62
    7
 10
116.42147249866048
 20
148.40705278748879
 11
119.73558039355794
 21
151.72116258973489
  0
LINE
  8
_0-d_0_1
  6
CONTINUOUS
 62
    7
 10
116.37433237720052
 20
148.50133684510598
 11
119.87700266528645
 21
152.00400713319192
  0
LINE
  8
_0-d_0_1
  6
CONTINUOUS
 62
    7
 10
116.32719225574056
 20
148.59562090272317
 11
120.01842302966634
 21
152.28685167664895
  0
LINE
  8
_0-d_0_1
  6
CONTINUOUS
 62
    7
 10
116.2800521342806
 20
148.68989733094583
 11
120.15984530139485
 21
152.56968859071145
  0
LINE
  8
_0-d_0_1
  6
CONTINUOUS
 62
    7
 10
116.23291201282063
 20
148.78418138856301
 11
120.30126566577474
 21
152.85253313416848
  0
LINE
  8
_0-d_0_1
  6
CONTINUOUS
 62
    7
 10
116.18576998401204
 20
148.87845781678567
 11
120.44268793750325
 21
153.13537767762551
  0
LINE
  8
_0-d_0_1
  6
CONTINUOUS
 62
    7
 10
116.13862986255208
 20
148.97274187440286
 11
120.58410830188313
 21
153.41822222108254
  0
LINE
  8
_0-d_0_1
  6
CONTINUOUS
 62
    7
 10
116.09148974109212
 20
149.06701830262551
 11
120.72553057361165
 21
153.70105913514504
  0
LINE
  8
_0-d_0_1
  6
CONTINUOUS
 62
    7
 10
116.04434961963216
 20
149.1613023602427
 11
120.86695093799153
 21
153.98390367860208
  0
LINE
  8
_0-d_0_1
  6
CONTINUOUS
 62
    7
 10
115.9972094981722
 20
149.25558641785989
 11
121.00837320972005
 21
154.26674822205911
  0
LINE
  8
_0-d_0_1
  6
CONTINUOUS
 62
    7
 10
115.95006937671224
 20
149.34986284608254
 11
121.14979357409993
 21
154.54959276551614
  0
LINE
  8
_0-d_0_1
  6
CONTINUOUS
 62
    7
 10
115.90292734790364
 20
149.44414690369973
 11
121.29121393847981
 21
154.83242967957864
  0
LINE
  8
_0-d_0_1
  6
CONTINUOUS
 62
    7
 10
115.85578722644368
 20
149.53842333192239
 11
121.43263621020833
 21
155.11527422303567
  0
LINE
  8
_0-d_0_1
  6
CONTINUOUS
 62
    7
 10
115.80864710498372
 20
149.63270738953958
 11
121.57405848193685
 21
155.3981187664927
  0
LINE
  8
_0-d_0_1
  6
CONTINUOUS
 62
    7
 10
115.76150698352376
 20
149.72699144715676
 11
121.71548075366536
 21
155.68096330994973
  0
LINE
  8
_0-d_0_1
  6
CONTINUOUS
 62
    7
 10
115.7143668620638
 20
149.82126787537942
 11
121.64310068774739
 21
155.75000170106301
  0
LINE
  8
_0-d_0_1
  6
CONTINUOUS
 62
    7
 10
115.66722674060384
 20
149.91555193299661
 11
121.50167841601888
 21
155.75000170106301
  0
LINE
  8
_0-d_0_1
  6
CONTINUOUS
 62
    7
 10
115.62008471179524
 20
150.00982836121926
 11
121.36025614429036
 21
155.75000170106301
  0
LINE
  8
_0-d_0_1
  6
CONTINUOUS
 62
    7
 10
115.57294459033528
 20
150.10411241883645
 11
121.21883577991048
 21
155.75000170106301
  0
LINE
  8
_0-d_0_1
  6
CONTINUOUS
 62
    7
 10
115.52580446887532
 20
150.19838884705911
 11
121.07741350818196
 21
155.75000170106301
  0
LINE
  8
_0-d_0_1
  6
CONTINUOUS
 62
    7
 10
115.47866434741536
 20
150.29267290467629
 11
120.93599123645345
 21
155.75000170106301
  0
LINE
  8
_0-d_0_1
  6
CONTINUOUS
 62
    7
 10
115.4315242259554
 20
150.38695696229348
 11
120.79457087207356
 21
155.75000170106301
  0
LINE
  8
_0-d_0_1
  6
CONTINUOUS
 62
    7
 10
115.38438219714681
 20
150.48123339051614
 11
120.65314860034505
 21
155.75000170106301
  0
LINE
  8
_0-d_0_1
  6
CONTINUOUS
 62
    7
 10
115.33724207568685
 20
150.57551744813333
 11
120.51172823596517
 21
155.75000170106301
  0
LINE
  8
_0-d_0_1
  6
CONTINUOUS
 62
    7
 10
115.29010195422688
 20
150.66979387635598
 11
120.37030596423665
 21
155.75000170106301
  0
LINE
  8
_0-d_0_1
  6
CONTINUOUS
 62
    7
 10
115.24296183276692
 20
150.76407793397317
 11
120.22888559985677
 21
155.75000170106301
  0
LINE
  8
_0-d_0_1
  6
CONTINUOUS
 62
    7
 10
115.19582171130696
 20
150.85836199159036
 11
120.08746332812825
 21
155.75000170106301
  0
LINE
  8
_0-d_0_1
  6
CONTINUOUS
 62
    7
 10
115.148681589847
 20
150.95263841981301
 11
119.94604296374837
 21
155.75000170106301
  0
LINE
  8
_0-d_0_1
  6
CONTINUOUS
 62
    7
 10
115.10153956103841
 20
151.0469224774302
 11
119.80462069201985
 21
155.75000170106301
  0
LINE
  8
_0-d_0_1
  6
CONTINUOUS
 62
    7
 10
110.66320032763997
 20
146.75000170106301
 11
110.72106737781087
 21
146.80787065858254
  0
LINE
  8
_0-d_0_1
  6
CONTINUOUS
 62
    7
 10
115.05439943957845
 20
151.14119890565286
 11
119.66320032763997
 21
155.75000170106301
  0
LINE
  8
_0-d_0_1
  6
CONTINUOUS
 62
    7
 10
110.52177805591145
 20
146.75000170106301
 11
110.67392534900227
 21
146.9021470868052
  0
LINE
  8
_0-d_0_1
  6
CONTINUOUS
 62
    7
 10
115.00725931811849
 20
151.23548296327004
 11
119.52177805591145
 21
155.75000170106301
  0
LINE
  8
_0-d_0_1
  6
CONTINUOUS
 62
    7
 10
110.38035769153157
 20
146.75000170106301
 11
110.62678522754231
 21
146.99643114442239
  0
LINE
  8
_0-d_0_1
  6
CONTINUOUS
 62
    7
 10
114.96011919665852
 20
151.32976702088723
 11
119.38035769153157
 21
155.75000170106301
  0
LINE
  8
_0-d_0_1
  6
CONTINUOUS
 62
    7
 10
110.23893541980306
 20
146.75000170106301
 11
110.57964510608235
 21
147.09070757264504
  0
LINE
  8
_0-d_0_1
  6
CONTINUOUS
 62
    7
 10
114.91297907519856
 20
151.42404344910989
 11
119.23893541980306
 21
155.75000170106301
  0
LINE
  8
_0-d_0_1
  6
CONTINUOUS
 62
    7
 10
110.09751505542317
 20
146.75000170106301
 11
110.53250498462239
 21
147.18499163026223
  0
LINE
  8
_0-d_0_1
  6
CONTINUOUS
 62
    7
 10
114.8658389537386
 20
151.51832750672708
 11
119.09751505542317
 21
155.75000170106301
  0
LINE
  8
_0-d_0_1
  6
CONTINUOUS
 62
    7
 10
109.95609278369466
 20
146.75000170106301
 11
110.48536486316243
 21
147.27927568787942
  0
LINE
  8
_0-d_0_1
  6
CONTINUOUS
 62
    7
 10
114.81869692493001
 20
151.61260393494973
 11
118.95609278369466
 21
155.75000170106301
  0
LINE
  8
_0-d_0_1
  6
CONTINUOUS
 62
    7
 10
109.81467241931477
 20
146.75000170106301
 11
110.43822474170247
 21
147.37355211610208
  0
LINE
  8
_0-d_0_1
  6
CONTINUOUS
 62
    7
 10
114.77155680347005
 20
151.70688799256692
 11
118.81467241931477
 21
155.75000170106301
  0
LINE
  8
_0-d_0_1
  6
CONTINUOUS
 62
    7
 10
109.67325014758626
 20
146.75000170106301
 11
110.39108271289388
 21
147.46783617371926
  0
LINE
  8
_0-d_0_1
  6
CONTINUOUS
 62
    7
 10
114.72441668201009
 20
151.80116442078958
 11
118.67325014758626
 21
155.75000170106301
  0
LINE
  8
_0-d_0_1
  6
CONTINUOUS
 62
    7
 10
109.53182978320638
 20
146.75000170106301
 11
110.34394259143392
 21
147.56211260194192
  0
LINE
  8
_0-d_0_1
  6
CONTINUOUS
 62
    7
 10
114.67727656055013
 20
151.89544847840676
 11
118.53182978320638
 21
155.75000170106301
  0
LINE
  8
_0-d_0_1
  6
CONTINUOUS
 62
    7
 10
109.39040751147786
 20
146.75000170106301
 11
110.29680246997395
 21
147.65639665955911
  0
LINE
  8
_0-d_0_1
  6
CONTINUOUS
 62
    7
 10
114.63013643909017
 20
151.98973253602395
 11
118.39040751147786
 21
155.75000170106301
  0
LINE
  8
_0-d_0_1
  6
CONTINUOUS
 62
    7
 10
109.24898714709798
 20
146.75000170106301
 11
110.24966234851399
 21
147.75068071717629
  0
LINE
  8
_0-d_0_1
  6
CONTINUOUS
 62
    7
 10
114.5829963176302
 20
152.08400896424661
 11
118.24898714709798
 21
155.75000170106301
  0
LINE
  8
_0-d_0_1
  6
CONTINUOUS
 62
    7
 10
109.10756487536946
 20
146.75000170106301
 11
110.20252222705403
 21
147.84495714539895
  0
LINE
  8
_0-d_0_1
  6
CONTINUOUS
 62
    7
 10
114.53585428882161
 20
152.17829302186379
 11
118.10756487536946
 21
155.75000170106301
  0
LINE
  8
_0-d_0_1
  6
CONTINUOUS
 62
    7
 10
108.96614451098958
 20
146.75000170106301
 11
110.15538210559407
 21
147.93924120301614
  0
LINE
  8
_0-d_0_1
  6
CONTINUOUS
 62
    7
 10
114.48871416736165
 20
152.27256945008645
 11
117.96614451098958
 21
155.75000170106301
  0
LINE
  8
_0-d_0_1
  6
CONTINUOUS
 62
    7
 10
108.82472223926106
 20
146.75000170106301
 11
110.10824007678548
 21
148.03351763123879
  0
LINE
  8
_0-d_0_1
  6
CONTINUOUS
 62
    7
 10
114.44157404590169
 20
152.36685350770364
 11
117.82472223926106
 21
155.75000170106301
  0
LINE
  8
_0-d_0_1
  6
CONTINUOUS
 62
    7
 10
108.68330187488118
 20
146.75000170106301
 11
110.06109995532552
 21
148.12780168885598
  0
LINE
  8
_0-d_0_1
  6
CONTINUOUS
 62
    7
 10
114.39443392444173
 20
152.46113756532083
 11
117.68330187488118
 21
155.75000170106301
  0
LINE
  8
_0-d_0_1
  6
CONTINUOUS
 62
    7
 10
108.54187960315267
 20
146.75000170106301
 11
110.01395983386556
 21
148.22207811707864
  0
LINE
  8
_0-d_0_1
  6
CONTINUOUS
 62
    7
 10
114.34729380298177
 20
152.55541399354348
 11
117.54187960315267
 21
155.75000170106301
  0
LINE
  8
_0-d_0_1
  6
CONTINUOUS
 62
    7
 10
108.40045733142415
 20
146.75000170106301
 11
109.9668197124056
 21
148.31636217469583
  0
LINE
  8
_0-d_0_1
  6
CONTINUOUS
 62
    7
 10
114.30015177417317
 20
152.64969805116067
 11
117.40045733142415
 21
155.75000170106301
  0
LINE
  8
_0-d_0_1
  6
CONTINUOUS
 62
    7
 10
108.25903696704427
 20
146.75000170106301
 11
109.91967959094563
 21
148.41064623231301
  0
LINE
  8
_0-d_0_1
  6
CONTINUOUS
 62
    7
 10
114.25301165271321
 20
152.74397447938333
 11
117.25903696704427
 21
155.75000170106301
  0
LINE
  8
_0-d_0_1
  6
CONTINUOUS
 62
    7
 10
108.11761469531575
 20
146.75000170106301
 11
109.87253756213704
 21
148.50492266053567
  0
LINE
  8
_0-d_0_1
  6
CONTINUOUS
 62
    7
 10
114.20587153125325
 20
152.83825853700051
 11
117.11761469531575
 21
155.75000170106301
  0
LINE
  8
_0-d_0_1
  6
CONTINUOUS
 62
    7
 10
107.97619433093587
 20
146.75000170106301
 11
109.82539744067708
 21
148.59920671815286
  0
LINE
  8
_0-d_0_1
  6
CONTINUOUS
 62
    7
 10
114.15873140979329
 20
152.9325425946177
 11
116.97619433093587
 21
155.75000170106301
  0
LINE
  8
_0-d_0_1
  6
CONTINUOUS
 62
    7
 10
107.83477205920735
 20
146.75000170106301
 11
109.77825731921712
 21
148.69348314637551
  0
LINE
  8
_0-d_0_1
  6
CONTINUOUS
 62
    7
 10
114.11159128833333
 20
153.02681902284036
 11
116.83477205920735
 21
155.75000170106301
  0
LINE
  8
_0-d_0_1
  6
CONTINUOUS
 62
    7
 10
107.69335169482747
 20
146.75000170106301
 11
109.73111719775716
 21
148.7877672039927
  0
LINE
  8
_0-d_0_1
  6
CONTINUOUS
 62
    7
 10
114.06445116687337
 20
153.12110308045754
 11
116.69335169482747
 21
155.75000170106301
  0
LINE
  8
_0-d_0_1
  6
CONTINUOUS
 62
    7
 10
107.55192942309895
 20
146.75000170106301
 11
109.6839770762972
 21
148.88205126160989
  0
LINE
  8
_0-d_0_1
  6
CONTINUOUS
 62
    7
 10
114.01730913806477
 20
153.2153795086802
 11
116.55192942309895
 21
155.75000170106301
  0
LINE
  8
_0-d_0_1
  6
CONTINUOUS
 62
    7
 10
107.41050905871907
 20
146.75000170106301
 11
109.63683695483724
 21
148.97632768983254
  0
LINE
  8
_0-d_0_1
  6
CONTINUOUS
 62
    7
 10
113.97016901660481
 20
153.30966356629739
 11
116.41050905871907
 21
155.75000170106301
  0
LINE
  8
_0-d_0_1
  6
CONTINUOUS
 62
    7
 10
107.26908678699056
 20
146.75000170106301
 11
109.58969492602864
 21
149.07061174744973
  0
LINE
  8
_0-d_0_1
  6
CONTINUOUS
 62
    7
 10
113.92302889514485
 20
153.40393999452004
 11
116.26908678699056
 21
155.75000170106301
  0
LINE
  8
_0-d_0_1
  6
CONTINUOUS
 62
    7
 10
107.12766642261067
 20
146.75000170106301
 11
109.54255480456868
 21
149.16488817567239
  0
LINE
  8
_0-d_0_1
  6
CONTINUOUS
 62
    7
 10
113.87588877368489
 20
153.49822405213723
 11
116.12766642261067
 21
155.75000170106301
  0
LINE
  8
_0-d_0_1
  6
CONTINUOUS
 62
    7
 10
106.98624415088216
 20
146.75000170106301
 11
109.49541468310872
 21
149.25917223328958
  0
LINE
  8
_0-d_0_1
  6
CONTINUOUS
 62
    7
 10
113.82874865222493
 20
153.59250810975442
 11
115.98624415088216
 21
155.75000170106301
  0
LINE
  8
_0-d_0_1
  6
CONTINUOUS
 62
    7
 10
106.84482378650227
 20
146.75000170106301
 11
109.44827456164876
 21
149.35345629090676
  0
LINE
  8
_0-d_0_1
  6
CONTINUOUS
 62
    7
 10
113.78160853076497
 20
153.68678453797708
 11
115.84482378650227
 21
155.75000170106301
  0
LINE
  8
_0-d_0_1
  6
CONTINUOUS
 62
    7
 10
106.70340151477376
 20
146.75000170106301
 11
109.4011344401888
 21
149.44773271912942
  0
LINE
  8
_0-d_0_1
  6
CONTINUOUS
 62
    7
 10
113.73446650195638
 20
153.78106859559426
 11
115.70340151477376
 21
155.75000170106301
  0
LINE
  8
_0-d_0_1
  6
CONTINUOUS
 62
    7
 10
106.56198115039388
 20
146.75000170106301
 11
109.35399431872884
 21
149.54201677674661
  0
LINE
  8
_0-d_0_1
  6
CONTINUOUS
 62
    7
 10
113.68732638049642
 20
153.87534502381692
 11
115.56198115039388
 21
155.75000170106301
  0
LINE
  8
_0-d_0_1
  6
CONTINUOUS
 62
    7
 10
106.42055887866536
 20
146.75000170106301
 11
109.30685228992024
 21
149.63629320496926
  0
LINE
  8
_0-d_0_1
  6
CONTINUOUS
 62
    7
 10
113.64018625903645
 20
153.96962908143411
 11
115.42055887866536
 21
155.75000170106301
  0
LINE
  8
_0-d_0_1
  6
CONTINUOUS
 62
    7
 10
106.27913851428548
 20
146.75000170106301
 11
109.25971216846028
 21
149.73057726258645
  0
LINE
  8
_0-d_0_1
  6
CONTINUOUS
 62
    7
 10
113.59304613757649
 20
154.06391313905129
 11
115.27913851428548
 21
155.75000170106301
  0
LINE
  8
_0-d_0_1
  6
CONTINUOUS
 62
    7
 10
106.13771624255696
 20
146.75000170106301
 11
109.21257204700032
 21
149.82485369080911
  0
LINE
  8
_0-d_0_1
  6
CONTINUOUS
 62
    7
 10
113.54590601611653
 20
154.15818956727395
 11
115.13771624255696
 21
155.75000170106301
  0
LINE
  8
_0-d_0_1
  6
CONTINUOUS
 62
    7
 10
105.99629587817708
 20
146.75000170106301
 11
109.16543192554036
 21
149.91913774842629
  0
LINE
  8
_0-d_0_1
  6
CONTINUOUS
 62
    7
 10
113.49876589465657
 20
154.25247362489114
 11
114.99629587817708
 21
155.75000170106301
  0
LINE
  8
_0-d_0_1
  6
CONTINUOUS
 62
    7
 10
105.85487360644856
 20
146.75000170106301
 11
109.1182918040804
 21
150.01342180604348
  0
LINE
  8
_0-d_0_1
  6
CONTINUOUS
 62
    7
 10
113.45162386584798
 20
154.34675005311379
 11
114.85487360644856
 21
155.75000170106301
  0
LINE
  8
_0-d_0_1
  6
CONTINUOUS
 62
    7
 10
105.71345324206868
 20
146.75000170106301
 11
109.07115168262044
 21
150.10769823426614
  0
LINE
  8
_0-d_0_1
  6
CONTINUOUS
 62
    7
 10
113.40448374438802
 20
154.44103411073098
 11
114.71345324206868
 21
155.75000170106301
  0
LINE
  8
_0-d_0_1
  6
CONTINUOUS
 62
    7
 10
105.57203097034017
 20
146.75000170106301
 11
109.02400965381185
 21
150.20198229188333
  0
LINE
  8
_0-d_0_1
  6
CONTINUOUS
 62
    7
 10
113.35734362292806
 20
154.53531053895364
 11
114.57203097034017
 21
155.75000170106301
  0
LINE
  8
_0-d_0_1
  6
CONTINUOUS
 62
    7
 10
105.43061060596028
 20
146.75000170106301
 11
108.97686953235188
 21
150.29625872010598
  0
LINE
  8
_0-d_0_1
  6
CONTINUOUS
 62
    7
 10
113.3102035014681
 20
154.62959459657083
 11
114.43061060596028
 21
155.75000170106301
  0
LINE
  8
_0-d_0_1
  6
CONTINUOUS
 62
    7
 10
105.28918833423177
 20
146.75000170106301
 11
108.92972941089192
 21
150.39054277772317
  0
LINE
  8
_0-d_0_1
  6
CONTINUOUS
 62
    7
 10
113.26306338000813
 20
154.72387865418801
 11
114.28918833423177
 21
155.75000170106301
  0
LINE
  8
_0-d_0_1
  6
CONTINUOUS
 62
    7
 10
105.14776701617757
 20
146.75000170106301
 11
108.88258928943196
 21
150.48482683534036
  0
LINE
  8
_0-d_0_1
  6
CONTINUOUS
 62
    7
 10
113.21592325854817
 20
154.81815508241067
 11
114.14776796985188
 21
155.75000170106301
  0
LINE
  8
_0-d_0_1
  6
CONTINUOUS
 62
    7
 10
105.00634569812337
 20
146.75000170106301
 11
108.835449167972
 21
150.57910326356301
  0
LINE
  8
_0-d_0_1
  6
CONTINUOUS
 62
    7
 10
113.16878122973958
 20
154.91243914002786
 11
114.00634569812337
 21
155.75000170106301
  0
LINE
  8
_0-d_0_1
  6
CONTINUOUS
 62
    7
 10
104.86492438006917
 20
146.75000170106301
 11
108.78830713916341
 21
150.6733873211802
  0
LINE
  8
_0-d_0_1
  6
CONTINUOUS
 62
    7
 10
113.12164110827962
 20
155.00671556825051
 11
113.86492342639485
 21
155.75000170106301
  0
LINE
  8
_0-d_0_1
  6
CONTINUOUS
 62
    7
 10
104.72350306201497
 20
146.75000170106301
 11
108.74116701770345
 21
150.76766374940286
  0
LINE
  8
_0-d_0_1
  6
CONTINUOUS
 62
    7
 10
113.07450098681966
 20
155.1009996258677
 11
113.72350306201497
 21
155.75000170106301
  0
LINE
  8
_0-d_0_1
  6
CONTINUOUS
 62
    7
 10
104.58208174396077
 20
146.75000170106301
 11
108.69402689624349
 21
150.86194780702004
  0
LINE
  8
_0-d_0_1
  6
CONTINUOUS
 62
    7
 10
113.0273608653597
 20
155.19528368348489
 11
113.58208079028645
 21
155.75000170106301
  0
LINE
  8
_0-d_0_1
  6
CONTINUOUS
 62
    7
 10
104.44066042590657
 20
146.75000170106301
 11
108.64688677478352
 21
150.95623186463723
  0
LINE
  8
_0-d_0_1
  6
CONTINUOUS
 62
    7
 10
112.98022074389974
 20
155.28956011170754
 11
113.44066042590657
 21
155.75000170106301
  0
LINE
  8
_0-d_0_1
  6
CONTINUOUS
 62
    7
 10
104.29923910785237
 20
146.75000170106301
 11
108.59974665332356
 21
151.05050829285989
  0
LINE
  8
_0-d_0_1
  6
CONTINUOUS
 62
    7
 10
112.93307871509114
 20
155.38384416932473
 11
113.29923815417806
 21
155.75000170106301
  0
LINE
  8
_0-d_0_1
  6
CONTINUOUS
 62
    7
 10
104.15781778979817
 20
146.75000170106301
 11
108.5526065318636
 21
151.14479235047708
  0
LINE
  8
_0-d_0_1
  6
CONTINUOUS
 62
    7
 10
112.88593859363118
 20
155.47812059754739
 11
113.15781778979817
 21
155.75000170106301
  0
LINE
  8
_0-d_0_1
  6
CONTINUOUS
 62
    7
 10
104.01639647174397
 20
146.75000170106301
 11
108.50546450305501
 21
151.23906877869973
  0
LINE
  8
_0-d_0_1
  6
CONTINUOUS
 62
    7
 10
112.83879847217122
 20
155.57240465516458
 11
113.01639551806966
 21
155.75000170106301
  0
LINE
  8
_0-d_0_1
  6
CONTINUOUS
 62
    7
 10
103.87497515368977
 20
146.75000170106301
 11
108.45832438159505
 21
151.33335283631692
  0
LINE
  8
_0-d_0_1
  6
CONTINUOUS
 62
    7
 10
112.79165835071126
 20
155.66668871278176
 11
112.87497515368977
 21
155.75000170106301
  0
LINE
  8
_0-d_0_1
  6
CONTINUOUS
 62
    7
 10
103.73355383563558
 20
146.75000170106301
 11
108.41118426013509
 21
151.42762926453958
  0
LINE
  8
_0-d_0_1
  6
CONTINUOUS
 62
    7
 10
103.59213251758138
 20
146.75000170106301
 11
108.36404413867513
 21
151.52191332215676
  0
LINE
  8
_0-d_0_1
  6
CONTINUOUS
 62
    7
 10
103.45071119952718
 20
146.75000170106301
 11
108.31690401721517
 21
151.61619737977395
  0
LINE
  8
_0-d_0_1
  6
CONTINUOUS
 62
    7
 10
103.30928988147298
 20
146.75000170106301
 11
108.2697638957552
 21
151.71047380799661
  0
LINE
  8
_0-d_0_1
  6
CONTINUOUS
 62
    7
 10
103.16786760974446
 20
146.75000170106301
 11
108.22262186694661
 21
151.80475786561379
  0
LINE
  8
_0-d_0_1
  6
CONTINUOUS
 62
    7
 10
103.02644629169026
 20
146.75000170106301
 11
108.17548174548665
 21
151.89903429383645
  0
LINE
  8
_0-d_0_1
  6
CONTINUOUS
 62
    7
 10
102.88502497363606
 20
146.75000170106301
 11
108.12834162402669
 21
151.99331835145364
  0
LINE
  8
_0-d_0_1
  6
CONTINUOUS
 62
    7
 10
102.74360365558186
 20
146.75000170106301
 11
108.08120150256673
 21
152.08760240907083
  0
LINE
  8
_0-d_0_1
  6
CONTINUOUS
 62
    7
 10
102.60218233752767
 20
146.75000170106301
 11
108.03406138110677
 21
152.18187883729348
  0
LINE
  8
_0-d_0_1
  6
CONTINUOUS
 62
    7
 10
102.46076101947347
 20
146.75000170106301
 11
107.98692125964681
 21
152.27616289491067
  0
LINE
  8
_0-d_0_1
  6
CONTINUOUS
 62
    7
 10
102.31933970141927
 20
146.75000170106301
 11
107.93977923083821
 21
152.37043932313333
  0
LINE
  8
_0-d_0_1
  6
CONTINUOUS
 62
    7
 10
102.17791838336507
 20
146.75000170106301
 11
107.89263910937825
 21
152.46472338075051
  0
LINE
  8
_0-d_0_1
  6
CONTINUOUS
 62
    7
 10
102.03649706531087
 20
146.75000170106301
 11
107.84549898791829
 21
152.55899980897317
  0
LINE
  8
_0-d_0_1
  6
CONTINUOUS
 62
    7
 10
101.89507574725667
 20
146.75000170106301
 11
107.79835886645833
 21
152.65328386659036
  0
LINE
  8
_0-d_0_1
  6
CONTINUOUS
 62
    7
 10
101.75365442920247
 20
146.75000170106301
 11
107.75121874499837
 21
152.74756792420754
  0
LINE
  8
_0-d_0_1
  6
CONTINUOUS
 62
    7
 10
101.88776678729573
 20
147.02553728455911
 11
107.70407862353841
 21
152.8418443524302
  0
LINE
  8
_0-d_0_1
  6
CONTINUOUS
 62
    7
 10
102.02918810534993
 20
147.30837419862161
 11
107.65693659472981
 21
152.93612841004739
  0
LINE
  8
_0-d_0_1
  6
CONTINUOUS
 62
    7
 10
102.17060942340413
 20
147.59121874207864
 11
107.60979647326985
 21
153.03040483827004
  0
LINE
  8
_0-d_0_1
  6
CONTINUOUS
 62
    7
 10
102.31203074145833
 20
147.87406328553567
 11
107.56265635180989
 21
153.12468889588723
  0
LINE
  8
_0-d_0_1
  6
CONTINUOUS
 62
    7
 10
102.45345205951253
 20
148.1569078289927
 11
107.51551623034993
 21
153.21897295350442
  0
LINE
  8
_0-d_0_1
  6
CONTINUOUS
 62
    7
 10
102.59487337756673
 20
148.43975237244973
 11
107.46837610888997
 21
153.31324938172708
  0
LINE
  8
_0-d_0_1
  6
CONTINUOUS
 62
    7
 10
102.73629469562093
 20
148.72258928651223
 11
107.42123408008138
 21
153.40753343934426
  0
LINE
  8
_0-d_0_1
  6
CONTINUOUS
 62
    7
 10
102.87771601367513
 20
149.00543382996926
 11
107.37409395862142
 21
153.50180986756692
  0
LINE
  8
_0-d_0_1
  6
CONTINUOUS
 62
    7
 10
103.01913733172933
 20
149.28827837342629
 11
107.32695383716145
 21
153.59609392518411
  0
LINE
  8
_0-d_0_1
  6
CONTINUOUS
 62
    7
 10
103.16055864978352
 20
149.57112291688333
 11
107.27981371570149
 21
153.69037798280129
  0
LINE
  8
_0-d_0_1
  6
CONTINUOUS
 62
    7
 10
103.30197996783772
 20
149.85395983094583
 11
107.23267359424153
 21
153.78465441102395
  0
LINE
  8
_0-d_0_1
  6
CONTINUOUS
 62
    7
 10
103.44340128589192
 20
150.13680437440286
 11
107.18553347278157
 21
153.87893846864114
  0
LINE
  8
_0-d_0_1
  6
CONTINUOUS
 62
    7
 10
103.58482260394612
 20
150.41964891785989
 11
107.13839144397298
 21
153.97321489686379
  0
LINE
  8
_0-d_0_1
  6
CONTINUOUS
 62
    7
 10
103.72624392200032
 20
150.70249346131692
 11
107.09125132251302
 21
154.06749895448098
  0
LINE
  8
_0-d_0_1
  6
CONTINUOUS
 62
    7
 10
103.86766619372884
 20
150.98533037537942
 11
107.04411120105306
 21
154.16177538270364
  0
LINE
  8
_0-d_0_1
  6
CONTINUOUS
 62
    7
 10
104.00908751178304
 20
151.26817491883645
 11
106.9969710795931
 21
154.25605944032083
  0
LINE
  8
_0-d_0_1
  6
CONTINUOUS
 62
    7
 10
104.15050882983724
 20
151.55101946229348
 11
106.94983095813313
 21
154.35034349793801
  0
LINE
  8
_0-d_0_1
  6
CONTINUOUS
 62
    7
 10
104.29193014789143
 20
151.83386400575051
 11
106.90269083667317
 21
154.44461992616067
  0
LINE
  8
_0-d_0_1
  6
CONTINUOUS
 62
    7
 10
104.43335146594563
 20
152.11670091981301
 11
106.85554880786458
 21
154.53890398377786
  0
LINE
  8
_0-d_0_1
  6
CONTINUOUS
 62
    7
 10
104.57477278399983
 20
152.39954546327004
 11
106.80840868640462
 21
154.63318041200051
  0
LINE
  8
_0-d_0_1
  6
CONTINUOUS
 62
    7
 10
104.71619410205403
 20
152.68239000672708
 11
106.76126856494466
 21
154.7274644696177
  0
LINE
  8
_0-d_0_1
  6
CONTINUOUS
 62
    7
 10
104.85761542010823
 20
152.96523455018411
 11
106.7141284434847
 21
154.82174852723489
  0
LINE
  8
_0-d_0_1
  6
CONTINUOUS
 62
    7
 10
98.796771952395829
 20
147.04580858582864
 11
99.454191157107743
 21
147.70323351258645
  0
LINE
  8
_0-d_0_1
  6
CONTINUOUS
 62
    7
 10
104.99903673816243
 20
153.24807146424661
 11
106.66698832202474
 21
154.91602495545754
  0
LINE
  8
_0-d_0_1
  6
CONTINUOUS
 62
    7
 10
98.509268709903154
 20
146.89972856873879
 11
99.60027308154622
 21
147.99073198670754
  0
LINE
  8
_0-d_0_1
  6
CONTINUOUS
 62
    7
 10
105.14045805621663
 20
153.53091600770364
 11
106.61984820056477
 21
155.01030901307473
  0
LINE
  8
_0-d_0_1
  6
CONTINUOUS
 62
    7
 10
98.293339678531083
 20
146.82521990174661
 11
99.674780794864091
 21
148.20665911073098
  0
LINE
  8
_0-d_0_1
  6
CONTINUOUS
 62
    7
 10
105.28187937427083
 20
153.81376055116067
 11
106.57270617175618
 21
155.10458544129739
  0
LINE
  8
_0-d_0_1
  6
CONTINUOUS
 62
    7
 10
98.109224268680009
 20
146.78252580994973
 11
99.717474886660966
 21
148.39077928895364
  0
LINE
  8
_0-d_0_1
  6
CONTINUOUS
 62
    7
 10
105.42329973865071
 20
154.0966050946177
 11
106.52556605029622
 21
155.19886949891458
  0
LINE
  8
_0-d_0_1
  6
CONTINUOUS
 62
    7
 10
97.944786020999345
 20
146.75950792664895
 11
99.740491816287431
 21
148.55521562928567
  0
LINE
  8
_0-d_0_1
  6
CONTINUOUS
 62
    7
 10
105.56472201037923
 20
154.3794420086802
 11
106.47842592883626
 21
155.29314592713723
  0
LINE
  8
_0-d_0_1
  6
CONTINUOUS
 62
    7
 10
97.794348665957841
 20
146.75048998231301
 11
99.749507853274736
 21
148.70565203065286
  0
LINE
  8
_0-d_0_1
  6
CONTINUOUS
 62
    7
 10
105.70614428210774
 20
154.66228655213723
 11
106.4312858073763
 21
155.38742998475442
  0
LINE
  8
_0-d_0_1
  6
CONTINUOUS
 62
    7
 10
97.652435251956376
 20
146.75000170106301
 11
99.749999949222001
 21
148.84756639832864
  0
LINE
  8
_0-d_0_1
  6
CONTINUOUS
 62
    7
 10
105.84756464648763
 20
154.94513109559426
 11
106.38414568591634
 21
155.48171404237161
  0
LINE
  8
_0-d_0_1
  6
CONTINUOUS
 62
    7
 10
97.511013933902177
 20
146.75000170106301
 11
99.749999949222001
 21
148.98898485535989
  0
LINE
  8
_0-d_0_1
  6
CONTINUOUS
 62
    7
 10
105.98898691821614
 20
155.22797563905129
 11
106.33700365710774
 21
155.57599047059426
  0
LINE
  8
_0-d_0_1
  6
CONTINUOUS
 62
    7
 10
97.369592615847978
 20
146.75000170106301
 11
99.749999949222001
 21
149.13041094178567
  0
LINE
  8
_0-d_0_1
  6
CONTINUOUS
 62
    7
 10
106.13040728259602
 20
155.51082018250833
 11
106.28986353564778
 21
155.67027452821145
  0
LINE
  8
_0-d_0_1
  6
CONTINUOUS
 62
    7
 10
97.228171297793779
 20
146.75000170106301
 11
99.749999949222001
 21
149.27182939881692
  0
LINE
  8
_0-d_0_1
  6
CONTINUOUS
 62
    7
 10
97.086749979739579
 20
146.75000170106301
 11
99.749999949222001
 21
149.4132554852427
  0
LINE
  8
_0-d_0_1
  6
CONTINUOUS
 62
    7
 10
96.945328184848222
 20
146.75000170106301
 11
99.749999949222001
 21
149.55467394227395
  0
LINE
  8
_0-d_0_1
  6
CONTINUOUS
 62
    7
 10
96.803906866794023
 20
146.75000170106301
 11
99.749999949222001
 21
149.6960923993052
  0
LINE
  8
_0-d_0_1
  6
CONTINUOUS
 62
    7
 10
96.662485548739824
 20
146.75000170106301
 11
99.749999949222001
 21
149.83751848573098
  0
LINE
  8
_0-d_0_1
  6
CONTINUOUS
 62
    7
 10
96.521064230685624
 20
146.75000170106301
 11
99.749999949222001
 21
149.97893694276223
  0
LINE
  8
_0-d_0_1
  6
CONTINUOUS
 62
    7
 10
96.379642912631425
 20
146.75000170106301
 11
99.749999949222001
 21
150.12035539979348
  0
LINE
  8
_0-d_0_1
  6
CONTINUOUS
 62
    7
 10
96.238221594577226
 20
146.75000170106301
 11
99.749999949222001
 21
150.26178148621926
  0
LINE
  8
_0-d_0_1
  6
CONTINUOUS
 62
    7
 10
96.096800276523027
 20
146.75000170106301
 11
99.749999949222001
 21
150.40319994325051
  0
LINE
  8
_0-d_0_1
  6
CONTINUOUS
 62
    7
 10
95.955378958468827
 20
146.75000170106301
 11
99.749999949222001
 21
150.54462602967629
  0
LINE
  8
_0-d_0_1
  6
CONTINUOUS
 62
    7
 10
95.813957640414628
 20
146.75000170106301
 11
99.749999949222001
 21
150.68604448670754
  0
LINE
  8
_0-d_0_1
  6
CONTINUOUS
 62
    7
 10
95.672536322360429
 20
146.75000170106301
 11
99.749999949222001
 21
150.82746294373879
  0
LINE
  8
_0-d_0_1
  6
CONTINUOUS
 62
    7
 10
95.53111500430623
 20
146.75000170106301
 11
99.749999949222001
 21
150.96888903016458
  0
LINE
  8
_0-d_0_1
  6
CONTINUOUS
 62
    7
 10
95.389693686252031
 20
146.75000170106301
 11
99.749999949222001
 21
151.11030748719583
  0
LINE
  8
_0-d_0_1
  6
CONTINUOUS
 62
    7
 10
95.248271891360673
 20
146.75000170106301
 11
99.749999949222001
 21
151.25172594422708
  0
LINE
  8
_0-d_0_1
  6
CONTINUOUS
 62
    7
 10
95.106850573306474
 20
146.75000170106301
 11
99.749999949222001
 21
151.39315203065286
  0
LINE
  8
_0-d_0_1
  6
CONTINUOUS
 62
    7
 10
94.965429255252275
 20
146.75000170106301
 11
99.749999949222001
 21
151.53457048768411
  0
LINE
  8
_0-d_0_1
  6
CONTINUOUS
 62
    7
 10
94.824007937198076
 20
146.75000170106301
 11
99.749999949222001
 21
151.67599657410989
  0
LINE
  8
_0-d_0_1
  6
CONTINUOUS
 62
    7
 10
94.682586619143876
 20
146.75000170106301
 11
99.749999949222001
 21
151.81741503114114
  0
LINE
  8
_0-d_0_1
  6
CONTINUOUS
 62
    7
 10
94.541165301089677
 20
146.75000170106301
 11
99.749999949222001
 21
151.95883348817239
  0
LINE
  8
_0-d_0_1
  6
CONTINUOUS
 62
    7
 10
94.399743983035478
 20
146.75000170106301
 11
99.749999949222001
 21
152.10025957459817
  0
LINE
  8
_0-d_0_1
  6
CONTINUOUS
 62
    7
 10
94.258322664981279
 20
146.75000170106301
 11
99.749999949222001
 21
152.24167803162942
  0
LINE
  8
_0-d_0_1
  6
CONTINUOUS
 62
    7
 10
94.116901346927079
 20
146.75000170106301
 11
99.749999949222001
 21
152.3831041180552
  0
LINE
  8
_0-d_0_1
  6
CONTINUOUS
 62
    7
 10
93.97548002887288
 20
146.75000170106301
 11
99.749999949222001
 21
152.52452257508645
  0
LINE
  8
_0-d_0_1
  6
CONTINUOUS
 62
    7
 10
93.834058710818681
 20
146.75000170106301
 11
99.749999949222001
 21
152.6659410321177
  0
LINE
  8
_0-d_0_1
  6
CONTINUOUS
 62
    7
 10
93.692637392764482
 20
146.75000170106301
 11
99.749999949222001
 21
152.80736711854348
  0
LINE
  8
_0-d_0_1
  6
CONTINUOUS
 62
    7
 10
93.551216074710283
 20
146.75000170106301
 11
99.749999949222001
 21
152.94878557557473
  0
LINE
  8
_0-d_0_1
  6
CONTINUOUS
 62
    7
 10
93.409794279818925
 20
146.75000170106301
 11
99.749999949222001
 21
153.09020403260598
  0
LINE
  8
_0-d_0_1
  6
CONTINUOUS
 62
    7
 10
93.268372961764726
 20
146.75000170106301
 11
99.749999949222001
 21
153.23163011903176
  0
LINE
  8
_0-d_0_1
  6
CONTINUOUS
 62
    7
 10
93.126951882129106
 20
146.75000170106301
 11
99.749999949222001
 21
153.37304857606301
  0
LINE
  8
_0-d_0_1
  6
CONTINUOUS
 62
    7
 10
92.985530325656327
 20
146.75000170106301
 11
99.749999949222001
 21
153.51447466248879
  0
LINE
  8
_0-d_0_1
  6
CONTINUOUS
 62
    7
 10
92.844109007602128
 20
146.75000170106301
 11
99.749999949222001
 21
153.65589311952004
  0
LINE
  8
_0-d_0_1
  6
CONTINUOUS
 62
    7
 10
92.703234621768388
 20
146.75055101746926
 11
99.749453493838701
 21
153.79676988953958
  0
LINE
  8
_0-d_0_1
  6
CONTINUOUS
 62
    7
 10
92.569434115176591
 20
146.75817278260598
 11
99.741832682376298
 21
153.93056658143411
  0
LINE
  8
_0-d_0_1
  6
CONTINUOUS
 62
    7
 10
92.443474003558549
 20
146.77362993592629
 11
99.726370760684404
 21
154.05652788514504
  0
LINE
  8
_0-d_0_1
  6
CONTINUOUS
 62
    7
 10
92.324262091403398
 20
146.79583910340676
 11
99.704161593203935
 21
154.17573717469583
  0
LINE
  8
_0-d_0_1
  6
CONTINUOUS
 62
    7
 10
92.211001106982621
 20
146.82399919862161
 11
99.676001497989091
 21
154.28900316590676
  0
LINE
  8
_0-d_0_1
  6
CONTINUOUS
 62
    7
 10
92.103092858081254
 20
146.85751512879739
 11
99.642488428836259
 21
154.39690569276223
  0
LINE
  8
_0-d_0_1
  6
CONTINUOUS
 62
    7
 10
92.000078150515947
 20
146.8959215008677
 11
99.60408110309163
 21
154.4999254071177
  0
LINE
  8
_0-d_0_1
  6
CONTINUOUS
 62
    7
 10
91.901600786929521
 20
146.93886736268411
 11
99.561137148623857
 21
154.59839800233254
  0
LINE
  8
_0-d_0_1
  6
CONTINUOUS
 62
    7
 10
91.807381102328691
 20
146.98606279725442
 11
99.513935992007646
 21
154.69262102479348
  0
LINE
  8
_0-d_0_1
  6
CONTINUOUS
 62
    7
 10
91.717200228457841
 20
147.03730944032083
 11
99.462695070987138
 21
154.78280046815286
  0
LINE
  8
_0-d_0_1
  6
CONTINUOUS
 62
    7
 10
91.630888649707231
 20
147.09241655702004
 11
99.40758509326497
 21
154.86911180848489
  0
LINE
  8
_0-d_0_1
  6
CONTINUOUS
 62
    7
 10
91.548316666369828
 20
147.15126207703958
 11
99.348735758548173
 21
154.95168474549661
  0
LINE
  8
_0-d_0_1
  6
CONTINUOUS
 62
    7
 10
91.46938986468831
 20
147.21376207703958
 11
99.286241480594072
 21
155.03061083192239
  0
LINE
  8
_0-d_0_1
  6
CONTINUOUS
 62
    7
 10
91.394044825320634
 20
147.27984026307473
 11
99.220165201907548
 21
155.10595873231301
  0
LINE
  8
_0-d_0_1
  6
CONTINUOUS
 62
    7
 10
91.322246262317094
 20
147.34945848817239
 11
99.15054220843831
 21
155.17775896424661
  0
LINE
  8
_0-d_0_1
  6
CONTINUOUS
 62
    7
 10
91.253985831027421
 20
147.42261675233254
 11
99.077381083255204
 21
155.2460191571177
  0
LINE
  8
_0-d_0_1
  6
CONTINUOUS
 62
    7
 10
91.189282128100785
 20
147.49933794373879
 11
99.00066370654622
 21
155.3107164227427
  0
LINE
  8
_0-d_0_1
  6
CONTINUOUS
 62
    7
 10
91.128181168322953
 20
147.57966020936379
 11
98.920343348269853
 21
155.37182024354348
  0
LINE
  8
_0-d_0_1
  6
CONTINUOUS
 62
    7
 10
91.070757934337053
 20
147.66365984315286
 11
98.836345621829423
 21
155.4292466961802
  0
LINE
  8
_0-d_0_1
  6
CONTINUOUS
 62
    7
 10
91.017119833712968
 20
147.75143602723489
 11
98.748561808352861
 21
155.48288133973489
  0
LINE
  8
_0-d_0_1
  6
CONTINUOUS
 62
    7
 10
90.967410871272477
 20
147.84314897889504
 11
98.656849810367021
 21
155.53259447450051
  0
LINE
  8
_0-d_0_1
  6
CONTINUOUS
 62
    7
 10
90.921818920855912
 20
147.93898180360208
 11
98.561019846682939
 21
155.57818010682473
  0
LINE
  8
_0-d_0_1
  6
CONTINUOUS
 62
    7
 10
90.880584189181718
 20
148.03917101258645
 11
98.460833498721513
 21
155.61941698426614
  0
LINE
  8
_0-d_0_1
  6
CONTINUOUS
 62
    7
 10
90.844013401751909
 20
148.14402178162942
 11
98.355982729678544
 21
155.65598467225442
  0
LINE
  8
_0-d_0_1
  6
CONTINUOUS
 62
    7
 10
90.812499353175554
 20
148.25392320985208
 11
98.24607557940999
 21
155.68750170106301
  0
LINE
  8
_0-d_0_1
  6
CONTINUOUS
 62
    7
 10
90.786548921351823
 20
148.36939409608254
 11
98.130604693179521
 21
155.71344927186379
  0
LINE
  8
_0-d_0_1
  6
CONTINUOUS
 62
    7
 10
90.766828605418596
 20
148.49109819764504
 11
98.00890345263997
 21
155.73317125672708
  0
LINE
  8
_0-d_0_1
  6
CONTINUOUS
 62
    7
 10
90.754234382396135
 20
148.61992815369973
 11
97.880076357608232
 21
155.74576738709817
  0
LINE
  8
_0-d_0_1
  6
CONTINUOUS
 62
    7
 10
90.749999949222001
 20
148.75711229676614
 11
97.742889353518876
 21
155.75000170106301
  0
LINE
  8
_0-d_0_1
  6
CONTINUOUS
 62
    7
 10
90.749999949222001
 20
148.89853075379739
 11
97.601468035464677
 21
155.75000170106301
  0
LINE
  8
_0-d_0_1
  6
CONTINUOUS
 62
    7
 10
90.749999949222001
 20
149.03995684022317
 11
97.460046717410478
 21
155.75000170106301
  0
LINE
  8
_0-d_0_1
  6
CONTINUOUS
 62
    7
 10
90.749999949222001
 20
149.18137529725442
 11
97.318625399356279
 21
155.75000170106301
  0
LINE
  8
_0-d_0_1
  6
CONTINUOUS
 62
    7
 10
90.749999949222001
 20
149.32279375428567
 11
97.177204081302079
 21
155.75000170106301
  0
LINE
  8
_0-d_0_1
  6
CONTINUOUS
 62
    7
 10
90.749999949222001
 20
149.46421984071145
 11
97.03578276324788
 21
155.75000170106301
  0
LINE
  8
_0-d_0_1
  6
CONTINUOUS
 62
    7
 10
90.749999949222001
 20
149.6056382977427
 11
96.894361445193681
 21
155.75000170106301
  0
LINE
  8
_0-d_0_1
  6
CONTINUOUS
 62
    7
 10
90.749999949222001
 20
149.74706438416848
 11
96.752940127139482
 21
155.75000170106301
  0
LINE
  8
_0-d_0_1
  6
CONTINUOUS
 62
    7
 10
90.749999949222001
 20
149.88848284119973
 11
96.611518809085283
 21
155.75000170106301
  0
LINE
  8
_0-d_0_1
  6
CONTINUOUS
 62
    7
 10
90.749999949222001
 20
150.02990129823098
 11
96.470097491031083
 21
155.75000170106301
  0
LINE
  8
_0-d_0_1
  6
CONTINUOUS
 62
    7
 10
90.749999949222001
 20
150.17132738465676
 11
96.328676172976884
 21
155.75000170106301
  0
LINE
  8
_0-d_0_1
  6
CONTINUOUS
 62
    7
 10
90.749999949222001
 20
150.31274584168801
 11
96.187254854922685
 21
155.75000170106301
  0
LINE
  8
_0-d_0_1
  6
CONTINUOUS
 62
    7
 10
90.749999949222001
 20
150.45417192811379
 11
96.045833536868486
 21
155.75000170106301
  0
LINE
  8
_0-d_0_1
  6
CONTINUOUS
 62
    7
 10
90.749999949222001
 20
150.59559038514504
 11
95.904412218814286
 21
155.75000170106301
  0
LINE
  8
_0-d_0_1
  6
CONTINUOUS
 62
    7
 10
90.749999949222001
 20
150.73700884217629
 11
95.762990900760087
 21
155.75000170106301
  0
LINE
  8
_0-d_0_1
  6
CONTINUOUS
 62
    7
 10
90.749999949222001
 20
150.87843492860208
 11
95.621569582705888
 21
155.75000170106301
  0
LINE
  8
_0-d_0_1
  6
CONTINUOUS
 62
    7
 10
90.749999949222001
 20
151.01985338563333
 11
95.480148264651689
 21
155.75000170106301
  0
LINE
  8
_0-d_0_1
  6
CONTINUOUS
 62
    7
 10
90.749999949222001
 20
151.16127184266458
 11
95.338726469760331
 21
155.75000170106301
  0
LINE
  8
_0-d_0_1
  6
CONTINUOUS
 62
    7
 10
90.749999949222001
 20
151.30269792909036
 11
95.197305151706132
 21
155.75000170106301
  0
LINE
  8
_0-d_0_1
  6
CONTINUOUS
 62
    7
 10
90.749999949222001
 20
151.44411638612161
 11
95.055883833651933
 21
155.75000170106301
  0
LINE
  8
_0-d_0_1
  6
CONTINUOUS
 62
    7
 10
90.749999949222001
 20
151.58554247254739
 11
94.914462515597734
 21
155.75000170106301
  0
LINE
  8
_0-d_0_1
  6
CONTINUOUS
 62
    7
 10
90.749999949222001
 20
151.72696092957864
 11
94.773041197543535
 21
155.75000170106301
  0
LINE
  8
_0-d_0_1
  6
CONTINUOUS
 62
    7
 10
90.749999949222001
 20
151.86837938660989
 11
94.631619879489335
 21
155.75000170106301
  0
LINE
  8
_0-d_0_1
  6
CONTINUOUS
 62
    7
 10
90.749999949222001
 20
152.00980547303567
 11
94.490198561435136
 21
155.75000170106301
  0
LINE
  8
_0-d_0_1
  6
CONTINUOUS
 62
    7
 10
90.749999949222001
 20
152.15122393006692
 11
94.348777243380937
 21
155.75000170106301
  0
LINE
  8
_0-d_0_1
  6
CONTINUOUS
 62
    7
 10
90.749999949222001
 20
152.29264238709817
 11
94.207355925326738
 21
155.75000170106301
  0
LINE
  8
_0-d_0_1
  6
CONTINUOUS
 62
    7
 10
90.749999949222001
 20
152.43406847352395
 11
94.065934607272538
 21
155.75000170106301
  0
LINE
  8
_0-d_0_1
  6
CONTINUOUS
 62
    7
 10
90.749999949222001
 20
152.5754869305552
 11
93.924513289218339
 21
155.75000170106301
  0
LINE
  8
_0-d_0_1
  6
CONTINUOUS
 62
    7
 10
90.749999949222001
 20
152.71691301698098
 11
93.78309197116414
 21
155.75000170106301
  0
LINE
  8
_0-d_0_1
  6
CONTINUOUS
 62
    7
 10
90.749999949222001
 20
152.85833147401223
 11
93.641670176272783
 21
155.75000170106301
  0
LINE
  8
_0-d_0_1
  6
CONTINUOUS
 62
    7
 10
90.749999949222001
 20
152.99974993104348
 11
93.500248858218583
 21
155.75000170106301
  0
LINE
  8
_0-d_0_1
  6
CONTINUOUS
 62
    7
 10
90.749999949222001
 20
153.14117601746926
 11
93.358827540164384
 21
155.75000170106301
  0
LINE
  8
_0-d_0_1
  6
CONTINUOUS
 62
    7
 10
90.749999949222001
 20
153.28259447450051
 11
93.217406222110185
 21
155.75000170106301
  0
LINE
  8
_0-d_0_1
  6
CONTINUOUS
 62
    7
 10
90.749999949222001
 20
153.42401293153176
 11
93.075984904055986
 21
155.75000170106301
  0
LINE
  8
_0-d_0_1
  6
CONTINUOUS
 62
    7
 10
90.749999949222001
 20
153.56543901795754
 11
92.934563586001786
 21
155.75000170106301
  0
LINE
  8
_0-d_0_1
  6
CONTINUOUS
 62
    7
 10
90.749999949222001
 20
153.70685747498879
 11
92.793142267947587
 21
155.75000170106301
  0
LINE
  8
_0-d_0_1
  6
CONTINUOUS
 62
    7
 10
90.752542802577409
 20
153.85082414979348
 11
92.649177977328691
 21
155.74746111268411
  0
LINE
  8
_0-d_0_1
  6
CONTINUOUS
 62
    7
 10
90.766474196200761
 20
154.00617388123879
 11
92.493825384860429
 21
155.73352983827004
  0
LINE
  8
_0-d_0_1
  6
CONTINUOUS
 62
    7
 10
90.796179720645341
 20
154.17730120057473
 11
92.322698303943071
 21
155.70382097596536
  0
LINE
  8
_0-d_0_1
  6
CONTINUOUS
 62
    7
 10
90.849045583491716
 20
154.37159136170754
 11
92.128411242251786
 21
155.65095690125833
  0
LINE
  8
_0-d_0_1
  6
CONTINUOUS
 62
    7
 10
90.942808934932145
 20
154.60677507752786
 11
91.893226334338578
 21
155.55719164246926
  0
LINE
  8
_0-d_0_1
  6
CONTINUOUS
 62
    7
 10
91.167160937076005
 20
154.97255113953958
 11
91.527453133349809
 21
155.33284166688333
  0
ARC
  8
_0-d_0_1
  6
CONTINUOUS
 62
    7
 10
128.25
 20
139.75
 40
4
 50
90.000000000000199
 51
180
  0
ARC
  8
_0-d_0_1
  6
CONTINUOUS
 62
    7
 10
100.74999999999997
 20
181.75000000000003
 40
3.9999999999999716
 50
89.999999999999588
 51
180.0000000000004
  0
ARC
  8
_0-d_0_1
  6
CONTINUOUS
 62
    7
 10
125.25000000000003
 20
181.75000000000003
 40
3.9999999999999716
 50
359.9999999999996
 51
90.000000000000398
  0
ARC
  8
_0-d_0_1
  6
CONTINUOUS
 62
    7
 10
125.24999999999999
 20
148.75
 40
4
 50
270.00000000000023
 51
0.0000000000000254
  0
ARC
  8
_0-d_0_1
  6
CONTINUOUS
 62
    7
 10
85.749999999999957
 20
181.75000000000006
 40
3.9999999999999503
 50
107.99552917480425
 51
180.00000000000082
  0
ARC
  8
_0-d_0_1
  6
CONTINUOUS
 62
    7
 10
92.749999999999915
 20
181.74999999999997
 40
4.0000000000000853
 50
0.0000000000004071
 51
72.004455566405468
  0
ARC
  8
_0-d_0_1
  6
CONTINUOUS
 62
    7
 10
101.24999999999999
 20
177.75
 40
3
 50
89.99999999999973
 51
180
  0
ARC
  8
_0-d_0_1
  6
CONTINUOUS
 62
    7
 10
122.25000000000001
 20
177.75
 40
2.9999999999999858
 50
0
 51
90.000000000000284
  0
ARC
  8
_0-d_0_1
  6
CONTINUOUS
 62
    7
 10
122.25000000000001
 20
164.75
 40
3
 50
269.99999999999977
 51
359.99999999999994
  0
ARC
  8
_0-d_0_1
  6
CONTINUOUS
 62
    7
 10
101.24999999999999
 20
164.75
 40
2.9999999999999858
 50
180
 51
270.00000000000023
  0
ARC
  8
_0-d_0_1
  6
CONTINUOUS
 62
    7
 10
86.749999999999957
 20
166.74999999999997
 40
1.9999999999999574
 50
179.99999999999918
 51
270.00000000000119
  0
ARC
  8
_0-d_0_1
  6
CONTINUOUS
 62
    7
 10
86.749999999999957
 20
171.75000000000003
 40
1.9999999999999716
 50
89.999999999998778
 51
180.00000000000082
  0
ARC
  8
_0-d_0_1
  6
CONTINUOUS
 62
    7
 10
91.750000000000043
 20
171.75000000000003
 40
1.9999999999999574
 50
359.9999999999992
 51
90.00000000000118
  0
ARC
  8
_0-d_0_1
  6
CONTINUOUS
 62
    7
 10
91.750000000000043
 20
166.74999999999997
 40
1.9999999999999716
 50
269.99999999999875
 51
0.0000000000008142
  0
ARC
  8
_0-d_0_1
  6
CONTINUOUS
 62
    7
 10
92.749999999999957
 20
153.75000000000003
 40
1.9999999999999716
 50
89.999999999998778
 51
180.00000000000082
  0
ARC
  8
_0-d_0_1
  6
CONTINUOUS
 62
    7
 10
97.750000000000043
 20
148.74999999999997
 40
1.9999999999999716
 50
269.99999999999875
 51
0.0000000000008142
  0
ARC
  8
_0-d_0_1
  6
CONTINUOUS
 62
    7
 10
92.749999999999957
 20
148.74999999999997
 40
1.9999999999999574
 50
179.99999999999918
 51
270.00000000000119
  0
ARC
  8
_0-d_0_1
  6
CONTINUOUS
 62
    7
 10
97.750000000000043
 20
153.75000000000003
 40
1.9999999999999574
 50
359.9999999999992
 51
90.00000000000118
  0
ARC
  8
_0-d_0_1
  6
CONTINUOUS
 62
    7
 10
93.250000000000014
 20
148.75
 40
4.0000000000000142
 50
180
 51
269.99999999999983
  0
ARC
  8
_0-d_0_1
  6
CONTINUOUS
 62
    7
 10
92.750000000000028
 20
165.74999999999997
 40
3.9999999999999716
 50
269.9999999999996
 51
0.0000000000003943
  0
ARC
  8
_0-d_0_1
  6
CONTINUOUS
 62
    7
 10
85.749999999999972
 20
165.74999999999997
 40
3.9999999999999716
 50
179.9999999999996
 51
270.0000000000004
  0
CIRCLE
  8
_0-d_0_1
  6
CONTINUOUS
 62
    7
 10
123.25
 20
160.75
 40
0.5
  0
TEXT
  8
_0-d_0_1
 62
    7
 10
85.257651498928055
 20
177.79284378358895
 40
4
 41
1
 50
0
  1
起動
  0
TEXT
  8
_0-d_0_1
 62
    7
 10
123.87753554792022
 20
156.1754043313602
 40
4
 41
1
 50
0
  1
秒
  0
LINE
  8
_0-1_作画層１
  6
CENTER
 62
    7
 10
89.25
 20
276.75
 11
89.249999999999986
 21
112.26170132798795
  0
LINE
  8
_0-d_0_1
  6
CONTINUOUS
 62
    7
 10
92.509268709903154
 20
164.89972856873879
 11
93.60027308154622
 21
165.99073198670754
  0
LINE
  8
_0-d_0_1
  6
CONTINUOUS
 62
    7
 10
92.293339678531083
 20
164.82521990174661
 11
93.674780794864091
 21
166.20665911073098
  0
LINE
  8
_0-d_0_1
  6
CONTINUOUS
 62
    7
 10
92.109224268680009
 20
164.78252580994973
 11
93.717474886660966
 21
166.39077928895364
  0
LINE
  8
_0-d_0_1
  6
CONTINUOUS
 62
    7
 10
91.944786020999345
 20
164.75950792664895
 11
93.740491816287431
 21
166.55521562928567
  0
LINE
  8
_0-d_0_1
  6
CONTINUOUS
 62
    7
 10
91.794348665957841
 20
164.75048998231301
 11
93.749507853274736
 21
166.70565203065286
  0
LINE
  8
_0-d_0_1
  6
CONTINUOUS
 62
    7
 10
91.652435251956376
 20
164.75000170106301
 11
93.749999949222001
 21
166.84756639832864
  0
LINE
  8
_0-d_0_1
  6
CONTINUOUS
 62
    7
 10
91.511013933902177
 20
164.75000170106301
 11
93.749999949222001
 21
166.98898485535989
  0
LINE
  8
_0-d_0_1
  6
CONTINUOUS
 62
    7
 10
91.369592615847978
 20
164.75000170106301
 11
93.749999949222001
 21
167.13041094178567
  0
LINE
  8
_0-d_0_1
  6
CONTINUOUS
 62
    7
 10
91.228171297793779
 20
164.75000170106301
 11
93.749999949222001
 21
167.27182939881692
  0
LINE
  8
_0-d_0_1
  6
CONTINUOUS
 62
    7
 10
91.086749979739579
 20
164.75000170106301
 11
93.749999949222001
 21
167.4132554852427
  0
LINE
  8
_0-d_0_1
  6
CONTINUOUS
 62
    7
 10
90.945328184848222
 20
164.75000170106301
 11
93.749999949222001
 21
167.55467394227395
  0
LINE
  8
_0-d_0_1
  6
CONTINUOUS
 62
    7
 10
90.803906866794023
 20
164.75000170106301
 11
93.749999949222001
 21
167.6960923993052
  0
LINE
  8
_0-d_0_1
  6
CONTINUOUS
 62
    7
 10
90.662485548739824
 20
164.75000170106301
 11
93.749999949222001
 21
167.83751848573098
  0
LINE
  8
_0-d_0_1
  6
CONTINUOUS
 62
    7
 10
90.521064230685624
 20
164.75000170106301
 11
93.749999949222001
 21
167.97893694276223
  0
LINE
  8
_0-d_0_1
  6
CONTINUOUS
 62
    7
 10
90.379642912631425
 20
164.75000170106301
 11
93.749999949222001
 21
168.12035539979348
  0
LINE
  8
_0-d_0_1
  6
CONTINUOUS
 62
    7
 10
90.238221594577226
 20
164.75000170106301
 11
93.749999949222001
 21
168.26178148621926
  0
LINE
  8
_0-d_0_1
  6
CONTINUOUS
 62
    7
 10
90.096800276523027
 20
164.75000170106301
 11
93.749999949222001
 21
168.40319994325051
  0
LINE
  8
_0-d_0_1
  6
CONTINUOUS
 62
    7
 10
89.955378958468827
 20
164.75000170106301
 11
93.749999949222001
 21
168.54462602967629
  0
LINE
  8
_0-d_0_1
  6
CONTINUOUS
 62
    7
 10
89.813957640414628
 20
164.75000170106301
 11
93.749999949222001
 21
168.68604448670754
  0
LINE
  8
_0-d_0_1
  6
CONTINUOUS
 62
    7
 10
89.672536322360429
 20
164.75000170106301
 11
93.749999949222001
 21
168.82746294373879
  0
LINE
  8
_0-d_0_1
  6
CONTINUOUS
 62
    7
 10
89.53111500430623
 20
164.75000170106301
 11
93.749999949222001
 21
168.96888903016458
  0
LINE
  8
_0-d_0_1
  6
CONTINUOUS
 62
    7
 10
89.389693686252031
 20
164.75000170106301
 11
93.749999949222001
 21
169.11030748719583
  0
LINE
  8
_0-d_0_1
  6
CONTINUOUS
 62
    7
 10
89.248271891360673
 20
164.75000170106301
 11
93.749999949222001
 21
169.25172594422708
  0
LINE
  8
_0-d_0_1
  6
CONTINUOUS
 62
    7
 10
89.106850573306474
 20
164.75000170106301
 11
93.749999949222001
 21
169.39315203065286
  0
LINE
  8
_0-d_0_1
  6
CONTINUOUS
 62
    7
 10
88.965429255252275
 20
164.75000170106301
 11
93.749999949222001
 21
169.53457048768411
  0
LINE
  8
_0-d_0_1
  6
CONTINUOUS
 62
    7
 10
88.824007937198076
 20
164.75000170106301
 11
93.749999949222001
 21
169.67599657410989
  0
LINE
  8
_0-d_0_1
  6
CONTINUOUS
 62
    7
 10
88.682586619143876
 20
164.75000170106301
 11
93.749999949222001
 21
169.81741503114114
  0
LINE
  8
_0-d_0_1
  6
CONTINUOUS
 62
    7
 10
88.541165301089677
 20
164.75000170106301
 11
93.749999949222001
 21
169.95883348817239
  0
LINE
  8
_0-d_0_1
  6
CONTINUOUS
 62
    7
 10
88.399743983035478
 20
164.75000170106301
 11
93.749999949222001
 21
170.10025957459817
  0
LINE
  8
_0-d_0_1
  6
CONTINUOUS
 62
    7
 10
88.258322664981279
 20
164.75000170106301
 11
93.749999949222001
 21
170.24167803162942
  0
LINE
  8
_0-d_0_1
  6
CONTINUOUS
 62
    7
 10
88.116901346927079
 20
164.75000170106301
 11
93.749999949222001
 21
170.3831041180552
  0
LINE
  8
_0-d_0_1
  6
CONTINUOUS
 62
    7
 10
87.97548002887288
 20
164.75000170106301
 11
93.749999949222001
 21
170.52452257508645
  0
LINE
  8
_0-d_0_1
  6
CONTINUOUS
 62
    7
 10
87.834058710818681
 20
164.75000170106301
 11
93.749999949222001
 21
170.6659410321177
  0
LINE
  8
_0-d_0_1
  6
CONTINUOUS
 62
    7
 10
87.692637392764482
 20
164.75000170106301
 11
93.749999949222001
 21
170.80736711854348
  0
LINE
  8
_0-d_0_1
  6
CONTINUOUS
 62
    7
 10
87.551216074710283
 20
164.75000170106301
 11
93.749999949222001
 21
170.94878557557473
  0
LINE
  8
_0-d_0_1
  6
CONTINUOUS
 62
    7
 10
87.409794279818925
 20
164.75000170106301
 11
93.749999949222001
 21
171.09020403260598
  0
LINE
  8
_0-d_0_1
  6
CONTINUOUS
 62
    7
 10
87.268372961764726
 20
164.75000170106301
 11
93.749999949222001
 21
171.23163011903176
  0
LINE
  8
_0-d_0_1
  6
CONTINUOUS
 62
    7
 10
87.126951882129106
 20
164.75000170106301
 11
93.749999949222001
 21
171.37304857606301
  0
LINE
  8
_0-d_0_1
  6
CONTINUOUS
 62
    7
 10
86.985530325656327
 20
164.75000170106301
 11
93.749999949222001
 21
171.51447466248879
  0
LINE
  8
_0-d_0_1
  6
CONTINUOUS
 62
    7
 10
86.844109007602128
 20
164.75000170106301
 11
93.749999949222001
 21
171.65589311952004
  0
LINE
  8
_0-d_0_1
  6
CONTINUOUS
 62
    7
 10
86.703234621768388
 20
164.75055101746926
 11
93.749453493838701
 21
171.79676988953958
  0
LINE
  8
_0-d_0_1
  6
CONTINUOUS
 62
    7
 10
86.569434115176591
 20
164.75817278260598
 11
93.741832682376298
 21
171.93056658143411
  0
LINE
  8
_0-d_0_1
  6
CONTINUOUS
 62
    7
 10
86.443474003558549
 20
164.77362993592629
 11
93.726370760684404
 21
172.05652788514504
  0
LINE
  8
_0-d_0_1
  6
CONTINUOUS
 62
    7
 10
86.324262091403398
 20
164.79583910340676
 11
93.704161593203935
 21
172.17573717469583
  0
LINE
  8
_0-d_0_1
  6
CONTINUOUS
 62
    7
 10
86.211001106982621
 20
164.82399919862161
 11
93.676001497989091
 21
172.28900316590676
  0
LINE
  8
_0-d_0_1
  6
CONTINUOUS
 62
    7
 10
86.103092858081254
 20
164.85751512879739
 11
93.642488428836259
 21
172.39690569276223
  0
LINE
  8
_0-d_0_1
  6
CONTINUOUS
 62
    7
 10
86.000078150515947
 20
164.8959215008677
 11
93.60408110309163
 21
172.4999254071177
  0
LINE
  8
_0-d_0_1
  6
CONTINUOUS
 62
    7
 10
85.901600786929521
 20
164.93886736268411
 11
93.561137148623857
 21
172.59839800233254
  0
LINE
  8
_0-d_0_1
  6
CONTINUOUS
 62
    7
 10
85.807381102328691
 20
164.98606279725442
 11
93.513935992007646
 21
172.69262102479348
  0
LINE
  8
_0-d_0_1
  6
CONTINUOUS
 62
    7
 10
85.717200228457841
 20
165.03730944032083
 11
93.462695070987138
 21
172.78280046815286
  0
LINE
  8
_0-d_0_1
  6
CONTINUOUS
 62
    7
 10
85.630888649707231
 20
165.09241655702004
 11
93.40758509326497
 21
172.86911180848489
  0
LINE
  8
_0-d_0_1
  6
CONTINUOUS
 62
    7
 10
85.548316666369828
 20
165.15126207703958
 11
93.348735758548173
 21
172.95168474549661
  0
LINE
  8
_0-d_0_1
  6
CONTINUOUS
 62
    7
 10
85.46938986468831
 20
165.21376207703958
 11
93.286241480594072
 21
173.03061083192239
  0
LINE
  8
_0-d_0_1
  6
CONTINUOUS
 62
    7
 10
85.394044825320634
 20
165.27984026307473
 11
93.220165201907548
 21
173.10595873231301
  0
LINE
  8
_0-d_0_1
  6
CONTINUOUS
 62
    7
 10
85.322246262317094
 20
165.34945848817239
 11
93.15054220843831
 21
173.17775896424661
  0
LINE
  8
_0-d_0_1
  6
CONTINUOUS
 62
    7
 10
85.253985831027421
 20
165.42261675233254
 11
93.077381083255204
 21
173.2460191571177
  0
LINE
  8
_0-d_0_1
  6
CONTINUOUS
 62
    7
 10
85.189282128100785
 20
165.49933794373879
 11
93.00066370654622
 21
173.3107164227427
  0
LINE
  8
_0-d_0_1
  6
CONTINUOUS
 62
    7
 10
85.128181168322953
 20
165.57966020936379
 11
92.920343348269853
 21
173.37182024354348
  0
LINE
  8
_0-d_0_1
  6
CONTINUOUS
 62
    7
 10
85.070757934337053
 20
165.66365984315286
 11
92.836345621829423
 21
173.4292466961802
  0
LINE
  8
_0-d_0_1
  6
CONTINUOUS
 62
    7
 10
85.017119833712968
 20
165.75143602723489
 11
92.748561808352861
 21
173.48288133973489
  0
LINE
  8
_0-d_0_1
  6
CONTINUOUS
 62
    7
 10
84.967410871272477
 20
165.84314897889504
 11
92.656849810367021
 21
173.53259447450051
  0
LINE
  8
_0-d_0_1
  6
CONTINUOUS
 62
    7
 10
84.921818920855912
 20
165.93898180360208
 11
92.561019846682939
 21
173.57818010682473
  0
LINE
  8
_0-d_0_1
  6
CONTINUOUS
 62
    7
 10
84.880584189181718
 20
166.03917101258645
 11
92.460833498721513
 21
173.61941698426614
  0
LINE
  8
_0-d_0_1
  6
CONTINUOUS
 62
    7
 10
84.844013401751909
 20
166.14402178162942
 11
92.355982729678544
 21
173.65598467225442
  0
LINE
  8
_0-d_0_1
  6
CONTINUOUS
 62
    7
 10
84.812499353175554
 20
166.25392320985208
 11
92.24607557940999
 21
173.68750170106301
  0
LINE
  8
_0-d_0_1
  6
CONTINUOUS
 62
    7
 10
84.786548921351823
 20
166.36939409608254
 11
92.130604693179521
 21
173.71344927186379
  0
LINE
  8
_0-d_0_1
  6
CONTINUOUS
 62
    7
 10
84.766828605418596
 20
166.49109819764504
 11
92.00890345263997
 21
173.73317125672708
  0
LINE
  8
_0-d_0_1
  6
CONTINUOUS
 62
    7
 10
84.754234382396135
 20
166.61992815369973
 11
91.880076357608232
 21
173.74576738709817
  0
LINE
  8
_0-d_0_1
  6
CONTINUOUS
 62
    7
 10
84.749999949222001
 20
166.75711229676614
 11
91.742889353518876
 21
173.75000170106301
  0
LINE
  8
_0-d_0_1
  6
CONTINUOUS
 62
    7
 10
84.749999949222001
 20
166.89853075379739
 11
91.601468035464677
 21
173.75000170106301
  0
LINE
  8
_0-d_0_1
  6
CONTINUOUS
 62
    7
 10
84.749999949222001
 20
167.03995684022317
 11
91.460046717410478
 21
173.75000170106301
  0
LINE
  8
_0-d_0_1
  6
CONTINUOUS
 62
    7
 10
84.749999949222001
 20
167.18137529725442
 11
91.318625399356279
 21
173.75000170106301
  0
LINE
  8
_0-d_0_1
  6
CONTINUOUS
 62
    7
 10
84.749999949222001
 20
167.32279375428567
 11
91.177204081302079
 21
173.75000170106301
  0
LINE
  8
_0-d_0_1
  6
CONTINUOUS
 62
    7
 10
84.749999949222001
 20
167.46421984071145
 11
91.03578276324788
 21
173.75000170106301
  0
LINE
  8
_0-d_0_1
  6
CONTINUOUS
 62
    7
 10
84.749999949222001
 20
167.6056382977427
 11
90.894361445193681
 21
173.75000170106301
  0
LINE
  8
_0-d_0_1
  6
CONTINUOUS
 62
    7
 10
84.749999949222001
 20
167.74706438416848
 11
90.752940127139482
 21
173.75000170106301
  0
LINE
  8
_0-d_0_1
  6
CONTINUOUS
 62
    7
 10
84.749999949222001
 20
167.88848284119973
 11
90.611518809085283
 21
173.75000170106301
  0
LINE
  8
_0-d_0_1
  6
CONTINUOUS
 62
    7
 10
84.749999949222001
 20
168.02990129823098
 11
90.470097491031083
 21
173.75000170106301
  0
LINE
  8
_0-d_0_1
  6
CONTINUOUS
 62
    7
 10
84.749999949222001
 20
168.17132738465676
 11
90.328676172976884
 21
173.75000170106301
  0
LINE
  8
_0-d_0_1
  6
CONTINUOUS
 62
    7
 10
84.749999949222001
 20
168.31274584168801
 11
90.187254854922685
 21
173.75000170106301
  0
LINE
  8
_0-d_0_1
  6
CONTINUOUS
 62
    7
 10
84.749999949222001
 20
168.45417192811379
 11
90.045833536868486
 21
173.75000170106301
  0
LINE
  8
_0-d_0_1
  6
CONTINUOUS
 62
    7
 10
84.749999949222001
 20
168.59559038514504
 11
89.904412218814286
 21
173.75000170106301
  0
LINE
  8
_0-d_0_1
  6
CONTINUOUS
 62
    7
 10
84.749999949222001
 20
168.73700884217629
 11
89.762990900760087
 21
173.75000170106301
  0
LINE
  8
_0-d_0_1
  6
CONTINUOUS
 62
    7
 10
84.749999949222001
 20
168.87843492860208
 11
89.621569582705888
 21
173.75000170106301
  0
LINE
  8
_0-d_0_1
  6
CONTINUOUS
 62
    7
 10
84.749999949222001
 20
169.01985338563333
 11
89.480148264651689
 21
173.75000170106301
  0
LINE
  8
_0-d_0_1
  6
CONTINUOUS
 62
    7
 10
84.749999949222001
 20
169.16127184266458
 11
89.338726469760331
 21
173.75000170106301
  0
LINE
  8
_0-d_0_1
  6
CONTINUOUS
 62
    7
 10
84.749999949222001
 20
169.30269792909036
 11
89.197305151706132
 21
173.75000170106301
  0
LINE
  8
_0-d_0_1
  6
CONTINUOUS
 62
    7
 10
84.749999949222001
 20
169.44411638612161
 11
89.055883833651933
 21
173.75000170106301
  0
LINE
  8
_0-d_0_1
  6
CONTINUOUS
 62
    7
 10
84.749999949222001
 20
169.58554247254739
 11
88.914462515597734
 21
173.75000170106301
  0
LINE
  8
_0-d_0_1
  6
CONTINUOUS
 62
    7
 10
84.749999949222001
 20
169.72696092957864
 11
88.773041197543535
 21
173.75000170106301
  0
LINE
  8
_0-d_0_1
  6
CONTINUOUS
 62
    7
 10
84.749999949222001
 20
169.86837938660989
 11
88.631619879489335
 21
173.75000170106301
  0
LINE
  8
_0-d_0_1
  6
CONTINUOUS
 62
    7
 10
84.749999949222001
 20
170.00980547303567
 11
88.490198561435136
 21
173.75000170106301
  0
LINE
  8
_0-d_0_1
  6
CONTINUOUS
 62
    7
 10
84.749999949222001
 20
170.15122393006692
 11
88.348777243380937
 21
173.75000170106301
  0
LINE
  8
_0-d_0_1
  6
CONTINUOUS
 62
    7
 10
84.749999949222001
 20
170.29264238709817
 11
88.207355925326738
 21
173.75000170106301
  0
LINE
  8
_0-d_0_1
  6
CONTINUOUS
 62
    7
 10
84.749999949222001
 20
170.43406847352395
 11
88.065934607272538
 21
173.75000170106301
  0
LINE
  8
_0-d_0_1
  6
CONTINUOUS
 62
    7
 10
84.749999949222001
 20
170.5754869305552
 11
87.924513289218339
 21
173.75000170106301
  0
LINE
  8
_0-d_0_1
  6
CONTINUOUS
 62
    7
 10
84.749999949222001
 20
170.71691301698098
 11
87.78309197116414
 21
173.75000170106301
  0
LINE
  8
_0-d_0_1
  6
CONTINUOUS
 62
    7
 10
84.749999949222001
 20
170.85833147401223
 11
87.641670176272783
 21
173.75000170106301
  0
LINE
  8
_0-d_0_1
  6
CONTINUOUS
 62
    7
 10
84.749999949222001
 20
170.99974993104348
 11
87.500248858218583
 21
173.75000170106301
  0
LINE
  8
_0-d_0_1
  6
CONTINUOUS
 62
    7
 10
84.749999949222001
 20
171.14117601746926
 11
87.358827540164384
 21
173.75000170106301
  0
LINE
  8
_0-d_0_1
  6
CONTINUOUS
 62
    7
 10
84.749999949222001
 20
171.28259447450051
 11
87.217406222110185
 21
173.75000170106301
  0
LINE
  8
_0-d_0_1
  6
CONTINUOUS
 62
    7
 10
84.749999949222001
 20
171.42401293153176
 11
87.075984904055986
 21
173.75000170106301
  0
LINE
  8
_0-d_0_1
  6
CONTINUOUS
 62
    7
 10
84.749999949222001
 20
171.56543901795754
 11
86.934563586001786
 21
173.75000170106301
  0
LINE
  8
_0-d_0_1
  6
CONTINUOUS
 62
    7
 10
84.749999949222001
 20
171.70685747498879
 11
86.793142267947587
 21
173.75000170106301
  0
LINE
  8
_0-d_0_1
  6
CONTINUOUS
 62
    7
 10
84.752542802577409
 20
171.85082414979348
 11
86.649177977328691
 21
173.74746111268411
  0
LINE
  8
_0-d_0_1
  6
CONTINUOUS
 62
    7
 10
84.766474196200761
 20
172.00617388123879
 11
86.493825384860429
 21
173.73352983827004
  0
LINE
  8
_0-d_0_1
  6
CONTINUOUS
 62
    7
 10
84.796179720645341
 20
172.17730120057473
 11
86.322698303943071
 21
173.70382097596536
  0
LINE
  8
_0-d_0_1
  6
CONTINUOUS
 62
    7
 10
84.849045583491716
 20
172.37159136170754
 11
86.128411242251786
 21
173.65095690125833
  0
LINE
  8
_0-d_0_1
  6
CONTINUOUS
 62
    7
 10
84.942808934932145
 20
172.60677507752786
 11
85.893226334338578
 21
173.55719164246926
  0
TEXT
  8
_0-7_注記層１
 62
    7
 10
172.75756702580807
 20
38.01170132798795
 40
3.5
 41
1
 50
0
  1
電源
  0
TEXT
  8
_0-7_注記層１
 62
    7
 10
171.00756702580807
 20
34.51170132798795
 40
3.5
 41
1
 50
0
  1
AC100V
  0
TEXT
  8
_0-7_注記層１
 62
    7
 10
194.19112377850161
 20
183.11797638436488
 40
2.2999999999999998
 41
1
 50
90
  1
オートレインタイムスイッチ   　  FV1D-100S
  0
TEXT
  8
_0-7_注記層１
 62
    7
 10
196.49112377850162
 20
183.11797638436488
 40
2.2999999999999998
 41
1
 50
90
  1
操作電圧　　AC100V               50/60Hz切換 
  0
TEXT
  8
_0-d_0_1
 62
    7
 10
112.46671629580104
 20
135.93024549031026
 40
4
 41
1
 50
0
  1
FV1D
  0
LINE
  8
_0-d_0_1
  6
CONTINUOUS
 62
    7
 10
137.25756321111078
 20
79.261712772079733
 11
137.25756321111078
 21
77.261710149475363
  0
LINE
  8
_0-d_0_1
  6
CONTINUOUS
 62
    7
 10
134.7575860992944
 20
72.261720878311422
 11
134.7575860992944
 21
32.261701327987936
  0
LINE
  8
_0-d_0_1
  6
CONTINUOUS
 62
    7
 10
137.25756321111078
 20
79.261712772079733
 11
137.25756321111078
 21
72.261720878311422
  0
LINE
  8
_0-d_0_1
  6
CONTINUOUS
 62
    7
 10
134.7575860992944
 20
32.261701327987936
 11
41.257567025808044
 21
32.261701327987936
  0
LINE
  8
_0-d_0_1
  6
CONTINUOUS
 62
    7
 10
137.25756321111078
 20
77.261710149475363
 11
38.757570840505309
 21
77.261710149475363
  0
LINE
  8
_0-d_0_1
  6
CONTINUOUS
 62
    7
 10
137.25756321111078
 20
72.261720878311422
 11
38.757570840505309
 21
72.261720878311422
  0
LINE
  8
_0-d_0_1
  6
CONTINUOUS
 62
    7
 10
136.25756702580807
 20
100.26170705003383
 11
137.2575860992944
 21
79.261712772079733
  0
LINE
  8
_0-d_0_1
  6
CONTINUOUS
 62
    7
 10
136.25756702580807
 20
100.26170705003383
 11
42.257567025808044
 21
100.26170705003383
  0
ARC
  8
_0-d_0_1
  6
CONTINUOUS
 62
    7
 10
65.007551817797037
 20
61.511741588594845
 40
1.4999999999999716
 50
359.99999999999892
 51
90.000000000001094
  0
ARC
  8
_0-d_0_1
  6
CONTINUOUS
 62
    7
 10
60.507567076586042
 20
61.511741588594816
 40
1.4999999999999929
 50
89.99999999999973
 51
180.00000000000026
  0
ARC
  8
_0-d_0_1
  6
CONTINUOUS
 62
    7
 10
114.25755181779698
 20
32.7616958122276
 40
0.9999999999999853
 50
179.99999999999878
 51
270.0000000000008
  0
ARC
  8
_0-d_0_1
  6
CONTINUOUS
 62
    7
 10
117.25753655900795
 20
32.7616958122276
 40
0.9999999999999783
 50
269.9999999999992
 51
0.0000000000011831
  0
ARC
  8
_0-d_0_1
  6
CONTINUOUS
 62
    7
 10
61.257559447191511
 20
32.7616958122276
 40
0.9999999999999783
 50
179.99999999999878
 51
270.00000000000119
  0
ARC
  8
_0-d_0_1
  6
CONTINUOUS
 62
    7
 10
64.257551817797008
 20
32.7616958122276
 40
0.9999999999999783
 50
269.99999999999875
 51
0.0000000000011577
  0
ARC
  8
_0-d_0_1
  6
CONTINUOUS
 62
    7
 10
96.257551817797008
 20
46.261703441622188
 40
0.9999999999999853
 50
359.99999999999881
 51
90.000000000000782
  0
ARC
  8
_0-d_0_1
  6
CONTINUOUS
 62
    7
 10
93.257567076586042
 20
46.261703441622188
 40
0.9999999999999783
 50
89.99999999999919
 51
180.00000000000122
  0
ARC
  8
_0-d_0_1
  6
CONTINUOUS
 62
    7
 10
107.25755181779701
 20
46.261703441622188
 40
0.9999999999999853
 50
359.99999999999881
 51
90.000000000000782
  0
ARC
  8
_0-d_0_1
  6
CONTINUOUS
 62
    7
 10
104.25756707658604
 20
46.261703441622188
 40
0.9999999999999783
 50
89.99999999999919
 51
180.00000000000122
  0
ARC
  8
_0-d_0_1
  6
CONTINUOUS
 62
    7
 10
85.257567076586071
 20
46.261703441622188
 40
0.9999999999999853
 50
359.99999999999881
 51
90.000000000000782
  0
ARC
  8
_0-d_0_1
  6
CONTINUOUS
 62
    7
 10
82.257582335375105
 20
46.261703441622188
 40
0.9999999999999783
 50
89.99999999999919
 51
180.00000000000122
  0
ARC
  8
_0-d_0_1
  6
CONTINUOUS
 62
    7
 10
74.257567076586071
 20
46.261703441622188
 40
0.9999999999999853
 50
359.99999999999881
 51
90.000000000000782
  0
ARC
  8
_0-d_0_1
  6
CONTINUOUS
 62
    7
 10
71.257582335375105
 20
46.261703441622188
 40
0.9999999999999783
 50
89.99999999999919
 51
180.00000000000122
  0
LINE
  8
_0-d_0_1
  6
CONTINUOUS
 62
    7
 10
66.50755748906488
 20
61.511745197006491
 11
66.50755748906488
 21
59.261737567611959
  0
LINE
  8
_0-d_0_1
  6
CONTINUOUS
 62
    7
 10
65.007547952321715
 20
63.011739474960592
 11
60.507567025808044
 21
63.011739474960592
  0
LINE
  8
_0-d_0_1
  6
CONTINUOUS
 62
    7
 10
59.00755748906488
 20
61.511745197006491
 11
59.00755748906488
 21
59.261737567611959
  0
LINE
  8
_0-d_0_1
  6
CONTINUOUS
 62
    7
 10
66.50755748906488
 20
59.261737567611959
 11
59.00755748906488
 21
59.261737567611959
  0
LINE
  8
_0-d_0_1
  6
CONTINUOUS
 62
    7
 10
110.00757274785396
 20
34.261705142685202
 11
110.00757274785396
 21
30.761708957382467
  0
LINE
  8
_0-d_0_1
  6
CONTINUOUS
 62
    7
 10
68.507561303762145
 20
34.261705142685202
 11
68.507561303762145
 21
30.761708957382467
  0
LINE
  8
_0-d_0_1
  6
CONTINUOUS
 62
    7
 10
110.00757274785396
 20
30.761708957382467
 11
68.507561303762145
 21
30.761708957382467
  0
LINE
  8
_0-d_0_1
  6
CONTINUOUS
 62
    7
 10
65.757561303762145
 20
34.261705142685202
 11
65.757561303762145
 21
58.261737567611959
  0
LINE
  8
_0-d_0_1
  6
CONTINUOUS
 62
    7
 10
65.757561303762145
 20
52.261728030868795
 11
65.757561303762145
 21
55.76172421617153
  0
LINE
  8
_0-d_0_1
  6
CONTINUOUS
 62
    7
 10
63.746378518727965
 20
58.261737567611959
 11
67.257555581716247
 21
58.261737567611959
  0
LINE
  8
_0-d_0_1
  6
CONTINUOUS
 62
    7
 10
58.257559396413512
 20
58.261737567611959
 11
63.746378518727965
 21
58.261737567611959
  0
LINE
  8
_0-d_0_1
  6
CONTINUOUS
 62
    7
 10
67.257555581716247
 20
58.261737567611959
 11
67.257555581716247
 21
59.261737567611959
  0
LINE
  8
_0-d_0_1
  6
CONTINUOUS
 62
    7
 10
58.257559396413512
 20
59.261737567611959
 11
67.257555581716247
 21
59.261737567611959
  0
LINE
  8
_0-d_0_1
  6
CONTINUOUS
 62
    7
 10
58.257559396413512
 20
58.261737567611959
 11
58.257559396413512
 21
59.261737567611959
  0
LINE
  8
_0-d_0_1
  6
CONTINUOUS
 62
    7
 10
113.25754795232173
 20
32.761693698593405
 11
113.25754795232173
 21
34.261705142685202
  0
LINE
  8
_0-d_0_1
  6
CONTINUOUS
 62
    7
 10
114.25754795232173
 20
31.761708957382467
 11
117.2575346008813
 21
31.761708957382467
  0
LINE
  8
_0-d_0_1
  6
CONTINUOUS
 62
    7
 10
118.25755367436763
 20
32.761693698593405
 11
118.25755367436763
 21
34.261705142685202
  0
LINE
  8
_0-d_0_1
  6
CONTINUOUS
 62
    7
 10
113.25754795232173
 20
33.261701327987936
 11
118.25755367436763
 21
33.261701327987936
  0
LINE
  8
_0-d_0_1
  6
CONTINUOUS
 62
    7
 10
60.257563211110778
 20
32.761693698593405
 11
60.257563211110778
 21
34.261705142685202
  0
LINE
  8
_0-d_0_1
  6
CONTINUOUS
 62
    7
 10
61.257563211110778
 20
31.761708957382467
 11
64.257549859670348
 21
31.761708957382467
  0
LINE
  8
_0-d_0_1
  6
CONTINUOUS
 62
    7
 10
65.257551767018981
 20
32.761693698593405
 11
65.257551767018981
 21
34.261705142685202
  0
LINE
  8
_0-d_0_1
  6
CONTINUOUS
 62
    7
 10
60.257563211110778
 20
33.261701327987936
 11
65.257551767018981
 21
33.261701327987936
  0
LINE
  8
_0-d_0_1
  6
CONTINUOUS
 62
    7
 10
68.507561303762145
 20
40.761720401474264
 11
110.00757274785396
 21
40.761720401474264
  0
LINE
  8
_0-d_0_1
  6
CONTINUOUS
 62
    7
 10
101.50757084050532
 20
42.261716586776998
 11
110.00757274785396
 21
42.261716586776998
  0
LINE
  8
_0-d_0_1
  6
CONTINUOUS
 62
    7
 10
90.507573105481825
 20
42.261716586776998
 11
99.007575608876905
 21
42.261716586776998
  0
LINE
  8
_0-d_0_1
  6
CONTINUOUS
 62
    7
 10
101.50757084050532
 20
43.261716586776998
 11
110.00757274785396
 21
43.261716586776998
  0
LINE
  8
_0-d_0_1
  6
CONTINUOUS
 62
    7
 10
90.507573105481825
 20
43.261716586776998
 11
99.007575608876905
 21
43.261716586776998
  0
LINE
  8
_0-d_0_1
  6
CONTINUOUS
 62
    7
 10
101.50757084050532
 20
44.761708957382467
 11
110.00757274785396
 21
44.761708957382467
  0
LINE
  8
_0-d_0_1
  6
CONTINUOUS
 62
    7
 10
90.507573105481825
 20
44.761708957382467
 11
99.007575608876905
 21
44.761708957382467
  0
LINE
  8
_0-d_0_1
  6
CONTINUOUS
 62
    7
 10
79.507558442739196
 20
42.261716586776998
 11
88.007560946134291
 21
42.261716586776998
  0
LINE
  8
_0-d_0_1
  6
CONTINUOUS
 62
    7
 10
79.507558442739196
 20
43.261716586776998
 11
88.007560946134291
 21
43.261716586776998
  0
LINE
  8
_0-d_0_1
  6
CONTINUOUS
 62
    7
 10
79.507558442739196
 20
44.761708957382467
 11
88.007560946134291
 21
44.761708957382467
  0
LINE
  8
_0-d_0_1
  6
CONTINUOUS
 62
    7
 10
68.507561303762145
 20
42.261716586776998
 11
77.007563211110778
 21
42.261716586776998
  0
LINE
  8
_0-d_0_1
  6
CONTINUOUS
 62
    7
 10
68.507561303762145
 20
43.261716586776998
 11
77.007563211110778
 21
43.261716586776998
  0
LINE
  8
_0-d_0_1
  6
CONTINUOUS
 62
    7
 10
68.507561303762145
 20
44.761708957382467
 11
77.007563211110778
 21
44.761708957382467
  0
LINE
  8
_0-d_0_1
  6
CONTINUOUS
 62
    7
 10
110.00757274785396
 20
44.761708957382467
 11
103.25756893315669
 21
44.761708957382467
  0
LINE
  8
_0-d_0_1
  6
CONTINUOUS
 62
    7
 10
97.257560350087843
 20
46.261701327987936
 11
97.257560350087843
 21
44.761708957382467
  0
LINE
  8
_0-d_0_1
  6
CONTINUOUS
 62
    7
 10
96.257558919576368
 20
47.261722308822897
 11
93.257572271016798
 21
47.261722308822897
  0
LINE
  8
_0-d_0_1
  6
CONTINUOUS
 62
    7
 10
92.257571078923903
 20
46.261701327987936
 11
92.257571078923903
 21
44.761708957382467
  0
LINE
  8
_0-d_0_1
  6
CONTINUOUS
 62
    7
 10
97.257560350087843
 20
44.761708957382467
 11
92.257571078923903
 21
44.761708957382467
  0
LINE
  8
_0-d_0_1
  6
CONTINUOUS
 62
    7
 10
97.257560350087843
 20
45.761712772079733
 11
92.257571078923903
 21
45.761712772079733
  0
LINE
  8
_0-d_0_1
  6
CONTINUOUS
 62
    7
 10
108.25755748906489
 20
46.261701327987936
 11
108.25755748906489
 21
44.761708957382467
  0
LINE
  8
_0-d_0_1
  6
CONTINUOUS
 62
    7
 10
107.25755558171626
 20
47.261722308822897
 11
104.25756988683101
 21
47.261722308822897
  0
LINE
  8
_0-d_0_1
  6
CONTINUOUS
 62
    7
 10
103.25756893315669
 20
46.261701327987936
 11
103.25756893315669
 21
44.761708957382467
  0
LINE
  8
_0-d_0_1
  6
CONTINUOUS
 62
    7
 10
108.25755748906489
 20
45.761712772079733
 11
103.25756893315669
 21
45.761712772079733
  0
LINE
  8
_0-d_0_1
  6
CONTINUOUS
 62
    7
 10
86.257562972692213
 20
46.261701327987936
 11
86.257562972692213
 21
44.761708957382467
  0
LINE
  8
_0-d_0_1
  6
CONTINUOUS
 62
    7
 10
85.257561780599318
 20
47.261722308822897
 11
82.257575132039747
 21
47.261722308822897
  0
LINE
  8
_0-d_0_1
  6
CONTINUOUS
 62
    7
 10
81.257573701528258
 20
46.261701327987936
 11
81.257573701528258
 21
44.761708957382467
  0
LINE
  8
_0-d_0_1
  6
CONTINUOUS
 62
    7
 10
86.257562972692213
 20
44.761708957382467
 11
81.257573701528258
 21
44.761708957382467
  0
LINE
  8
_0-d_0_1
  6
CONTINUOUS
 62
    7
 10
86.257562972692213
 20
45.761712772079733
 11
81.257573701528258
 21
45.761712772079733
  0
LINE
  8
_0-d_0_1
  6
CONTINUOUS
 62
    7
 10
75.257565118459411
 20
46.261701327987936
 11
75.257565118459411
 21
44.761708957382467
  0
LINE
  8
_0-d_0_1
  6
CONTINUOUS
 62
    7
 10
74.257564164785094
 20
47.261722308822897
 11
71.25757846989984
 21
47.261722308822897
  0
LINE
  8
_0-d_0_1
  6
CONTINUOUS
 62
    7
 10
70.257576562551208
 20
46.261701327987936
 11
70.257576562551208
 21
44.761708957382467
  0
LINE
  8
_0-d_0_1
  6
CONTINUOUS
 62
    7
 10
75.257565118459411
 20
44.761708957382467
 11
70.257576562551208
 21
44.761708957382467
  0
LINE
  8
_0-d_0_1
  6
CONTINUOUS
 62
    7
 10
75.257565118459411
 20
45.761712772079733
 11
70.257576562551208
 21
45.761712772079733
  0
LINE
  8
_0-d_0_1
  6
CONTINUOUS
 62
    7
 10
56.257567025808044
 20
57.76172421617153
 11
122.25755939641353
 21
57.76172421617153
  0
ARC
  8
_0-d_0_1
  6
CONTINUOUS
 62
    7
 10
117.25753655900795
 20
59.261741588594845
 40
0.9999999999999853
 50
359.99999999999881
 51
90.000000000000782
  0
ARC
  8
_0-d_0_1
  6
CONTINUOUS
 62
    7
 10
114.25755181779698
 20
59.261741588594845
 40
0.9999999999999783
 50
89.99999999999919
 51
180.00000000000122
  0
LINE
  8
_0-d_0_1
  6
CONTINUOUS
 62
    7
 10
118.25755367436763
 20
59.261735660263327
 11
118.25755367436763
 21
57.76172421617153
  0
LINE
  8
_0-d_0_1
  6
CONTINUOUS
 62
    7
 10
117.2575346008813
 20
60.261718494125631
 11
114.25754795232173
 21
60.261718494125631
  0
LINE
  8
_0-d_0_1
  6
CONTINUOUS
 62
    7
 10
113.25754795232173
 20
59.261735660263327
 11
113.25754795232173
 21
57.76172421617153
  0
LINE
  8
_0-d_0_1
  6
CONTINUOUS
 62
    7
 10
118.25755367436763
 20
57.76172421617153
 11
113.25754795232173
 21
57.76172421617153
  0
LINE
  8
_0-d_0_1
  6
CONTINUOUS
 62
    7
 10
118.25755367436763
 20
58.761726123520162
 11
113.25754795232173
 21
58.761726123520162
  0
LINE
  8
_0-d_0_1
  6
CONTINUOUS
 62
    7
 10
56.257567025808044
 20
57.76172421617153
 11
56.257567025808044
 21
34.261705142685202
  0
LINE
  8
_0-d_0_1
  6
CONTINUOUS
 62
    7
 10
122.25755939641353
 20
34.261705142685202
 11
56.257567025808044
 21
34.261705142685202
  0
LINE
  8
_0-d_0_1
  6
CONTINUOUS
 62
    7
 10
122.25755939641353
 20
57.76172421617153
 11
122.25755939641353
 21
34.261705142685202
  0
LINE
  8
_0-d_0_1
  6
CONTINUOUS
 62
    7
 10
77.007563211110778
 20
50.76172421617153
 11
77.007563211110778
 21
40.761720401474264
  0
LINE
  8
_0-d_0_1
  6
CONTINUOUS
 62
    7
 10
79.507558442739196
 20
50.76172421617153
 11
79.507558442739196
 21
40.761720401474264
  0
LINE
  8
_0-d_0_1
  6
CONTINUOUS
 62
    7
 10
79.507558442739196
 20
50.76172421617153
 11
88.007560946134291
 21
50.76172421617153
  0
LINE
  8
_0-d_0_1
  6
CONTINUOUS
 62
    7
 10
88.007560946134291
 20
50.76172421617153
 11
88.007560946134291
 21
40.761720401474264
  0
LINE
  8
_0-d_0_1
  6
CONTINUOUS
 62
    7
 10
90.507573105481825
 20
50.76172421617153
 11
90.507573105481825
 21
40.761720401474264
  0
LINE
  8
_0-d_0_1
  6
CONTINUOUS
 62
    7
 10
90.507573105481825
 20
50.76172421617153
 11
99.007575608876905
 21
50.76172421617153
  0
LINE
  8
_0-d_0_1
  6
CONTINUOUS
 62
    7
 10
99.007575608876905
 20
50.76172421617153
 11
99.007575608876905
 21
40.761720401474264
  0
LINE
  8
_0-d_0_1
  6
CONTINUOUS
 62
    7
 10
101.50757084050532
 20
50.76172421617153
 11
101.50757084050532
 21
40.761720401474264
  0
LINE
  8
_0-d_0_1
  6
CONTINUOUS
 62
    7
 10
68.507561303762145
 20
50.76172421617153
 11
68.507561303762145
 21
40.761720401474264
  0
LINE
  8
_0-d_0_1
  6
CONTINUOUS
 62
    7
 10
68.507561303762145
 20
50.76172421617153
 11
77.007563211110778
 21
50.76172421617153
  0
LINE
  8
_0-d_0_1
  6
CONTINUOUS
 62
    7
 10
101.50757084050532
 20
50.76172421617153
 11
110.00757274785396
 21
50.76172421617153
  0
LINE
  8
_0-d_0_1
  6
CONTINUOUS
 62
    7
 10
110.00757274785396
 20
50.76172421617153
 11
110.00757274785396
 21
40.761720401474264
  0
LINE
  8
_0-d_0_1
  6
DOT_18
 62
    7
 10
57.757568933156676
 20
52.261728030868795
 11
65.757561303762145
 21
52.261728030868795
  0
LINE
  8
_0-d_0_1
  6
DOT_18
 62
    7
 10
57.757568933156676
 20
34.261705142685202
 11
57.757568933156676
 21
52.261728030868795
  0
LINE
  8
_0-d_0_1
  6
DOT_18
 62
    7
 10
60.257563211110778
 20
34.261705142685202
 11
65.257551767018981
 21
34.261705142685202
  0
LINE
  8
_0-d_0_1
  6
DOT_18
 62
    7
 10
65.757561303762145
 20
34.261705142685202
 11
57.757568933156676
 21
34.261705142685202
  0
LINE
  8
_0-d_0_1
  6
DOT_18
 62
    7
 10
112.75753841557857
 20
55.76172421617153
 11
118.7575288788354
 21
55.76172421617153
  0
LINE
  8
_0-d_0_1
  6
DOT_18
 62
    7
 10
112.75753841557857
 20
52.261728030868795
 11
120.75756511845942
 21
52.261728030868795
  0
LINE
  8
_0-d_0_1
  6
DOT_18
 62
    7
 10
113.75753841557857
 20
52.261728030868795
 11
113.75753841557857
 21
55.76172421617153
  0
LINE
  8
_0-d_0_1
  6
DOT_18
 62
    7
 10
117.75754413762446
 20
52.261728030868795
 11
117.75754413762446
 21
55.76172421617153
  0
LINE
  8
_0-d_0_1
  6
DOT_18
 62
    7
 10
118.7575288788354
 20
52.261728030868795
 11
118.7575288788354
 21
55.76172421617153
  0
LINE
  8
_0-d_0_1
  6
DOT_18
 62
    7
 10
112.75757274785396
 20
55.76172421617153
 11
112.75757274785396
 21
52.261728030868795
  0
LINE
  8
_0-d_0_1
  6
DOT_18
 62
    7
 10
120.75756511845942
 20
52.261728030868795
 11
120.75756511845942
 21
34.261705142685202
  0
LINE
  8
_0-d_0_1
  6
DOT_18
 62
    7
 10
113.25754795232173
 20
34.261705142685202
 11
118.25755367436763
 21
34.261705142685202
  0
LINE
  8
_0-d_0_1
  6
DOT_18
 62
    7
 10
112.75757274785396
 20
34.261705142685202
 11
120.75756511845942
 21
34.261705142685202
  0
LINE
  8
_0-d_0_1
  6
CONTINUOUS
 62
    7
 10
112.75757274785396
 20
52.261728030868795
 11
112.75757274785396
 21
57.76172421617153
  0
LINE
  8
_0-d_0_1
  6
CONTINUOUS
 62
    7
 10
112.75757274785396
 20
52.261728030868795
 11
112.75757274785396
 21
34.261705142685202
  0
TEXT
  8
_0-d_0_1
 62
    7
 10
73.686592766728268
 20
59.478731754085743
 40
6
 41
1
 50
0
  1
電源  出力
  0
TEXT
  8
_0-d_0_1
 62
    7
 10
98.777005684868556
 20
181.3000204099244
 40
4
 41
1
 50
0
  1
サブタイマー１
  0
TEXT
  8
_0-d_0_1
 62
    7
 10
88.587733118897717
 20
156.09071865563038
 40
4
 41
1
 50
0
  1
自動/切
  0
TEXT
  8
_0-7_注記層１
 62
    7
 10
363.75
 20
28
 40
3.5
 41
1
 50
0
  1
２４時間タイムスイッチ
  0
TEXT
  8
_0-7_注記層１
 62
    7
 10
346.25756702580804
 20
27.261701327987936
 40
4
 41
1
 50
0
  1
平野
  0
TEXT
  8
_0-7_注記層１
 62
    7
 10
363.75
 20
17.25
 40
5
 41
1
 50
0
  1
FV1D-100S-001-02
  0
TEXT
  8
_0-7_注記層１
 62
    7
 10
272.5
 20
28
 40
3.5
 41
1
 50
0
  1
2017.10.26
  0
TEXT
  8
_0-7_注記層１
 62
    7
 10
306.25
 20
228
 40
3.5
 41
1
 50
0
  1
35%RH～85％RH
  0
TEXT
  8
_0-7_注記層１
 62
    7
 10
306.25
 20
253
 40
3.5
 41
1
 50
0
  1
AC85V～AC115V
  0
TEXT
  8
_0-7_注記層１
 62
    7
 10
306.25
 20
248
 40
3.5
 41
1
 50
0
  1
50Hz/60Hz共用(切換)
  0
TEXT
  8
_0-7_注記層１
 62
    7
 10
306.25
 20
213
 40
3.5
 41
1
 50
0
  1
1日32回ON-OFF動作
  0
TEXT
  8
_0-7_注記層１
 62
    7
 10
306.25
 20
188
 40
3.5
 41
1
 50
0
  1
H155×W96×D70mm
  0
TEXT
  8
_0-7_注記層１
 62
    7
 10
306.25
 20
243
 40
3.5
 41
1
 50
0
  1
なし (設定値のみ自動保存)
  0
LINE
  8
_0-9_寸法線層１
  6
CONTINUOUS
 62
    4
 10
33.039538714991693
 20
271.75
 11
33.039538714991693
 21
115.75000933045754
  0
LINE
  8
_0-9_寸法線層１
  6
CONTINUOUS
 62
    4
 10
33.039538714991693
 20
271.75
 11
33.557176805196747
 21
269.81814834742187
  0
LINE
  8
_0-9_寸法線層１
  6
CONTINUOUS
 62
    4
 10
33.039538714991693
 20
271.75
 11
32.521900624786639
 21
269.81814834742187
  0
LINE
  8
_0-9_寸法線層１
  6
CONTINUOUS
 62
    4
 10
33.039538714991693
 20
115.75000933045754
 11
32.521900624786639
 21
117.68186098303568
  0
LINE
  8
_0-9_寸法線層１
  6
CONTINUOUS
 62
    4
 10
33.039538714991693
 20
115.75000933045754
 11
33.557176805196747
 21
117.68186098303568
  0
LINE
  8
_0-9_寸法線層１
  6
CONTINUOUS
 62
    4
 10
30.039538714991693
 20
271.75
 11
42.607907742998293
 21
271.75
  0
TEXT
  8
_0-9_寸法線層１
 62
    7
 10
32.539538714991693
 20
191.87500466522877
 40
2.5
 41
1
 50
90
  1
155
  0
LINE
  8
_0-9_寸法線層１
  6
CONTINUOUS
 62
    4
 10
41.25
 20
107.8887973640856
 11
137.249999949222
 21
107.8887973640856
  0
LINE
  8
_0-9_寸法線層１
  6
CONTINUOUS
 62
    4
 10
41.25
 20
107.8887973640856
 11
43.181851652578132
 21
108.40643545429063
  0
LINE
  8
_0-9_寸法線層１
  6
CONTINUOUS
 62
    4
 10
41.25
 20
107.8887973640856
 11
43.181851652578132
 21
107.37115927388055
  0
LINE
  8
_0-9_寸法線層１
  6
CONTINUOUS
 62
    4
 10
137.249999949222
 20
107.8887973640856
 11
135.31814829664387
 21
107.37115927388055
  0
LINE
  8
_0-9_寸法線層１
  6
CONTINUOUS
 62
    4
 10
137.249999949222
 20
107.8887973640856
 11
135.31814829664387
 21
108.40643545429063
  0
LINE
  8
_0-9_寸法線層１
  6
CONTINUOUS
 62
    4
 10
41.25
 20
104.8887973640856
 11
41.25
 21
132.89703459637553
  0
LINE
  8
_0-9_寸法線層１
  6
CONTINUOUS
 62
    4
 10
137.249999949222
 20
104.8887973640856
 11
137.249999949222
 21
132.89703459637553
  0
TEXT
  8
_0-9_寸法線層１
 62
    7
 10
87.999999974611001
 20
108.3887973640856
 40
2.5
 41
1
 50
0
  1
96
  0
LINE
  8
_0-9_寸法線層１
  6
CONTINUOUS
 62
    4
 10
155.75754032292721
 20
278.46128500823716
 11
183.75753317036984
 21
278.46128500823716
  0
LINE
  8
_0-9_寸法線層１
  6
CONTINUOUS
 62
    4
 10
155.75754032292721
 20
278.46128500823716
 11
157.68939197550534
 21
278.97892309844224
  0
LINE
  8
_0-9_寸法線層１
  6
CONTINUOUS
 62
    4
 10
155.75754032292721
 20
278.46128500823716
 11
157.68939197550534
 21
277.94364691803213
  0
LINE
  8
_0-9_寸法線層１
  6
CONTINUOUS
 62
    4
 10
183.75753317036984
 20
278.46128500823716
 11
181.82568151779171
 21
277.94364691803213
  0
LINE
  8
_0-9_寸法線層１
  6
CONTINUOUS
 62
    4
 10
183.75753317036984
 20
278.46128500823716
 11
181.82568151779171
 21
278.97892309844224
  0
LINE
  8
_0-9_寸法線層１
  6
CONTINUOUS
 62
    4
 10
155.75754032292721
 20
281.46128500823716
 11
155.75754032292721
 21
270.05271828665565
  0
TEXT
  8
_0-9_寸法線層１
 62
    7
 10
168.50753674664853
 20
278.96128500823716
 40
2.5
 41
1
 50
0
  1
28
  0
LINE
  8
_0-9_寸法線層１
  6
CONTINUOUS
 62
    4
 10
183.75753317036984
 20
278.46128500823716
 11
225.75757084050534
 21
278.46128500823716
  0
LINE
  8
_0-9_寸法線層１
  6
CONTINUOUS
 62
    4
 10
183.75753317036984
 20
278.46128500823716
 11
185.68938482294797
 21
278.97892309844224
  0
LINE
  8
_0-9_寸法線層１
  6
CONTINUOUS
 62
    4
 10
183.75753317036984
 20
278.46128500823716
 11
185.68938482294797
 21
277.94364691803213
  0
LINE
  8
_0-9_寸法線層１
  6
CONTINUOUS
 62
    4
 10
225.75757084050534
 20
278.46128500823716
 11
223.82571918792721
 21
277.94364691803213
  0
LINE
  8
_0-9_寸法線層１
  6
CONTINUOUS
 62
    4
 10
225.75757084050534
 20
278.46128500823716
 11
223.82571918792721
 21
278.97892309844224
  0
TEXT
  8
_0-9_寸法線層１
 62
    7
 10
203.50755200543759
 20
278.96128500823716
 40
2.5
 41
1
 50
0
  1
42
  0
LINE
  8
_0-9_寸法線層１
  6
CONTINUOUS
 62
    4
 10
155.75754032292721
 20
284.84019769357491
 11
225.75757084050534
 21
284.84019769357491
  0
LINE
  8
_0-9_寸法線層１
  6
CONTINUOUS
 62
    4
 10
155.75754032292721
 20
284.84019769357491
 11
157.68939197550534
 21
285.35783578377993
  0
LINE
  8
_0-9_寸法線層１
  6
CONTINUOUS
 62
    4
 10
155.75754032292721
 20
284.84019769357491
 11
157.68939197550534
 21
284.32255960336988
  0
LINE
  8
_0-9_寸法線層１
  6
CONTINUOUS
 62
    4
 10
225.75757084050534
 20
284.84019769357491
 11
223.82571918792721
 21
284.32255960336988
  0
LINE
  8
_0-9_寸法線層１
  6
CONTINUOUS
 62
    4
 10
225.75757084050534
 20
284.84019769357491
 11
223.82571918792721
 21
285.35783578377993
  0
LINE
  8
_0-9_寸法線層１
  6
CONTINUOUS
 62
    4
 10
155.75754032292721
 20
287.84019769357491
 11
155.75754032292721
 21
281.46128500823716
  0
LINE
  8
_0-9_寸法線層１
  6
CONTINUOUS
 62
    4
 10
225.75757084050534
 20
287.84019769357491
 11
225.75757084050534
 21
281.46128500823716
  0
TEXT
  8
_0-9_寸法線層１
 62
    7
 10
189.50755558171628
 20
285.34019769357491
 40
2.5
 41
1
 50
0
  1
70
  0
LINE
  8
_0-9_寸法線層１
  6
CONTINUOUS
 62
    4
 10
30.039538714991693
 20
115.75000933045754
 11
63.769769357495733
 21
115.75000933045754
  0
LINE
  8
_0-9_寸法線層１
  6
CONTINUOUS
 62
    4
 10
298.00757023056377
 20
49.691790225151038
 11
337.50757023056377
 21
49.691790225151038
  0
LINE
  8
_0-9_寸法線層１
  6
CONTINUOUS
 62
    4
 10
298.00757023056377
 20
49.691790225151038
 11
299.9394218831419
 21
50.209428315356078
  0
LINE
  8
_0-9_寸法線層１
  6
CONTINUOUS
 62
    4
 10
298.00757023056377
 20
49.691790225151038
 11
299.9394218831419
 21
49.174152134945999
  0
LINE
  8
_0-9_寸法線層１
  6
CONTINUOUS
 62
    4
 10
337.50757023056377
 20
49.691790225151038
 11
335.57571857798564
 21
49.174152134945999
  0
LINE
  8
_0-9_寸法線層１
  6
CONTINUOUS
 62
    4
 10
337.50757023056377
 20
49.691790225151038
 11
335.57571857798564
 21
50.209428315356078
  0
TEXT
  8
_0-9_寸法線層１
 62
    7
 10
315.25757023056377
 20
50.191790225151038
 40
2.5
 41
1
 50
0
  1
79
  0
LINE
  8
_0-9_寸法線層１
  6
CONTINUOUS
 62
    4
 10
353.68108182317394
 20
129.85203131398274
 11
353.68108182317394
 21
70.211074585780409
  0
LINE
  8
_0-9_寸法線層１
  6
CONTINUOUS
 62
    4
 10
353.68108182317394
 20
129.85203131398274
 11
354.19871991337902
 21
127.9201796614046
  0
LINE
  8
_0-9_寸法線層１
  6
CONTINUOUS
 62
    4
 10
353.68108182317394
 20
129.85203131398274
 11
353.16344373296886
 21
127.9201796614046
  0
LINE
  8
_0-9_寸法線層１
  6
CONTINUOUS
 62
    4
 10
353.68108182317394
 20
70.211074585780409
 11
353.16344373296886
 21
72.142926238358541
  0
LINE
  8
_0-9_寸法線層１
  6
CONTINUOUS
 62
    4
 10
353.68108182317394
 20
70.211074585780409
 11
354.19871991337902
 21
72.142926238358541
  0
TEXT
  8
_0-9_寸法線層１
 62
    7
 10
353.18108182317394
 20
96.906552949881572
 40
2.5
 41
1
 50
90
  1
120
  0
LINE
  8
_0-9_寸法線層１
  6
CONTINUOUS
 62
    4
 10
356.68108182317394
 20
70.211074585780409
 11
296.58990278032002
 21
70.211074585780409
  0
LINE
  8
_0-9_寸法線層１
  6
CONTINUOUS
 62
    4
 10
298.00757023056377
 20
46.691790225151038
 11
298.00757023056377
 21
71.552184391970215
  0
LINE
  8
_0-9_寸法線層１
  6
CONTINUOUS
 62
    4
 10
337.50757023056377
 20
46.691790225151038
 11
337.50757023056377
 21
71.648834584172306
  0
LINE
  8
_0-9_寸法線層１
  6
CONTINUOUS
 62
    4
 10
356.68108182317394
 20
129.85203131398274
 11
316.24613561941942
 21
129.85203131398274
  0
LINE
  8
_0-9_寸法線層１
  6
CONTINUOUS
 62
    4
 10
183.75753317036984
 20
281.46128500823716
 11
183.75753317036984
 21
272.53542009884677
  0
LINE
  8
_0-9_寸法線層１
  6
CONTINUOUS
 62
    4
 10
225.75757084050534
 20
281.46128500823716
 11
225.75757084050534
 21
264.70675453047772
  0
CIRCLE
  8
_0-d_0_1
  6
CONTINUOUS
 62
    7
 10
321.001800127997
 20
114.83172588636528
 40
1.25
  0
CIRCLE
  8
_0-d_0_1
  6
CONTINUOUS
 62
    7
 10
321.001800127997
 20
114.83172588636528
 40
1
  0
LINE
  8
_0-d_0_1
  6
CONTINUOUS
 62
    7
 10
320.96637858257691
 20
115.78406327687978
 11
320.96637858257691
 21
113.84595252769411
  0
LINE
  8
_0-d_0_1
  6
CONTINUOUS
 62
    7
 10
321.81428360039604
 20
113.46830984156281
 11
323.18473485383578
 21
112.09785858812307
  0
LINE
  8
_0-d_0_1
  6
CONTINUOUS
 62
    7
 10
320.96637858257691
 20
113.28406327687978
 11
320.96637858257691
 21
111.34595252769411
  0
TEXT
  8
_0-d_0_1
 62
    7
 10
320.03602246079009
 20
108.42435328838
 40
2
 41
1
 50
0
  1
60
  0
TEXT
  8
_0-d_0_1
 62
    7
 10
323.98105797121099
 20
109.54613502587794
 40
2
 41
1
 50
45
  1
50
  0
LINE
  8
_0-7_注記層１
  6
CONTINUOUS
 62
    7
 10
323.75180203534563
 20
117.281722071668
 11
346.25180203534563
 21
142.28172207166799
  0
LINE
  8
_0-7_注記層１
  6
CONTINUOUS
 62
    7
 10
346.25180203534563
 20
142.28172207166799
 11
376.25180203534563
 21
142.28172207166799
  0
LINE
  8
_0-7_注記層１
  6
CONTINUOUS
 62
    7
 10
323.75180203534563
 20
117.281722071668
 11
325.15662797175281
 21
120.05346594302368
  0
LINE
  8
_0-7_注記層１
  6
CONTINUOUS
 62
    7
 10
323.75180203534563
 20
117.281722071668
 11
326.36076448867323
 21
118.9697430777953
  0
TEXT
  8
_0-7_注記層１
 62
    7
 10
306.25
 20
179.5
 40
3.5
 41
1
 50
0
  1
端子カバー、設定子(白)6個
  0
TEXT
  8
_0-7_注記層１
 62
    7
 10
306.25
 20
183
 40
3.5
 41
1
 50
0
  1
前面カバー、取付ビス3本
  0
TEXT
  8
_0-7_注記層１
 62
    7
 10
358.75180203534563
 20
143.28172207166799
 40
3
 41
1
 50
0
  1
周波数切換
  0
ENDSEC
  0
EOF
