  0
SECTION
  2
HEADER
  9
$ACADVER
  1
AC1009
  9
$INSBASE
 10
0
 20
0
 30
0
  9
$EXTMIN
 10
0
 20
0
  9
$EXTMAX
 10
297
 20
210
  9
$LIMMIN
 10
0
 20
0
  9
$LIMMAX
 10
297
 20
210
  9
$LTSCALE
 40
1
  0
ENDSEC
  0
SECTION
  2
TABLES
  0
TABLE
  2
LTYPE
 70
     9
  0
LTYPE
  2
CONTINUOUS
 70
    64
  3
実線
 72
    65
 73
     0
 40
0.0
  0
LTYPE
  2
DASHED1
 70
    64
  3
--  --  --  --  --  --  --  --  
 72
    65
 73
     2
 40
2.5
 49
1.25
 49
-1.25
  0
LTYPE
  2
DASHED2
 70
    64
  3
----    ----    ----    ----    
 72
    65
 73
     2
 40
5.0
 49
2.5
 49
-2.5
  0
LTYPE
  2
DASHED3
 70
    64
  3
------  ------  ------  ------  
 72
    65
 73
     2
 40
5.0
 49
3.75
 49
-1.25
  0
LTYPE
  2
CENTER1
 70
    64
  3
----- - ----- - ----- - ----- - 
 72
    65
 73
     4
 40
10.0
 49
6.25
 49
-1.25
 49
1.25
 49
-1.25
  0
LTYPE
  2
CENTER2
 70
    64
  3
----------  --  ----------  --  
 72
    65
 73
     4
 40
20.0
 49
12.5
 49
-2.5
 49
2.5
 49
-2.5
  0
LTYPE
  2
PHANTOM1
 70
    64
  3
--- - - --- - - --- - - --- - - 
 72
    65
 73
     6
 40
10.0
 49
3.25
 49
-1.25
 49
1.25
 49
-1.25
 49
1.25
 49
-1.25
  0
LTYPE
  2
PHANTOM2
 70
    64
  3
--------  -  -  --------  -  -  
 72
    65
 73
     6
 40
20.0
 49
10.0
 49
-2.5
 49
1.25
 49
-2.5
 49
1.25
 49
-2.5
  0
LTYPE
  2
DOT
 70
    64
  3
-   -   -   -   -   -   -   -   
 72
    65
 73
     2
 40
2.5
 49
0.625
 49
-1.875
  0
LTYPE
  2
DUMMY
 70
    64
  3
ダミー
 72
    65
 73
     0
 40
0.0
  0
LTYPE
  2
RAND1
 70
    64
  3
ランダム線1
 72
    65
 73
     4
 40
10.0
 49
1.0
 49
-2.0
 49
3.0
 49
-4.0
  0
LTYPE
  2
RAND2
 70
    64
  3
ランダム線2
 72
    65
 73
     4
 40
14.0
 49
2.0
 49
-3.0
 49
4.0
 49
-5.0
  0
LTYPE
  2
RAND3
 70
    64
  3
ランダム線3
 72
    65
 73
     4
 40
18.0
 49
3.0
 49
-4.0
 49
5.0
 49
-6.0
  0
LTYPE
  2
RAND4
 70
    64
  3
ランダム線4
 72
    65
 73
     4
 40
22.0
 49
4.0
 49
-5.0
 49
6.0
 49
-7.0
  0
LTYPE
  2
RAND5
 70
    64
  3
ランダム線5
 72
    65
 73
     4
 40
26.0
 49
5.0
 49
-6.0
 49
7.0
 49
-8.0
  0
LTYPE
  2
LONG1
 70
    64
  3
----------  --  ----------  --  
 72
    65
 73
     4
 40
40.0
 49
32.5
 49
-2.5
 49
2.5
 49
-2.5
  0
LTYPE
  2
LONG2
 70
    64
  3
--------  -  -  --------  -  -  
 72
    65
 73
     6
 40
40.0
 49
30.0
 49
-2.5
 49
1.25
 49
-2.5
 49
1.25
 49
-2.5
  0
LTYPE
  2
LONG3
 70
    64
  3
+++++++++++++++..+++++++++++++++
 72
    65
 73
     2
 40
40.0
 49
37.5
 49
-2.5
  0
LTYPE
  2
LONG4
 70
    64
  3
+++++++++++++++..+++++++++++++++
 72
    65
 73
     2
 40
80.0
 49
75.0
 49
-5.0
  0
LTYPE
  2
LONG5
 70
    64
  3
----------  --  ----------  --  
 72
    65
 73
     4
 40
60.0
 49
37.5
 49
-7.5
 49
7.5
 49
-7.5
  0
LTYPE
  2
dashed
 70
   64
  3
-------   -------------   ------
 72
   65
 73
    2
 40
7.5
 49
6
 49
-1.5
  0
LTYPE
  2
dashed_spaced
 70
   64
  3
----        --------        ----
 72
   65
 73
    2
 40
12
 49
6
 49
-6
  0
LTYPE
  2
long_dashed_dotted
 70
   64
  3
------------- --- --------------
 72
   65
 73
    4
 40
15.25
 49
12
 49
-1.5
 49
0.25
 49
-1.5
  0
LTYPE
  2
long_dashed_double-dotted
 70
   64
  3
----------- --- --- ------------
 72
   65
 73
    6
 40
17
 49
12
 49
-1.5
 49
0.25
 49
-1.5
 49
0.25
 49
-1.5
  0
LTYPE
  2
long_dashed_triplicate-dotted
 70
   64
  3
--------- --- --- --- ----------
 72
   65
 73
    8
 40
18.75
 49
12
 49
-1.5
 49
0.25
 49
-1.5
 49
0.25
 49
-1.5
 49
0.25
 49
-1.5
  0
LTYPE
  2
dotted
 70
   64
  3
   -       -       -       -    
 72
   65
 73
    2
 40
1.75
 49
0.25
 49
-1.5
  0
LTYPE
  2
chain
 70
   64
  3
-------------- -- --------------
 72
   65
 73
    4
 40
18.5
 49
12
 49
-1.5
 49
3.5
 49
-1.5
  0
LTYPE
  2
chain_double_dash
 70
   64
  3
------------ -- -- -------------
 72
   65
 73
    6
 40
23.5
 49
12
 49
-1.5
 49
3.5
 49
-1.5
 49
3.5
 49
-1.5
  0
LTYPE
  2
dashed_dotted
 70
   64
  3
-----------     -     ----------
 72
   65
 73
    4
 40
9.25
 49
6
 49
-1.5
 49
0.25
 49
-1.5
  0
LTYPE
  2
double-dashed_dotted
 70
   64
  3
------   -----------   -   -----
 72
   65
 73
    6
 40
16.75
 49
6
 49
-1.5
 49
6
 49
-1.5
 49
0.25
 49
-1.5
  0
LTYPE
  2
dashed_double-dotted
 70
   64
  3
---------    -    -    ---------
 72
   65
 73
    6
 40
11
 49
6
 49
-1.5
 49
0.25
 49
-1.5
 49
0.25
 49
-1.5
  0
LTYPE
  2
double-dashed_double-dotted
 70
   64
  3
-----   ---------   -   -   ----
 72
   65
 73
    8
 40
18.5
 49
6
 49
-1.5
 49
6
 49
-1.5
 49
0.25
 49
-1.5
 49
0.25
 49
-1.5
  0
LTYPE
  2
dashed_triplicate-dotted
 70
   64
  3
-------    -    -    -    ------
 72
   65
 73
    8
 40
12.75
 49
6
 49
-1.5
 49
0.25
 49
-1.5
 49
0.25
 49
-1.5
 49
0.25
 49
-1.5
  0
LTYPE
  2
double-dashed_triplicate-dotted
 70
   64
  3
-----  ---------  -  -  -  -----
 72
   65
 73
   10
 40
20.25
 49
6
 49
-1.5
 49
6
 49
-1.5
 49
0.25
 49
-1.5
 49
0.25
 49
-1.5
 49
0.25
 49
-1.5
  0
LTYPE
  2
undefined
 70
   64
  3
--------------------------------
 72
   65
 73
    0
 40
0
  0
LTYPE
  2
DASHED
 70
   64
  3
----        --------        ----
 72
   65
 73
    2
 40
4
 49
2
 49
-2
  0
LTYPE
  2
DOT_18
 70
   64
  3
---           -----           --
 72
   65
 73
    2
 40
3
 49
1
 49
-2
  0
LTYPE
  2
DASHDOT
 70
   64
  3
---------    ------    ---------
 72
   65
 73
    4
 40
17
 49
10
 49
-2
 49
3
 49
-2
  0
LTYPE
  2
DIVIDE
 70
   64
  3
-----------  --  --  -----------
 72
   65
 73
    6
 40
30
 49
20
 49
-2
 49
2
 49
-2
 49
2
 49
-2
  0
LTYPE
  2
CENTER
 70
   64
  3
-------------  --  -------------
 72
   65
 73
    4
 40
13
 49
10
 49
-1
 49
1
 49
-1
  0
ENDTAB
  0
TABLE
  2
STYLE
  5
3
100
AcDbSymbolTable
 70
     1
  0
STYLE
  5
10
100
AcDbSymbolTableRecord
100
AcDbTextStyleTableRecord
  2
STANDARD
 70
     0
 40
0.0
 41
1.0
 50
0.0
 71
     0
 42
0.2
  3
txt
  4
bigfont.shx
  0
STYLE
  5
26
100
AcDbSymbolTableRecord
100
AcDbTextStyleTableRecord
  2
TATEGAKI
 70
    68
 40
0.0
 41
1.0
 50
0.0
 71
     0
 42
1.0
  3
txt
  4
bigfont.shx
  0
ENDTAB
  0
TABLE
  2
LAYER
 70
    5
  0
LAYER
  2
_0-0_BaseLayer
 70
   64
 62
    7
  6
CONTINUOUS
  0
LAYER
  2
_0-1_作画層１
 70
   64
 62
    7
  6
CONTINUOUS
  0
LAYER
  2
_0-7_注記層１
 70
   64
 62
    7
  6
CONTINUOUS
  0
LAYER
  2
_0-9_寸法線層１
 70
   64
 62
    7
  6
CONTINUOUS
  0
LAYER
  2
ADD_LINE
 70
   64
 62
    7
  6
CONTINUOUS
  0
ENDTAB
  0
ENDSEC
  0
SECTION
  2
BLOCKS
  0
ENDSEC
  0
SECTION
  2
ENTITIES
  0
LINE
  8
_0-9_寸法線層１
  6
CONTINUOUS
 62
    7
 10
69.132567669943811
 20
163.76170209289913
 11
69.132567025808058
 21
163.76170132798794
  0
LINE
  8
_0-9_寸法線層１
  6
CONTINUOUS
 62
    7
 10
45.074743001817737
 20
186.16170132798794
 11
43.142891349239605
 21
185.64406323778292
  0
LINE
  8
_0-9_寸法線層１
  6
CONTINUOUS
 62
    7
 10
45.074743001817737
 20
186.16170132798794
 11
43.660529439444645
 21
184.74748776561484
  0
LINE
  8
_0-9_寸法線層１
  6
CONTINUOUS
 62
    7
 10
27.257567025808058
 20
179.26170132798794
 11
27.257567025808058
 21
190.76170132798794
  0
ARC
  8
_0-9_寸法線層１
  6
CONTINUOUS
 62
    7
 10
32.257567025808058
 20
178.76170132798794
 40
35.794552658190874
 50
59.999999999999986
 51
180
  0
TEXT
  8
_0-9_寸法線層１
 62
    7
 10
9.7192019038530759
 20
208.23567725122163
 40
3
 41
1
 50
30
  1
120°
  0
TEXT
  8
_0-9_寸法線層１
 62
    7
 10
10.772761783804867
 20
151.48829894267149
 40
3
 41
1
 50
-29.999999999999954
  1
120°
  0
TEXT
  8
_0-7_注記層１
 62
    7
 10
239.625
 20
-15.5
 40
3.5
 41
1
 50
0
  1
1/1
  0
TEXT
  8
_0-7_注記層１
 62
    7
 10
273.75
 20
-13
 40
3.5
 41
1
 50
0
  1
承認
  0
TEXT
  8
_0-7_注記層１
 62
    7
 10
257
 20
-15.5
 40
3.5
 41
1
 50
0
  1
ゴトウ
  0
TEXT
  8
_0-7_注記層１
 62
    7
 10
212.25
 20
-26.25
 40
5
 41
1
 50
0
  1
スナオ電気株式会社
  0
TEXT
  8
_0-7_注記層１
 62
    7
 10
-32.75
 20
233.75
 40
5
 41
1
 50
0
  1
外形寸法
  0
TEXT
  8
_0-7_注記層１
 62
    7
 10
302.25
 20
-15.5
 40
3.5
 41
1
 50
0
  1
ゼンマイタイマー
  0
CIRCLE
  8
_0-1_作画層１
  6
CONTINUOUS
 62
    7
 10
32.257567025808058
 20
178.76170132798794
 40
3
  0
LINE
  8
_0-1_作画層１
  6
CONTINUOUS
 62
    7
 10
27.257567025808044
 20
177.76170132798794
 11
27.257567025808044
 21
179.76170132798794
  0
LINE
  8
_0-1_作画層１
  6
CONTINUOUS
 62
    7
 10
37.257567025808044
 20
179.76170132798794
 11
37.257567025808044
 21
177.76170132798794
  0
LINE
  8
_0-1_作画層１
  6
CONTINUOUS
 62
    7
 10
35.085994150554242
 20
177.76170132798794
 11
37.257567025808058
 21
177.76170132798794
  0
LINE
  8
_0-1_作画層１
  6
CONTINUOUS
 62
    7
 10
35.085994150554242
 20
179.76170132798794
 11
37.257567025808058
 21
179.76170132798794
  0
LINE
  8
_0-1_作画層１
  6
CONTINUOUS
 62
    7
 10
29.429139901061873
 20
179.76170132798794
 11
27.257567025808044
 21
179.76170132798794
  0
LINE
  8
_0-1_作画層１
  6
CONTINUOUS
 62
    7
 10
29.429139901061873
 20
177.76170132798794
 11
27.257567025808044
 21
177.76170132798794
  0
LINE
  8
_0-1_作画層１
  6
CONTINUOUS
 62
    7
 10
17.257567025808044
 20
128.76170132798794
 11
24.662285749430694
 21
132.46406068979925
  0
ARC
  8
_0-1_作画層１
  6
CONTINUOUS
 62
    7
 10
26.898353726930495
 20
127.99192473479982
 40
4.9999999999998712
 50
56.309932474019355
 51
116.56505117707886
  0
LINE
  8
_0-1_作画層１
  6
CONTINUOUS
 62
    7
 10
29.671854708056628
 20
132.15217620648889
 11
32.569147905905766
 21
130.2206474079228
  0
LINE
  8
_0-1_作画層１
  6
CONTINUOUS
 62
    7
 10
47.257567025808072
 20
133.76170132798794
 11
37.199602268802437
 21
129.73851542518568
  0
ARC
  8
_0-1_作画層１
  6
CONTINUOUS
 62
    7
 10
35.342648887031956
 20
134.38089887961198
 40
4.999999999999992
 50
236.30993247401949
 51
291.80140948635136
  0
LINE
  8
_0-1_作画層１
  6
CONTINUOUS
 62
    7
 10
17.257567025808044
 20
126.26170132798794
 11
24.662285749430694
 21
129.96406068979925
  0
ARC
  8
_0-1_作画層１
  6
CONTINUOUS
 62
    7
 10
26.898353726930495
 20
125.49192473479982
 40
4.9999999999998712
 50
56.309932474019355
 51
116.56505117707886
  0
LINE
  8
_0-1_作画層１
  6
CONTINUOUS
 62
    7
 10
29.671854708056628
 20
129.65217620648889
 11
32.569147905905766
 21
127.7206474079228
  0
LINE
  8
_0-1_作画層１
  6
CONTINUOUS
 62
    7
 10
47.257567025808072
 20
131.26170132798794
 11
37.199602268802437
 21
127.23851542518568
  0
ARC
  8
_0-1_作画層１
  6
CONTINUOUS
 62
    7
 10
35.342648887031956
 20
131.88089887961198
 40
4.999999999999992
 50
236.30993247401949
 51
291.80140948635136
  0
CIRCLE
  8
_0-1_作画層１
  6
CONTINUOUS
 62
    7
 10
4.7575670258080436
 20
48.76170132798795
 40
20
  0
LINE
  8
_0-1_作画層１
  6
CONTINUOUS
 62
    7
 10
7.2575670258080436
 20
28.918566495003532
 11
7.2575670258080436
 21
68.604836160972368
  0
LINE
  8
_0-1_作画層１
  6
CONTINUOUS
 62
    7
 10
2.2575670258080436
 20
28.918566495003532
 11
2.2575670258080436
 21
68.604836160972368
  0
ARC
  8
_0-1_作画層１
  6
CONTINUOUS
 62
    7
 10
4.7575670258080436
 20
48.761701327988064
 40
17.499999999999886
 50
98.130102354156008
 51
261.86989764584405
  0
ARC
  8
_0-1_作画層１
  6
CONTINUOUS
 62
    7
 10
4.757567025808072
 20
48.761701327988064
 40
17.499999999999879
 50
278.13010235415589
 51
81.869897645844034
  0
ARC
  8
_0-1_作画層１
  6
CONTINUOUS
 62
    7
 10
4.757567025808072
 20
48.761701327988177
 40
6.7499999999998277
 50
291.73846079152088
 51
68.261539208479107
  0
ARC
  8
_0-1_作画層１
  6
CONTINUOUS
 62
    7
 10
4.757567025808072
 20
48.761701327988177
 40
6.7499999999998144
 50
111.73846079152125
 51
248.26153920847872
  0
LINE
  8
_0-1_作画層１
  6
CONTINUOUS
 62
    7
 10
5.2575670258080436
 20
68.76170132798795
 11
5.2575670258080436
 21
61.26170132798795
  0
LINE
  8
_0-1_作画層１
  6
CONTINUOUS
 62
    7
 10
4.2575670258080436
 20
68.76170132798795
 11
4.2575670258080436
 21
61.26170132798795
  0
LINE
  8
_0-1_作画層１
  6
CONTINUOUS
 62
    7
 10
5.2575670258080436
 20
61.26170132798795
 11
4.2575670258080436
 21
61.26170132798795
  0
LINE
  8
_0-1_作画層１
  6
CONTINUOUS
 62
    7
 10
4.2575670258080436
 20
68.76170132798795
 11
5.2575670258080436
 21
68.76170132798795
  0
LINE
  8
_0-1_作画層１
  6
CONTINUOUS
 62
    7
 10
5.2274155067916581
 20
68.76170132798795
 11
5.2575670258080436
 21
68.731549808971536
  0
LINE
  8
_0-1_作画層１
  6
CONTINUOUS
 62
    7
 10
5.2575670258080436
 20
68.59012845273422
 11
5.0859941505543134
 21
68.76170132798795
  0
LINE
  8
_0-1_作画層１
  6
CONTINUOUS
 62
    7
 10
5.2575670258080436
 20
68.448707096496932
 11
4.9445727943170255
 21
68.76170132798795
  0
LINE
  8
_0-1_作画層１
  6
CONTINUOUS
 62
    7
 10
4.8031514380797375
 20
68.76170132798795
 11
5.2575670258080436
 21
68.307285740259616
  0
LINE
  8
_0-1_作画層１
  6
CONTINUOUS
 62
    7
 10
5.2575670258080436
 20
68.165864384022328
 11
4.6617300818424212
 21
68.76170132798795
  0
LINE
  8
_0-1_作画層１
  6
CONTINUOUS
 62
    7
 10
4.5203087256051049
 20
68.76170132798795
 11
5.2575670258080436
 21
68.024443027784983
  0
LINE
  8
_0-1_作画層１
  6
CONTINUOUS
 62
    7
 10
4.378887369367817
 20
68.76170132798795
 11
5.2575670258080436
 21
67.883021671547695
  0
LINE
  8
_0-1_作画層１
  6
CONTINUOUS
 62
    7
 10
5.2575670258080436
 20
67.741600315310436
 11
4.2575670258080436
 21
68.741600315310436
  0
LINE
  8
_0-1_作画層１
  6
CONTINUOUS
 62
    7
 10
4.2575670258080436
 20
68.600178959073119
 11
5.2575670258080436
 21
67.600178959073119
  0
LINE
  8
_0-1_作画層１
  6
CONTINUOUS
 62
    7
 10
4.2575670258080436
 20
68.458757602835831
 11
5.2575670258080436
 21
67.458757602835831
  0
LINE
  8
_0-1_作画層１
  6
CONTINUOUS
 62
    7
 10
5.2575670258080436
 20
67.317336246598515
 11
4.2575670258080436
 21
68.317336246598515
  0
LINE
  8
_0-1_作画層１
  6
CONTINUOUS
 62
    7
 10
5.2575670258080436
 20
67.175914890361227
 11
4.2575670258080436
 21
68.175914890361227
  0
LINE
  8
_0-1_作画層１
  6
CONTINUOUS
 62
    7
 10
5.2575670258080436
 20
67.034493534123939
 11
4.2575670258080436
 21
68.034493534123939
  0
LINE
  8
_0-1_作画層１
  6
CONTINUOUS
 62
    7
 10
5.2575670258080436
 20
66.893072177886594
 11
4.2575670258080436
 21
67.893072177886594
  0
LINE
  8
_0-1_作画層１
  6
CONTINUOUS
 62
    7
 10
5.2575670258080436
 20
66.751650821649307
 11
4.2575670258080436
 21
67.751650821649307
  0
LINE
  8
_0-1_作画層１
  6
CONTINUOUS
 62
    7
 10
5.2575670258080436
 20
66.610229465412019
 11
4.2575670258080436
 21
67.610229465412019
  0
LINE
  8
_0-1_作画層１
  6
CONTINUOUS
 62
    7
 10
5.2575670258080436
 20
66.468808109174674
 11
4.2575670258080436
 21
67.468808109174674
  0
LINE
  8
_0-1_作画層１
  6
CONTINUOUS
 62
    7
 10
5.2575670258080436
 20
66.327386752937386
 11
4.2575670258080436
 21
67.327386752937386
  0
LINE
  8
_0-1_作画層１
  6
CONTINUOUS
 62
    7
 10
5.2575670258080436
 20
66.185965396700098
 11
4.2575670258080436
 21
67.185965396700098
  0
LINE
  8
_0-1_作画層１
  6
CONTINUOUS
 62
    7
 10
5.2575670258080436
 20
66.04454404046281
 11
4.2575670258080436
 21
67.04454404046281
  0
LINE
  8
_0-1_作画層１
  6
CONTINUOUS
 62
    7
 10
4.2575670258080436
 20
66.903122684225494
 11
5.2575670258080436
 21
65.903122684225494
  0
LINE
  8
_0-1_作画層１
  6
CONTINUOUS
 62
    7
 10
5.2575670258080436
 20
65.761701327988206
 11
4.2575670258080436
 21
66.761701327988206
  0
LINE
  8
_0-1_作画層１
  6
CONTINUOUS
 62
    7
 10
4.2575670258080436
 20
66.620279971750861
 11
5.2575670258080436
 21
65.620279971750861
  0
LINE
  8
_0-1_作画層１
  6
CONTINUOUS
 62
    7
 10
5.2575670258080436
 20
65.478858615513602
 11
4.2575670258080436
 21
66.478858615513602
  0
LINE
  8
_0-1_作画層１
  6
CONTINUOUS
 62
    7
 10
5.2575670258080436
 20
65.337437259276257
 11
4.2575670258080436
 21
66.337437259276257
  0
LINE
  8
_0-1_作画層１
  6
CONTINUOUS
 62
    7
 10
4.2575670258080436
 20
66.196015903038997
 11
5.2575670258080436
 21
65.196015903038997
  0
LINE
  8
_0-1_作画層１
  6
CONTINUOUS
 62
    7
 10
4.2575670258080436
 20
66.054594546801653
 11
5.2575670258080436
 21
65.054594546801653
  0
LINE
  8
_0-1_作画層１
  6
CONTINUOUS
 62
    7
 10
5.2575670258080436
 20
64.913173190564393
 11
4.2575670258080436
 21
65.913173190564393
  0
LINE
  8
_0-1_作画層１
  6
CONTINUOUS
 62
    7
 10
4.2575670258080436
 20
65.771751834327077
 11
5.2575670258080436
 21
64.771751834327077
  0
LINE
  8
_0-1_作画層１
  6
CONTINUOUS
 62
    7
 10
4.2575670258080436
 20
65.630330478089789
 11
5.2575670258080436
 21
64.630330478089789
  0
LINE
  8
_0-1_作画層１
  6
CONTINUOUS
 62
    7
 10
5.2575670258080436
 20
64.488909121852444
 11
4.2575670258080436
 21
65.488909121852444
  0
LINE
  8
_0-1_作画層１
  6
CONTINUOUS
 62
    7
 10
5.2575670258080436
 20
64.347487765615156
 11
4.2575670258080436
 21
65.347487765615156
  0
LINE
  8
_0-1_作画層１
  6
CONTINUOUS
 62
    7
 10
4.2575670258080436
 20
65.206066409377868
 11
5.2575670258080436
 21
64.206066409377868
  0
LINE
  8
_0-1_作画層１
  6
CONTINUOUS
 62
    7
 10
4.2575670258080436
 20
65.06464505314058
 11
5.2575670258080436
 21
64.06464505314058
  0
LINE
  8
_0-1_作画層１
  6
CONTINUOUS
 62
    7
 10
4.2575670258080436
 20
64.923223696903236
 11
5.2575670258080436
 21
63.923223696903236
  0
LINE
  8
_0-1_作画層１
  6
CONTINUOUS
 62
    7
 10
5.2575670258080436
 20
63.781802340665948
 11
4.2575670258080436
 21
64.781802340665948
  0
LINE
  8
_0-1_作画層１
  6
CONTINUOUS
 62
    7
 10
5.2575670258080436
 20
63.64038098442866
 11
4.2575670258080436
 21
64.64038098442866
  0
LINE
  8
_0-1_作画層１
  6
CONTINUOUS
 62
    7
 10
4.2575670258080436
 20
64.498959628191372
 11
5.2575670258080436
 21
63.498959628191372
  0
LINE
  8
_0-1_作画層１
  6
CONTINUOUS
 62
    7
 10
4.2575670258080436
 20
64.357538271954027
 11
5.2575670258080436
 21
63.357538271954027
  0
LINE
  8
_0-1_作画層１
  6
CONTINUOUS
 62
    7
 10
5.2575670258080436
 20
63.216116915716768
 11
4.2575670258080436
 21
64.216116915716768
  0
LINE
  8
_0-1_作画層１
  6
CONTINUOUS
 62
    7
 10
5.2575670258080436
 20
63.074695559479451
 11
4.2575670258080436
 21
64.074695559479451
  0
LINE
  8
_0-1_作画層１
  6
CONTINUOUS
 62
    7
 10
4.2575670258080436
 20
63.933274203242163
 11
5.2575670258080436
 21
62.933274203242163
  0
LINE
  8
_0-1_作画層１
  6
CONTINUOUS
 62
    7
 10
5.2575670258080436
 20
62.791852847004876
 11
4.2575670258080436
 21
63.791852847004876
  0
LINE
  8
_0-1_作画層１
  6
CONTINUOUS
 62
    7
 10
5.2575670258080436
 20
62.650431490767531
 11
4.2575670258080436
 21
63.650431490767531
  0
LINE
  8
_0-1_作画層１
  6
CONTINUOUS
 62
    7
 10
4.2575670258080436
 20
63.509010134530243
 11
5.2575670258080436
 21
62.509010134530243
  0
LINE
  8
_0-1_作画層１
  6
CONTINUOUS
 62
    7
 10
5.2575670258080436
 20
62.367588778292955
 11
4.2575670258080436
 21
63.367588778292955
  0
LINE
  8
_0-1_作画層１
  6
CONTINUOUS
 62
    7
 10
5.2575670258080436
 20
62.22616742205561
 11
4.2575670258080436
 21
63.22616742205561
  0
LINE
  8
_0-1_作画層１
  6
CONTINUOUS
 62
    7
 10
5.2575670258080436
 20
62.084746065818351
 11
4.2575670258080436
 21
63.084746065818351
  0
LINE
  8
_0-1_作画層１
  6
CONTINUOUS
 62
    7
 10
5.2575670258080436
 20
61.943324709581034
 11
4.2575670258080436
 21
62.943324709581034
  0
LINE
  8
_0-1_作画層１
  6
CONTINUOUS
 62
    7
 10
5.2575670258080436
 20
61.80190335334369
 11
4.2575670258080436
 21
62.80190335334369
  0
LINE
  8
_0-1_作画層１
  6
CONTINUOUS
 62
    7
 10
5.2575670258080436
 20
61.660481997106373
 11
4.2575670258080436
 21
62.660481997106373
  0
LINE
  8
_0-1_作画層１
  6
CONTINUOUS
 62
    7
 10
5.2575670258080436
 20
61.519060640869142
 11
4.2575670258080436
 21
62.519060640869142
  0
LINE
  8
_0-1_作画層１
  6
CONTINUOUS
 62
    7
 10
4.2575670258080436
 20
62.377639284631826
 11
5.2575670258080436
 21
61.377639284631826
  0
LINE
  8
_0-1_作画層１
  6
CONTINUOUS
 62
    7
 10
5.2320836262146031
 20
61.26170132798795
 11
4.2575670258080436
 21
62.23621792839451
  0
LINE
  8
_0-1_作画層１
  6
CONTINUOUS
 62
    7
 10
5.0906622699773436
 20
61.26170132798795
 11
4.2575670258080436
 21
62.09479657215725
  0
LINE
  8
_0-1_作画層１
  6
CONTINUOUS
 62
    7
 10
4.9492409137400273
 20
61.26170132798795
 11
4.2575670258080436
 21
61.953375215919905
  0
LINE
  8
_0-1_作画層１
  6
CONTINUOUS
 62
    7
 10
4.2575670258080436
 20
61.811953859682617
 11
4.8078195575027394
 21
61.26170132798795
  0
LINE
  8
_0-1_作画層１
  6
CONTINUOUS
 62
    7
 10
4.666398201265423
 20
61.26170132798795
 11
4.2575670258080436
 21
61.67053250344533
  0
LINE
  8
_0-1_作画層１
  6
CONTINUOUS
 62
    7
 10
4.5249768450281067
 20
61.26170132798795
 11
4.2575670258080436
 21
61.529111147207985
  0
LINE
  8
_0-1_作画層１
  6
CONTINUOUS
 62
    7
 10
4.3835554887908188
 20
61.26170132798795
 11
4.2575670258080436
 21
61.387689790970725
  0
LINE
  8
_0-1_作画層１
  6
CONTINUOUS
 62
    7
 10
49.757567025808072
 20
68.76170132798795
 11
49.757567025808086
 21
28.761701327987964
  0
LINE
  8
_0-1_作画層１
  6
CONTINUOUS
 62
    7
 10
53.757567025808086
 20
28.761701327987964
 11
49.757567025808086
 21
28.761701327987964
  0
LINE
  8
_0-1_作画層１
  6
CONTINUOUS
 62
    7
 10
53.757567025808044
 20
56.074201327987907
 11
65.757567025808072
 21
55.511701327987765
  0
LINE
  8
_0-1_作画層１
  6
CONTINUOUS
 62
    7
 10
53.757567025808171
 20
41.449201327988007
 11
65.757567025808086
 21
42.011701327988149
  0
LINE
  8
_0-1_作画層１
  6
CONTINUOUS
 62
    7
 10
47.257567025808072
 20
56.26170132798795
 11
47.257567025808086
 21
41.26170132798795
  0
LINE
  8
_0-1_作画層１
  6
CONTINUOUS
 62
    7
 10
47.257567025808086
 20
41.26170132798795
 11
49.757567025808086
 21
41.26170132798795
  0
LINE
  8
_0-1_作画層１
  6
CONTINUOUS
 62
    7
 10
47.257567025808072
 20
56.26170132798795
 11
49.757567025808072
 21
56.26170132798795
  0
LINE
  8
_0-1_作画層１
  6
CONTINUOUS
 62
    7
 10
65.757567025808029
 20
55.511701327987765
 11
65.757567025808086
 21
42.011701327988149
  0
LINE
  8
_0-1_作画層１
  6
CONTINUOUS
 62
    7
 10
53.757567025808058
 20
68.76170132798795
 11
53.757567025808086
 21
28.761701327987964
  0
LINE
  8
_0-1_作画層１
  6
CONTINUOUS
 62
    7
 10
59.257567025808058
 20
68.76170132798795
 11
49.757567025808072
 21
68.76170132798795
  0
LINE
  8
_0-1_作画層１
  6
CONTINUOUS
 62
    7
 10
67.757567025808072
 20
66.26170132798795
 11
59.257567025808058
 21
68.76170132798795
  0
LINE
  8
_0-1_作画層１
  6
CONTINUOUS
 62
    7
 10
66.757567025808029
 20
55.511701327987765
 11
66.757567025808086
 21
42.011701327988149
  0
LINE
  8
_0-1_作画層１
  6
CONTINUOUS
 62
    7
 10
67.757567025808072
 20
66.261701327987964
 11
66.757567025808029
 21
55.511701327987765
  0
LINE
  8
_0-1_作画層１
  6
CONTINUOUS
 62
    7
 10
59.257567025808058
 20
28.76170132798795
 11
49.757567025808072
 21
28.76170132798795
  0
LINE
  8
_0-1_作画層１
  6
CONTINUOUS
 62
    7
 10
67.757567025808072
 20
31.26170132798795
 11
59.257567025808058
 21
28.76170132798795
  0
LINE
  8
_0-1_作画層１
  6
CONTINUOUS
 62
    7
 10
67.757567025808072
 20
31.261701327987936
 11
66.757567025808029
 21
42.011701327988135
  0
LINE
  8
_0-1_作画層１
  6
CONTINUOUS
 62
    7
 10
-15.242432974191956
 20
-3.7382986720120499
 11
24.757567025808058
 21
-3.7382986720120499
  0
LINE
  8
_0-1_作画層１
  6
CONTINUOUS
 62
    7
 10
-15.242432974191956
 20
0.26170132798795
 11
-15.242432974191956
 21
-3.7382986720120499
  0
LINE
  8
_0-1_作画層１
  6
CONTINUOUS
 62
    7
 10
24.757567025808058
 20
0.26170132798795
 11
24.757567025808058
 21
-3.7382986720120499
  0
LINE
  8
_0-1_作画層１
  6
CONTINUOUS
 62
    7
 10
1.8745883024037937
 20
14.761701327987922
 11
1.2575670258080436
 21
0.26170132798795
  0
LINE
  8
_0-1_作画層１
  6
CONTINUOUS
 62
    7
 10
7.6998747181157512
 20
14.761701327988035
 11
8.2575670258080436
 21
0.26170132798795
  0
LINE
  8
_0-1_作画層１
  6
CONTINUOUS
 62
    7
 10
8.2575670258080436
 20
0.26170132798795
 11
24.757567025808058
 21
0.26170132798795
  0
LINE
  8
_0-1_作画層１
  6
CONTINUOUS
 62
    7
 10
1.2575670258080436
 20
0.26170132798795
 11
-15.242432974191956
 21
0.26170132798795
  0
LINE
  8
_0-1_作画層１
  6
CONTINUOUS
 62
    7
 10
5.2575670258080436
 20
14.76170132798795
 11
4.2575670258080436
 21
14.76170132798795
  0
LINE
  8
_0-1_作画層１
  6
CONTINUOUS
 62
    7
 10
8.0267977950388172
 20
6.2617013279879501
 11
1.5128861747442386
 21
6.2617013279879501
  0
LINE
  8
_0-1_作画層１
  6
CONTINUOUS
 62
    7
 10
7.6998747181157512
 20
14.76170132798795
 11
1.8745883024038221
 21
14.76170132798795
  0
LINE
  8
_0-1_作画層１
  6
CONTINUOUS
 62
    7
 10
7.7960285642695908
 20
12.26170132798795
 11
11.507567025807873
 21
12.26170132798795
  0
LINE
  8
_0-1_作画層１
  6
CONTINUOUS
 62
    7
 10
1.7682053236804052
 20
12.26170132798795
 11
-1.9924329741917575
 21
12.26170132798795
  0
LINE
  8
_0-1_作画層１
  6
CONTINUOUS
 62
    7
 10
-2.5549329741918996
 20
0.2617013279879216
 11
-1.9924329741917575
 21
12.26170132798795
  0
LINE
  8
_0-1_作画層１
  6
CONTINUOUS
 62
    7
 10
12.070067025807987
 20
0.2617013279880353
 11
11.507567025807873
 21
12.26170132798795
  0
LINE
  8
_0-1_作画層１
  6
CONTINUOUS
 62
    7
 10
-2.7424329741919564
 20
-6.2382986720120499
 11
12.257567025808044
 21
-6.2382986720120499
  0
LINE
  8
_0-1_作画層１
  6
CONTINUOUS
 62
    7
 10
12.257567025808044
 20
-6.2382986720120499
 11
12.257567025808044
 21
-3.7382986720120499
  0
LINE
  8
_0-1_作画層１
  6
CONTINUOUS
 62
    7
 10
-2.7424329741919564
 20
-6.2382986720120499
 11
-2.7424329741919564
 21
-3.7382986720120499
  0
LINE
  8
_0-1_作画層１
  6
CENTER
 62
    7
 10
4.7575670258080436
 20
-13.73829867201205
 11
4.7575670258080436
 21
18.761701327987936
  0
LINE
  8
_0-1_作画層１
  6
CENTER
 62
    7
 10
42.257567025808058
 20
48.76170132798795
 11
72.257567025808058
 21
48.76170132798795
  0
LINE
  8
_0-1_作画層１
  6
CENTER
 62
    7
 10
4.7575670258080436
 20
23.761701327987936
 11
4.7575670258080436
 21
76.26170132798795
  0
LINE
  8
_0-1_作画層１
  6
CENTER
 62
    7
 10
-20.242432974191956
 20
48.76170132798795
 11
32.257567025808072
 21
48.76170132798795
  0
LINE
  8
_0-1_作画層１
  6
CONTINUOUS
 62
    7
 10
269.75756702580804
 20
56.26170132798795
 11
269.75756702580804
 21
53.26170132798795
  0
LINE
  8
_0-1_作画層１
  6
CONTINUOUS
 62
    7
 10
283.75756702580804
 20
56.26170132798795
 11
283.75756702580804
 21
53.26170132798795
  0
LINE
  8
_0-1_作画層１
  6
CONTINUOUS
 62
    7
 10
273.557567025808
 20
53.26170132798795
 11
273.557567025808
 21
48.26170132798795
  0
LINE
  8
_0-1_作画層１
  6
CONTINUOUS
 62
    7
 10
279.95756702580809
 20
53.26170132798795
 11
279.95756702580809
 21
48.26170132798795
  0
LINE
  8
_0-1_作画層１
  6
CONTINUOUS
 62
    7
 10
279.95756702580809
 20
53.26170132798795
 11
283.75756702580804
 21
53.26170132798795
  0
LINE
  8
_0-1_作画層１
  6
CONTINUOUS
 62
    7
 10
273.557567025808
 20
53.26170132798795
 11
269.75756702580804
 21
53.26170132798795
  0
LINE
  8
_0-1_作画層１
  6
CONTINUOUS
 62
    7
 10
259.75756702580804
 20
56.26170132798795
 11
269.75756702580804
 21
56.26170132798795
  0
LINE
  8
_0-1_作画層１
  6
CONTINUOUS
 62
    7
 10
296.35756702580795
 20
48.26170132798795
 11
279.95756702580809
 21
48.26170132798795
  0
LINE
  8
_0-1_作画層１
  6
CONTINUOUS
 62
    7
 10
294.75756702580804
 20
56.26170132798795
 11
283.75756702580804
 21
56.26170132798795
  0
LINE
  8
_0-1_作画層１
  6
CONTINUOUS
 62
    7
 10
296.35756702580807
 20
48.261701327988092
 11
294.75756702580804
 21
56.26170132798795
  0
LINE
  8
_0-1_作画層１
  6
CONTINUOUS
 62
    7
 10
257.25756702580804
 20
66.26170132798795
 11
261.47898264289483
 21
57.818870093814354
  0
ARC
  8
_0-1_作画層１
  6
CONTINUOUS
 62
    7
 10
258.79570106989513
 20
56.477229307314502
 40
2.9999999999999507
 50
326.30993247401915
 51
26.565051177078004
  0
LINE
  8
_0-1_作画層１
  6
CONTINUOUS
 62
    7
 10
261.29185195290859
 20
54.813128718638794
 11
258.36696741825847
 21
50.425801916663588
  0
LINE
  8
_0-1_作画層１
  6
CONTINUOUS
 62
    7
 10
262.25756702580804
 20
41.26170132798795
 11
258.36696741825853
 21
47.097600739312256
  0
ARC
  8
_0-1_作画層１
  6
CONTINUOUS
 62
    7
 10
260.8631183012717
 20
48.761701327987964
 40
2.9999999999997127
 50
146.30993247401807
 51
213.69006752598392
  0
LINE
  8
_0-1_作画層１
  6
CONTINUOUS
 62
    7
 10
257.90507840972219
 20
48.26170132798795
 11
273.557567025808
 21
48.26170132798795
  0
LINE
  8
_0-1_作画層１
  6
CENTER
 62
    7
 10
276.75756702580804
 20
36.26170132798795
 11
276.75756702580804
 21
66.26170132798795
  0
TEXT
  8
_0-7_注記層１
 62
    7
 10
269.38256702580804
 20
79.51170132798795
 40
3.5
 41
1
 50
0
  1
図 Ａ－Ａ
  0
LINE
  8
_0-1_作画層１
  6
CONTINUOUS
 62
    7
 10
267.25756702580804
 20
78.76170132798795
 11
287.25756702580804
 21
78.76170132798795
  0
LINE
  8
_0-1_作画層１
  6
CONTINUOUS
 62
    7
 10
287.25756702580804
 20
78.76170132798795
 11
287.25756702580804
 21
83.76170132798795
  0
LINE
  8
_0-1_作画層１
  6
CONTINUOUS
 62
    7
 10
287.25756702580804
 20
83.76170132798795
 11
267.25756702580804
 21
83.76170132798795
  0
LINE
  8
_0-1_作画層１
  6
CONTINUOUS
 62
    7
 10
267.25756702580804
 20
83.76170132798795
 11
267.25756702580804
 21
78.76170132798795
  0
LINE
  8
_0-1_作画層１
  6
CONTINUOUS
 62
    7
 10
187.77006702580803
 20
-2.1757986720120357
 11
189.25756702580804
 21
-7.4882986720120357
  0
LINE
  8
_0-1_作画層１
  6
CONTINUOUS
 62
    7
 10
116.37319202580809
 20
-2.1757986720120357
 11
115.25756702580804
 21
-7.4882986720120357
  0
LINE
  8
_0-1_作画層１
  6
CONTINUOUS
 62
    7
 10
109.75756702580807
 20
-7.4882986720120357
 11
109.75756702580807
 21
-2.1757986720120357
  0
LINE
  8
_0-1_作画層１
  6
CONTINUOUS
 62
    7
 10
194.75756702580807
 20
-7.4882986720120499
 11
194.75756702580807
 21
-2.1757986720120357
  0
LINE
  8
_0-1_作画層１
  6
CONTINUOUS
 62
    7
 10
194.75756702580807
 20
-7.4882986720120357
 11
109.75756702580807
 21
-7.4882986720120357
  0
LINE
  8
_0-1_作画層１
  6
CONTINUOUS
 62
    7
 10
194.75756702580807
 20
-2.1757986720120357
 11
109.75756702580807
 21
-2.1757986720120357
  0
ARC
  8
_0-1_作画層１
  6
CONTINUOUS
 62
    7
 10
120.66722546944627
 20
87.011701327987794
 40
5.0000000000001421
 50
90.000000000000313
 51
146.11313828763161
  0
ARC
  8
_0-1_作画層１
  6
CONTINUOUS
 62
    7
 10
183.84790858216985
 20
87.011701327987794
 40
5.0000000000001421
 50
33.886861712368201
 51
89.999999999999005
  0
LINE
  8
_0-1_作画層１
  6
CONTINUOUS
 62
    7
 10
183.84790858216994
 20
92.011701327987936
 11
120.66722546944624
 21
92.011701327987936
  0
LINE
  8
_0-1_作画層１
  6
CONTINUOUS
 62
    7
 10
116.00409250569456
 20
88.933474536457027
 11
115.20388280033652
 21
86.846784153885125
  0
LINE
  8
_0-1_作画層１
  6
CONTINUOUS
 62
    7
 10
115.20388280033652
 20
86.846784153885125
 11
114.45499648987669
 21
84.715998708659043
  0
LINE
  8
_0-1_作画層１
  6
CONTINUOUS
 62
    7
 10
114.45499648987669
 20
84.715998708659043
 11
113.75847086355228
 21
82.544069571071191
  0
LINE
  8
_0-1_作画層１
  6
CONTINUOUS
 62
    7
 10
113.75847086355228
 20
82.544069571071191
 11
113.11527068534082
 21
80.334005099916396
  0
LINE
  8
_0-1_作画層１
  6
CONTINUOUS
 62
    7
 10
113.11527068534082
 20
80.334005099916396
 11
112.52628685765694
 21
78.08886647558667
  0
LINE
  8
_0-1_作画層１
  6
CONTINUOUS
 62
    7
 10
112.52628685765694
 20
78.08886647558667
 11
111.99233518735508
 21
75.81176346000251
  0
LINE
  8
_0-1_作画層１
  6
CONTINUOUS
 62
    7
 10
111.99233518735508
 20
75.81176346000251
 11
111.51415525574834
 21
73.505850089253315
  0
LINE
  8
_0-1_作画層１
  6
CONTINUOUS
 62
    7
 10
111.51415525574834
 20
73.505850089253315
 11
111.09240939420735
 21
71.17432030491338
  0
LINE
  8
_0-1_作画層１
  6
CONTINUOUS
 62
    7
 10
111.09240939420735
 20
71.17432030491338
 11
110.72768176675933
 21
68.82040353008432
  0
LINE
  8
_0-1_作画層１
  6
CONTINUOUS
 62
    7
 10
110.72768176675933
 20
68.82040353008432
 11
110.42047756095698
 21
66.447360196291854
  0
LINE
  8
_0-1_作画層１
  6
CONTINUOUS
 62
    7
 10
110.42047756095698
 20
66.447360196291854
 11
110.17122228813872
 21
64.058477227432391
  0
LINE
  8
_0-1_作画層１
  6
CONTINUOUS
 62
    7
 10
110.17122228813872
 20
64.058477227432391
 11
109.98026119404915
 21
61.657063487024885
  0
LINE
  8
_0-1_作画層１
  6
CONTINUOUS
 62
    7
 10
109.98026119404915
 20
61.657063487024885
 11
109.84785878063573
 21
59.246445195073875
  0
LINE
  8
_0-1_作画層１
  6
CONTINUOUS
 62
    7
 10
109.84785878063573
 20
59.246445195073875
 11
109.77419843968508
 21
56.82996132089194
  0
LINE
  8
_0-1_作画層１
  6
CONTINUOUS
 62
    7
 10
109.77419843968508
 20
56.82996132089194
 11
109.75938219880516
 21
54.410958958262924
  0
LINE
  8
_0-1_作画層１
  6
CONTINUOUS
 62
    7
 10
109.75938219880516
 20
54.410958958262924
 11
109.80343058010587
 21
51.99278868935194
  0
LINE
  8
_0-1_作画層１
  6
CONTINUOUS
 62
    7
 10
109.80343058010587
 20
51.99278868935194
 11
109.90628257177383
 21
49.57879994378348
  0
LINE
  8
_0-1_作画層１
  6
CONTINUOUS
 62
    7
 10
109.90628257177383
 20
49.57879994378348
 11
110.06779571258028
 21
47.172336359316091
  0
LINE
  8
_0-1_作画層１
  6
CONTINUOUS
 62
    7
 10
110.06779571258028
 20
47.172336359316091
 11
110.2877462892055
 21
44.776731150539234
  0
LINE
  8
_0-1_作画層１
  6
CONTINUOUS
 62
    7
 10
110.2877462892055
 20
44.776731150539234
 11
110.56582964610607
 21
42.395302492007474
  0
LINE
  8
_0-1_作画層１
  6
CONTINUOUS
 62
    7
 10
110.56582964610607
 20
42.395302492007474
 11
110.90166060749613
 21
40.031348922206774
  0
LINE
  8
_0-1_作画層１
  6
CONTINUOUS
 62
    7
 10
110.90166060749613
 20
40.031348922206774
 11
111.29477401085779
 21
37.688144774718779
  0
LINE
  8
_0-1_作画層１
  6
CONTINUOUS
 62
    7
 10
111.29477401085779
 20
37.688144774718779
 11
111.74462535124209
 21
35.36893564291168
  0
LINE
  8
_0-1_作画層１
  6
CONTINUOUS
 62
    7
 10
111.74462535124209
 20
35.36893564291168
 11
112.25059153546755
 21
33.076933884439271
  0
LINE
  8
_0-1_作画層１
  6
CONTINUOUS
 62
    7
 10
112.25059153546755
 20
33.076933884439271
 11
112.81197174517237
 21
30.815314171775199
  0
LINE
  8
_0-1_作画層１
  6
CONTINUOUS
 62
    7
 10
112.81197174517237
 20
30.815314171775199
 11
113.4279884075242
 21
28.587209094945223
  0
LINE
  8
_0-1_作画層１
  6
CONTINUOUS
 62
    7
 10
113.4279884075242
 20
28.587209094945223
 11
114.09778827224346
 21
26.395704822548325
  0
LINE
  8
_0-1_作画層１
  6
CONTINUOUS
 62
    7
 10
114.09778827224346
 20
26.395704822548325
 11
114.820443593448
 21
24.243836827076493
  0
LINE
  8
_0-1_作画層１
  6
CONTINUOUS
 62
    7
 10
114.820443593448
 20
24.243836827076493
 11
115.59495341468229
 21
22.13458568045418
  0
LINE
  8
_0-1_作画層１
  6
CONTINUOUS
 62
    7
 10
115.59495341468229
 20
22.13458568045418
 11
116.42024495535145
 21
20.070872925621103
  0
LINE
  8
_0-1_作画層１
  6
CONTINUOUS
 62
    7
 10
188.09488909626467
 20
20.070872925621018
 11
188.92018063693376
 21
22.134585680454109
  0
LINE
  8
_0-1_作画層１
  6
CONTINUOUS
 62
    7
 10
188.92018063693376
 20
22.134585680454109
 11
189.69469045816805
 21
24.243836827076422
  0
LINE
  8
_0-1_作画層１
  6
CONTINUOUS
 62
    7
 10
189.69469045816805
 20
24.243836827076422
 11
190.4173457793726
 21
26.395704822548254
  0
LINE
  8
_0-1_作画層１
  6
CONTINUOUS
 62
    7
 10
190.4173457793726
 20
26.395704822548254
 11
191.08714564409189
 21
28.587209094945152
  0
LINE
  8
_0-1_作画層１
  6
CONTINUOUS
 62
    7
 10
191.08714564409189
 20
28.587209094945152
 11
191.70316230644374
 21
30.815314171775114
  0
LINE
  8
_0-1_作画層１
  6
CONTINUOUS
 62
    7
 10
191.70316230644374
 20
30.815314171775114
 11
192.26454251614854
 21
33.076933884439185
  0
LINE
  8
_0-1_作画層１
  6
CONTINUOUS
 62
    7
 10
192.26454251614854
 20
33.076933884439185
 11
192.77050870037399
 21
35.36893564291158
  0
LINE
  8
_0-1_作画層１
  6
CONTINUOUS
 62
    7
 10
192.77050870037399
 20
35.36893564291158
 11
193.22036004075829
 21
37.68814477471868
  0
LINE
  8
_0-1_作画層１
  6
CONTINUOUS
 62
    7
 10
193.22036004075829
 20
37.68814477471868
 11
193.61347344412002
 21
40.031348922206675
  0
LINE
  8
_0-1_作画層１
  6
CONTINUOUS
 62
    7
 10
193.61347344412002
 20
40.031348922206675
 11
193.94930440551008
 21
42.395302492007374
  0
LINE
  8
_0-1_作画層１
  6
CONTINUOUS
 62
    7
 10
193.94930440551008
 20
42.395302492007374
 11
194.22738776241064
 21
44.776731150539135
  0
LINE
  8
_0-1_作画層１
  6
CONTINUOUS
 62
    7
 10
194.22738776241064
 20
44.776731150539135
 11
194.44733833903587
 21
47.172336359315992
  0
LINE
  8
_0-1_作画層１
  6
CONTINUOUS
 62
    7
 10
194.44733833903587
 20
47.172336359315992
 11
194.60885147984231
 21
49.57879994378338
  0
LINE
  8
_0-1_作画層１
  6
CONTINUOUS
 62
    7
 10
194.60885147984231
 20
49.57879994378338
 11
194.7117034715103
 21
51.992788689351841
  0
LINE
  8
_0-1_作画層１
  6
CONTINUOUS
 62
    7
 10
194.7117034715103
 20
51.992788689351841
 11
194.75575185281102
 21
54.410958958262825
  0
LINE
  8
_0-1_作画層１
  6
CONTINUOUS
 62
    7
 10
194.75575185281102
 20
54.410958958262825
 11
194.74093561193109
 21
56.82996132089184
  0
LINE
  8
_0-1_作画層１
  6
CONTINUOUS
 62
    7
 10
194.74093561193109
 20
56.82996132089184
 11
194.66727527098044
 21
59.246445195073775
  0
LINE
  8
_0-1_作画層１
  6
CONTINUOUS
 62
    7
 10
194.66727527098044
 20
59.246445195073775
 11
194.53487285756705
 21
61.6570634870248
  0
LINE
  8
_0-1_作画層１
  6
CONTINUOUS
 62
    7
 10
194.53487285756705
 20
61.6570634870248
 11
194.34391176347745
 21
64.058477227432306
  0
LINE
  8
_0-1_作画層１
  6
CONTINUOUS
 62
    7
 10
194.34391176347745
 20
64.058477227432306
 11
194.09465649065922
 21
66.447360196291783
  0
LINE
  8
_0-1_作画層１
  6
CONTINUOUS
 62
    7
 10
194.09465649065922
 20
66.447360196291783
 11
193.78745228485687
 21
68.820403530084249
  0
LINE
  8
_0-1_作画層１
  6
CONTINUOUS
 62
    7
 10
193.78745228485687
 20
68.820403530084249
 11
193.42272465740885
 21
71.174320304913309
  0
LINE
  8
_0-1_作画層１
  6
CONTINUOUS
 62
    7
 10
193.42272465740885
 20
71.174320304913309
 11
193.00097879586787
 21
73.505850089253258
  0
LINE
  8
_0-1_作画層１
  6
CONTINUOUS
 62
    7
 10
193.00097879586787
 20
73.505850089253258
 11
192.52279886426112
 21
75.811763460002453
  0
LINE
  8
_0-1_作画層１
  6
CONTINUOUS
 62
    7
 10
192.52279886426112
 20
75.811763460002453
 11
191.98884719395929
 21
78.088866475586613
  0
LINE
  8
_0-1_作画層１
  6
CONTINUOUS
 62
    7
 10
191.98884719395929
 20
78.088866475586613
 11
191.39986336627538
 21
80.33400509991634
  0
LINE
  8
_0-1_作画層１
  6
CONTINUOUS
 62
    7
 10
191.39986336627538
 20
80.33400509991634
 11
190.75666318806395
 21
82.544069571071148
  0
LINE
  8
_0-1_作画層１
  6
CONTINUOUS
 62
    7
 10
190.75666318806395
 20
82.544069571071148
 11
190.06013756173954
 21
84.715998708659001
  0
LINE
  8
_0-1_作画層１
  6
CONTINUOUS
 62
    7
 10
190.06013756173954
 20
84.715998708659001
 11
189.31125125127971
 21
86.84678415388511
  0
LINE
  8
_0-1_作画層１
  6
CONTINUOUS
 62
    7
 10
189.31125125127971
 20
86.84678415388511
 11
188.51104154592161
 21
88.93347453645697
  0
LINE
  8
_0-1_作画層１
  6
CONTINUOUS
 62
    7
 10
152.25756702580807
 20
-16.863298672012036
 11
152.25756702580807
 21
5.0117013279879643
  0
CIRCLE
  8
_0-1_作画層１
  6
CONTINUOUS
 62
    7
 10
152.25756702580807
 20
58.011701327987936
 40
8
  0
LINE
  8
_0-1_作画層１
  6
CONTINUOUS
 62
    7
 10
177.29939969620253
 20
77.196778856969587
 11
181.4112117920873
 21
74.161132386485903
  0
ARC
  8
_0-1_作画層１
  6
CONTINUOUS
 62
    7
 10
156.53659937832111
 20
59.936821644975225
 40
27.000000000001716
 50
19.171190871385456
 51
39.736488404725264
  0
TEXT
  8
_0-7_注記層１
 62
    7
 10
171.22203311987533
 20
82.279468280954305
 40
2.5
 41
1
 50
-45
  1
もどす
  0
ARC
  8
_0-1_作画層１
  6
CONTINUOUS
 62
    7
 10
183.84790858215055
 20
87.011701327976084
 40
5.0000000000227294
 50
29.920138056940868
 51
33.722669619347684
  0
ARC
  8
_0-1_作画層１
  6
CONTINUOUS
 62
    7
 10
183.84790858215234
 20
87.011701327977988
 40
5.0000000000202203
 50
26.650420037283173
 51
29.75718184347534
  0
ARC
  8
_0-1_作画層１
  6
CONTINUOUS
 62
    7
 10
183.84790858244463
 20
87.011701328120409
 40
4.9999999996950493
 50
24.976125850681637
 51
26.450825180879356
  0
ARC
  8
_0-1_作画層１
  6
CONTINUOUS
 62
    7
 10
183.84790858193344
 20
87.011701327883188
 40
5.000000000258626
 50
22.816349476781824
 51
24.833430720800752
  0
ARC
  8
_0-1_作画層１
  6
CONTINUOUS
 62
    7
 10
183.84790858171905
 20
87.011701327806733
 40
5.0000000004859046
 50
21.112446366696886
 51
22.603681475379425
  0
ARC
  8
_0-1_作画層１
  6
CONTINUOUS
 62
    7
 10
120.66722546946562
 20
87.011701327976084
 40
5.0000000000227294
 50
146.27733038065233
 51
150.07986194305917
  0
ARC
  8
_0-1_作画層１
  6
CONTINUOUS
 62
    7
 10
120.66722546945064
 20
87.011701327985904
 40
5.0000000000048566
 50
150.24281815652813
 51
153.34957996272999
  0
ARC
  8
_0-1_作画層１
  6
CONTINUOUS
 62
    7
 10
120.66722546958903
 20
87.011701327920449
 40
5.0000000001579519
 50
153.54917481920037
 51
155.02387414926136
  0
ARC
  8
_0-1_作画層１
  6
CONTINUOUS
 62
    7
 10
120.66722546952917
 20
87.011701327950988
 40
5.0000000000907887
 50
155.16656927916532
 51
157.18365052325194
  0
ARC
  8
_0-1_作画層１
  6
CONTINUOUS
 62
    7
 10
120.66722546954699
 20
87.011701327947634
 40
5.0000000001085168
 50
157.39631852456907
 51
158.88755363336358
  0
ARC
  8
_0-1_作画層１
  6
CONTINUOUS
 62
    7
 10
120.66722546944624
 20
23.01170132798805
 40
5.0000000000001066
 50
213.8868617123685
 51
270
  0
ARC
  8
_0-1_作画層１
  6
CONTINUOUS
 62
    7
 10
183.84790858216996
 20
23.011701327987709
 40
4.9999999999997868
 50
269.99999999999903
 51
326.11313828763372
  0
LINE
  8
_0-1_作画層１
  6
CONTINUOUS
 62
    7
 10
183.84947249046232
 20
18.011701327987936
 11
120.66722546944624
 21
18.011701327987936
  0
LINE
  8
_0-1_作画層１
  6
CONTINUOUS
 62
    7
 10
128.25756702580804
 20
18.911701327987942
 11
176.25756702580807
 21
18.911701327987942
  0
LINE
  8
_0-1_作画層１
  6
CONTINUOUS
 62
    7
 10
176.25756702580807
 20
18.911701327987942
 11
176.25756702580807
 21
26.411701327987942
  0
LINE
  8
_0-1_作画層１
  6
CONTINUOUS
 62
    7
 10
128.25756702580804
 20
18.911701327987942
 11
128.25756702580804
 21
26.411701327987942
  0
LINE
  8
_0-1_作画層１
  6
CONTINUOUS
 62
    7
 10
128.25756702580804
 20
26.411701327987942
 11
176.25756702580807
 21
26.411701327987942
  0
TEXT
  8
_0-7_注記層１
 62
    7
 10
132.05756702580808
 20
22.511701327987922
 40
2.7999999999999998
 41
1
 50
0
  1
ZENKO TIMER
  0
LINE
  8
_0-1_作画層１
  6
CONTINUOUS
 62
    7
 10
157.25756702580807
 20
25.011701327987922
 11
174.75756702580807
 21
25.011701327987922
  0
LINE
  8
_0-1_作画層１
  6
CONTINUOUS
 62
    7
 10
174.75756702580807
 20
25.011701327987922
 11
174.75756702580807
 21
20.011701327987922
  0
LINE
  8
_0-1_作画層１
  6
CONTINUOUS
 62
    7
 10
174.75756702580807
 20
20.011701327987922
 11
157.25756702580807
 21
20.011701327987922
  0
LINE
  8
_0-1_作画層１
  6
CONTINUOUS
 62
    7
 10
157.25756702580807
 20
20.011701327987922
 11
157.25756702580807
 21
25.011701327987922
  0
TEXT
  8
_0-7_注記層１
 62
    7
 10
132.75756702580807
 20
20.011701327987922
 40
2.7999999999999998
 41
1
 50
0
  1
MODEL SC-D
  0
ARC
  8
_0-1_作画層１
  6
CONTINUOUS
 62
    7
 10
159.84907181435801
 20
64.653965447383115
 40
26.999999999999712
 50
6.9843395159805137
 51
62.735306509169227
  0
TEXT
  8
_0-7_注記層１
 62
    7
 10
174.45426616690895
 20
89.047235233920674
 40
2.5
 41
1
 50
-45
  1
まいてから
  0
LINE
  8
_0-1_作画層１
  6
CONTINUOUS
 62
    7
 10
186.64871628256947
 20
67.937112775397452
 11
187.25756702580807
 21
73.011701327987936
  0
LINE
  8
_0-1_作画層１
  6
CENTER
 62
    7
 10
152.25756702580807
 20
16.261701327987936
 11
152.25756702580807
 21
96.261701327987964
  0
LINE
  8
_0-1_作画層１
  6
CENTER
 62
    7
 10
102.25756702580807
 20
57.961701327987925
 11
202.25756702580804
 21
57.961701327987925
  0
LINE
  8
_0-1_作画層１
  6
CONTINUOUS
 62
    7
 10
227.25756702580804
 20
18.511701327987936
 11
227.25756702580804
 21
92.511701327987936
  0
LINE
  8
_0-1_作画層１
  6
CONTINUOUS
 62
    7
 10
221.94506702580804
 20
91.024201327987953
 11
227.25756702580804
 21
92.511701327987936
  0
LINE
  8
_0-1_作画層１
  6
CONTINUOUS
 62
    7
 10
221.94506702580804
 20
19.627326327987959
 11
221.94506702580804
 21
91.024201327987953
  0
LINE
  8
_0-1_作画層１
  6
CONTINUOUS
 62
    7
 10
221.94506702580804
 20
19.627326327987944
 11
227.25756702580804
 21
18.511701327987936
  0
LINE
  8
_0-1_作画層１
  6
CENTER
 62
    7
 10
234.51124668224838
 20
57.633021671547581
 11
212.63624668224838
 21
57.633021671547581
  0
TEXT
  8
_0-7_注記層１
 62
    7
 10
-19.242432974191956
 20
81.761701327987964
 40
4
 41
1
 50
0
  1
ツマミ　Ｋ－１
  0
TEXT
  8
_0-7_注記層１
 62
    7
 10
121.25756702580804
 20
96.761701327987964
 40
4
 41
1
 50
0
  1
飾り板
  0
LINE
  8
_0-7_注記層１
  6
CONTINUOUS
 62
    7
 10
124.75756702580807
 20
55.01170132798795
 11
124.75756702580807
 21
51.26170132798795
  0
TEXT
  8
_0-7_注記層１
 62
    7
 10
124.00756702580807
 20
47.63670132798795
 40
3
 41
1
 50
0
  1
A
  0
LINE
  8
_0-7_注記層１
  6
CONTINUOUS
 62
    7
 10
107.25756702580807
 20
55.01170132798795
 11
107.25756702580807
 21
51.26170132798795
  0
TEXT
  8
_0-7_注記層１
 62
    7
 10
106.28256702580805
 20
47.374201327987947
 40
3
 41
1
 50
0
  1
A
  0
TEXT
  8
_0-7_注記層１
 62
    7
 10
30.757567025808058
 20
99.761701327987936
 40
3
 41
1
 50
0
  1
※
  0
TEXT
  8
_0-7_注記層１
 62
    7
 10
-32.742432974191956
 20
144.76170132798794
 40
3
 41
1
 50
0
  1
※・・・1A型は線2本
  0
TEXT
  8
_0-7_注記層１
 62
    7
 10
-32.742432974191956
 20
138.76170132798794
 40
3
 41
1
 50
0
  1
　・・・AB型は線3本
  0
CIRCLE
  8
_0-1_作画層１
  6
CONTINUOUS
 62
    7
 10
-21.492432974191956
 20
133.13670132798794
 40
0.625
  0
LINE
  8
_0-1_作画層１
  6
CONTINUOUS
 62
    7
 10
-22.117432974191956
 20
133.13670132798794
 11
-25.867432974191956
 21
133.13670132798794
  0
CIRCLE
  8
_0-1_作画層１
  6
CONTINUOUS
 62
    7
 10
-17.742432974191956
 20
133.13670132798794
 40
0.625
  0
LINE
  8
_0-1_作画層１
  6
CONTINUOUS
 62
    7
 10
-17.117432974191956
 20
133.13670132798794
 11
-13.367432974191956
 21
133.13670132798794
  0
TEXT
  8
_0-7_注記層１
 62
    7
 10
-28.617432974191956
 20
131.63670132798794
 40
3
 41
1
 50
0
  1
青
  0
CIRCLE
  8
_0-1_作画層１
  6
CONTINUOUS
 62
    7
 10
-20.867432974191956
 20
124.38670132798794
 40
0.625
  0
LINE
  8
_0-1_作画層１
  6
CONTINUOUS
 62
    7
 10
-21.492432974191956
 20
124.38670132798794
 11
-25.242432974191956
 21
124.38670132798794
  0
CIRCLE
  8
_0-1_作画層１
  6
CONTINUOUS
 62
    7
 10
-17.117432974191956
 20
122.51170132798794
 40
0.625
  0
LINE
  8
_0-1_作画層１
  6
CONTINUOUS
 62
    7
 10
-16.492432974191956
 20
122.51170132798794
 11
-12.742432974191956
 21
122.51170132798794
  0
CIRCLE
  8
_0-1_作画層１
  6
CONTINUOUS
 62
    7
 10
-17.117432974191956
 20
126.26170132798794
 40
0.625
  0
LINE
  8
_0-1_作画層１
  6
CONTINUOUS
 62
    7
 10
-16.492432974191956
 20
126.26170132798794
 11
-12.742432974191956
 21
126.26170132798794
  0
LINE
  8
_0-1_作画層１
  6
CONTINUOUS
 62
    7
 10
-16.620501885128704
 20
122.890758701907
 11
-16.738375600272889
 21
123.00863241705119
  0
LINE
  8
_0-1_作画層１
  6
CONTINUOUS
 62
    7
 10
-16.504354198282329
 20
122.63318965882334
 11
-16.995944643356552
 21
123.12478010389754
  0
LINE
  8
_0-1_作画層１
  6
CONTINUOUS
 62
    7
 10
-16.493206272982007
 20
122.4806203772857
 11
-17.148513924894161
 21
123.13592802919788
  0
LINE
  8
_0-1_作画層１
  6
CONTINUOUS
 62
    7
 10
-16.511704000534678
 20
122.35769674860109
 11
-17.271437553578778
 21
123.11743030164519
  0
LINE
  8
_0-1_作画層１
  6
CONTINUOUS
 62
    7
 10
-16.54846929229609
 20
122.25304068412518
 11
-17.376093618054711
 21
123.0806650098838
  0
LINE
  8
_0-1_作画層１
  6
CONTINUOUS
 62
    7
 10
-16.599192358756909
 20
122.16234239434871
 11
-17.466791907831151
 21
123.02994194342295
  0
LINE
  8
_0-1_作画層１
  6
CONTINUOUS
 62
    7
 10
-17.545431215106703
 20
122.96715989446119
 11
-16.661974407718674
 21
122.08370308707319
  0
LINE
  8
_0-1_作画層１
  6
CONTINUOUS
 62
    7
 10
-16.736160456602107
 20
122.01646777971933
 11
-17.612666522460529
 21
122.89297384557776
  0
LINE
  8
_0-1_作画層１
  6
CONTINUOUS
 62
    7
 10
-17.668216898754224
 20
122.80710286563414
 11
-16.822031436545728
 21
121.96091740342564
  0
LINE
  8
_0-1_作画層１
  6
CONTINUOUS
 62
    7
 10
-17.710738881396111
 20
122.70820349203873
 11
-16.920930810141158
 21
121.91839542078378
  0
LINE
  8
_0-1_作画層１
  6
CONTINUOUS
 62
    7
 10
-17.737103558450002
 20
122.59314681285531
 11
-17.035987489324555
 21
121.89203074372989
  0
LINE
  8
_0-1_作画層１
  6
CONTINUOUS
 62
    7
 10
-17.174709438021466
 20
121.88933133618951
 11
-17.739802965990378
 21
122.4544248641584
  0
LINE
  8
_0-1_作画層１
  6
CONTINUOUS
 62
    7
 10
-17.691595765348694
 20
122.26479630727943
 11
-17.364337994900467
 21
121.93753853683117
  0
TEXT
  8
_0-7_注記層１
 62
    7
 10
-28.617432974191956
 20
122.88670132798794
 40
3
 41
1
 50
0
  1
赤
  0
TEXT
  8
_0-7_注記層１
 62
    7
 10
-11.742432974191956
 20
121.01170132798794
 40
3
 41
1
 50
0
  1
黄
  0
TEXT
  8
_0-7_注記層１
 62
    7
 10
-12.992432974191956
 20
131.63670132798794
 40
3
 41
1
 50
0
  1
青
  0
TEXT
  8
_0-7_注記層１
 62
    7
 10
-11.742432974191956
 20
124.76170132798794
 40
3
 41
1
 50
0
  1
青
  0
LINE
  8
_0-1_作画層１
  6
CONTINUOUS
 62
    7
 10
-35.242432974191956
 20
151.26170132798794
 11
-1.4924329741919564
 21
151.26170132798794
  0
LINE
  8
_0-1_作画層１
  6
CONTINUOUS
 62
    7
 10
-1.4924329741919564
 20
151.26170132798794
 11
-1.4924329741919564
 21
115.63670132798794
  0
LINE
  8
_0-1_作画層１
  6
CONTINUOUS
 62
    7
 10
-1.4924329741919564
 20
115.63670132798794
 11
-35.242432974191956
 21
115.63670132798794
  0
LINE
  8
_0-1_作画層１
  6
CONTINUOUS
 62
    7
 10
-35.242432974191956
 20
115.63670132798794
 11
-35.242432974191956
 21
151.26170132798794
  0
LINE
  8
_0-1_作画層１
  6
CONTINUOUS
 62
    7
 10
-21.012294674443581
 20
133.53681657777824
 11
-17.742432974191956
 21
136.26170132798794
  0
TEXT
  8
_0-7_注記層１
 62
    7
 10
211
 20
-15.5
 40
3.5
 41
1
 50
0
  1
2010.07.24
  0
LINE
  8
_0-1_作画層１
  6
CONTINUOUS
 62
    7
 10
-20.387294674443581
 20
123.98658607819763
 11
-16.637400063596601
 21
122.95555804063918
  0
TEXT
  8
_0-7_注記層１
 62
    7
 10
283.56043104217406
 20
-16.427461929851034
 40
4
 41
1
 50
0
  1
平野
  0
LINE
  8
_0-0_BaseLayer
  6
CONTINUOUS
 62
    7
 10
-35.25
 20
233.75
 11
-10.25
 21
233.75
  0
LINE
  8
_0-0_BaseLayer
  6
CONTINUOUS
 62
    7
 10
-10.242432974191956
 20
216.26170132798794
 11
-0.2424329741919564
 21
216.26170132798794
  0
LINE
  8
_0-0_BaseLayer
  6
CONTINUOUS
 62
    7
 10
352.25
 20
248.75
 11
-45.25
 21
248.75
  0
LINE
  8
_0-0_BaseLayer
  6
CONTINUOUS
 62
    7
 10
-45.25
 20
-28.75
 11
-45.25
 21
248.75
  0
LINE
  8
_0-0_BaseLayer
  6
CONTINUOUS
 62
    7
 10
352.25
 20
-28.75
 11
352.25
 21
248.75
  0
LINE
  8
_0-0_BaseLayer
  6
CONTINUOUS
 62
    7
 10
352.25
 20
-28.75
 11
-45.25
 21
-28.75
  0
LINE
  8
_0-0_BaseLayer
  6
CONTINUOUS
 62
    7
 10
232.25
 20
-8.75
 11
232.25
 21
-18.75
  0
LINE
  8
_0-0_BaseLayer
  6
CONTINUOUS
 62
    7
 10
252.25
 20
-8.75
 11
252.25
 21
-18.75
  0
LINE
  8
_0-0_BaseLayer
  6
CONTINUOUS
 62
    7
 10
272.25
 20
-8.75
 11
272.25
 21
-18.75
  0
LINE
  8
_0-0_BaseLayer
  6
CONTINUOUS
 62
    7
 10
297.25
 20
-28.75
 11
297.25
 21
-8.75
  0
LINE
  8
_0-0_BaseLayer
  6
CONTINUOUS
 62
    7
 10
352.25
 20
-18.75
 11
207.25
 21
-18.75
  0
LINE
  8
_0-0_BaseLayer
  6
CONTINUOUS
 62
    7
 10
207.25
 20
-8.75
 11
207.25
 21
-28.75
  0
LINE
  8
_0-0_BaseLayer
  6
CONTINUOUS
 62
    7
 10
352.25
 20
-8.75
 11
207.25
 21
-8.75
  0
LINE
  8
_0-9_寸法線層１
  6
CONTINUOUS
 62
    7
 10
-3.536985632382823
 20
178.76170132798794
 11
-4.3134427676903897
 21
181.65947880685513
  0
LINE
  8
_0-9_寸法線層１
  6
CONTINUOUS
 62
    7
 10
-3.536985632382823
 20
178.76170132798794
 11
-2.7605284970752564
 21
181.65947880685513
  0
LINE
  8
_0-9_寸法線層１
  6
CONTINUOUS
 62
    7
 10
50.154843354903505
 20
209.76069324708104
 11
47.257065876036293
 21
210.5371503823886
  0
LINE
  8
_0-9_寸法線層１
  6
CONTINUOUS
 62
    7
 10
50.154843354903505
 20
209.76069324708104
 11
48.03352301134386
 21
211.88201359064067
  0
LINE
  8
_0-9_寸法線層１
  6
CONTINUOUS
 62
    7
 10
45.350782740145007
 20
138.48225256585704
 11
82.422854314485861
 21
138.48225256585704
  0
ARC
  8
_0-9_寸法線層１
  6
CONTINUOUS
 62
    7
 10
32.257567025808044
 20
178.76170132798794
 40
35.794552658190867
 50
180
 51
299.99999999999994
  0
LINE
  8
_0-9_寸法線層１
  6
CONTINUOUS
 62
    7
 10
-3.536985632382823
 20
178.76170132798794
 11
-4.3134427676903897
 21
175.86392384912074
  0
LINE
  8
_0-9_寸法線層１
  6
CONTINUOUS
 62
    7
 10
-3.536985632382823
 20
178.76170132798794
 11
-2.7605284970752564
 21
175.86392384912074
  0
LINE
  8
_0-9_寸法線層１
  6
CONTINUOUS
 62
    7
 10
50.154843354903477
 20
147.76270940889484
 11
47.257065876036279
 21
146.98625227358727
  0
LINE
  8
_0-9_寸法線層１
  6
CONTINUOUS
 62
    7
 10
50.154843354903477
 20
147.76270940889484
 11
48.033523011343831
 21
145.6413890653352
  0
TEXT
  8
_0-9_寸法線層１
 62
    7
 10
46.422854314485861
 20
138.48225256585704
 40
3
 41
1
 50
0
  1
3-M3 P0.5ネジ有効深サ3.0
  0
LINE
  8
_0-9_寸法線層１
  6
CENTER
 62
    7
 10
51.945067025808072
 20
212.86145160200022
 11
36.755162289999703
 21
186.55176483744901
  0
LINE
  8
_0-9_寸法線層１
  6
CENTER
 62
    7
 10
72.257567025808044
 20
178.76170132798794
 11
-5.2424329741919564
 21
178.76170132798794
  0
LINE
  8
_0-9_寸法線層１
  6
CENTER
 62
    7
 10
51.945067025808015
 20
144.66195105397571
 11
36.755162289999703
 21
170.97163781852686
  0
LINE
  8
_0-9_寸法線層１
  6
CENTER
 62
    7
 10
32.257567025808058
 20
228.76170132798796
 11
32.257567025808044
 21
121.26170132798794
  0
LINE
  8
_0-0_BaseLayer
  6
CONTINUOUS
 62
    7
 10
-20.242432974191956
 20
81.26170132798795
 11
9.7575670258080436
 21
81.26170132798795
  0
LINE
  8
_0-0_BaseLayer
  6
CONTINUOUS
 62
    7
 10
117.25756702580807
 20
96.261701327987964
 11
137.25756702580807
 21
96.261701327987964
  0
TEXT
  8
_0-7_注記層１
 62
    7
 10
302.25
 20
-26.25
 40
5
 41
1
 50
0
  1
SCD-001-03
  0
CIRCLE
  8
_0-1_作画層１
  6
CONTINUOUS
 62
    7
 10
17.457567025808061
 20
178.76170132798794
 40
4
  0
CIRCLE
  8
_0-1_作画層１
  6
CONTINUOUS
 62
    7
 10
17.457567025808061
 20
178.76170132798794
 40
2.5
  0
CIRCLE
  8
_0-1_作画層１
  6
CONTINUOUS
 62
    7
 10
17.457567025808061
 20
178.76170132798794
 40
1.5
  0
CIRCLE
  8
_0-1_作画層１
  6
CONTINUOUS
 62
    7
 10
39.657567025808049
 20
165.94452535197823
 40
4
  0
CIRCLE
  8
_0-1_作画層１
  6
CONTINUOUS
 62
    7
 10
39.657567025808049
 20
165.94452535197823
 40
2.5
  0
CIRCLE
  8
_0-1_作画層１
  6
CONTINUOUS
 62
    7
 10
39.657567025808049
 20
165.94452535197823
 40
1.5
  0
CIRCLE
  8
_0-1_作画層１
  6
CONTINUOUS
 62
    7
 10
39.657567025808063
 20
191.57887730399761
 40
4
  0
CIRCLE
  8
_0-1_作画層１
  6
CONTINUOUS
 62
    7
 10
39.657567025808063
 20
191.57887730399761
 40
2.5
  0
CIRCLE
  8
_0-1_作画層１
  6
CONTINUOUS
 62
    7
 10
39.657567025808063
 20
191.57887730399761
 40
1.5
  0
CIRCLE
  8
_0-9_寸法線層１
  6
CONTINUOUS
 62
    7
 10
32.257567025808044
 20
178.76170132798794
 40
14.800000000000001
  0
CIRCLE
  8
_0-1_作画層１
  6
CONTINUOUS
 62
    7
 10
32.257567025808058
 20
178.76170132798794
 40
8
  0
CIRCLE
  8
_0-1_作画層１
  6
CONTINUOUS
 62
    7
 10
33.126498276883311
 20
197.6609560388747
 40
4
  0
LINE
  8
_0-1_作画層１
  6
CONTINUOUS
 62
    7
 10
33.126498276883311
 20
199.6609560388747
 11
31.394447469314429
 21
198.6609560388747
  0
LINE
  8
_0-1_作画層１
  6
CONTINUOUS
 62
    7
 10
31.394447469314429
 20
198.6609560388747
 11
31.394447469314429
 21
196.6609560388747
  0
LINE
  8
_0-1_作画層１
  6
CONTINUOUS
 62
    7
 10
31.394447469314429
 20
196.6609560388747
 11
33.126498276883311
 21
195.6609560388747
  0
LINE
  8
_0-1_作画層１
  6
CONTINUOUS
 62
    7
 10
33.126498276883311
 20
195.6609560388747
 11
34.858549084452193
 21
196.6609560388747
  0
LINE
  8
_0-1_作画層１
  6
CONTINUOUS
 62
    7
 10
34.858549084452193
 20
196.6609560388747
 11
34.858549084452193
 21
198.6609560388747
  0
LINE
  8
_0-1_作画層１
  6
CONTINUOUS
 62
    7
 10
34.858549084452193
 20
198.6609560388747
 11
33.126498276883311
 21
199.6609560388747
  0
CIRCLE
  8
_0-1_作画層１
  6
CONTINUOUS
 62
    7
 10
33.126498276883311
 20
197.6609560388747
 40
0.375
  0
CIRCLE
  8
_0-1_作画層１
  6
CONTINUOUS
 62
    7
 10
14.51893327209666
 20
171.26170132798794
 40
4
  0
LINE
  8
_0-1_作画層１
  6
CONTINUOUS
 62
    7
 10
12.786882464527764
 20
170.26170132798794
 11
14.51893327209666
 21
169.26170132798794
  0
LINE
  8
_0-1_作画層１
  6
CONTINUOUS
 62
    7
 10
14.51893327209666
 20
169.26170132798794
 11
16.2509840796655
 21
170.26170132798794
  0
LINE
  8
_0-1_作画層１
  6
CONTINUOUS
 62
    7
 10
16.2509840796655
 20
170.26170132798794
 11
16.250984079665528
 21
172.26170132798794
  0
LINE
  8
_0-1_作画層１
  6
CONTINUOUS
 62
    7
 10
16.250984079665528
 20
172.26170132798794
 11
14.518933272096632
 21
173.26170132798794
  0
LINE
  8
_0-1_作画層１
  6
CONTINUOUS
 62
    7
 10
14.518933272096632
 20
173.26170132798794
 11
12.786882464527764
 21
172.26170132798794
  0
LINE
  8
_0-1_作画層１
  6
CONTINUOUS
 62
    7
 10
12.786882464527764
 20
172.26170132798794
 11
12.786882464527764
 21
170.26170132798794
  0
CIRCLE
  8
_0-1_作画層１
  6
CONTINUOUS
 62
    7
 10
14.51893327209666
 20
171.26170132798794
 40
0.375
  0
CIRCLE
  8
_0-1_作画層１
  6
CONTINUOUS
 62
    7
 10
49.99620077952018
 20
171.26170132798794
 40
4
  0
LINE
  8
_0-1_作画層１
  6
CONTINUOUS
 62
    7
 10
51.728251587089076
 20
170.26170132798794
 11
51.728251587089076
 21
172.26170132798794
  0
LINE
  8
_0-1_作画層１
  6
CONTINUOUS
 62
    7
 10
51.728251587089076
 20
172.26170132798794
 11
49.99620077952018
 21
173.26170132798794
  0
LINE
  8
_0-1_作画層１
  6
CONTINUOUS
 62
    7
 10
49.99620077952018
 20
173.26170132798794
 11
48.264149971951284
 21
172.26170132798794
  0
LINE
  8
_0-1_作画層１
  6
CONTINUOUS
 62
    7
 10
48.264149971951284
 20
172.26170132798794
 11
48.264149971951284
 21
170.26170132798794
  0
LINE
  8
_0-1_作画層１
  6
CONTINUOUS
 62
    7
 10
48.264149971951284
 20
170.26170132798794
 11
49.99620077952018
 21
169.26170132798794
  0
LINE
  8
_0-1_作画層１
  6
CONTINUOUS
 62
    7
 10
49.99620077952018
 20
169.26170132798794
 11
51.728251587089076
 21
170.26170132798794
  0
CIRCLE
  8
_0-1_作画層１
  6
CONTINUOUS
 62
    7
 10
49.99620077952018
 20
171.26170132798794
 40
0.375
  0
LINE
  8
_0-1_作画層１
  6
CONTINUOUS
 62
    7
 10
26.757567025808044
 20
161.26170132797955
 11
25.757567025808044
 21
160.26170132797955
  0
LINE
  8
_0-1_作画層１
  6
CONTINUOUS
 62
    7
 10
37.757567025808044
 20
161.26170132797955
 11
32.257567025808044
 21
161.26170132797955
  0
LINE
  8
_0-1_作画層１
  6
CONTINUOUS
 62
    7
 10
37.757567025808044
 20
161.26170132797955
 11
38.757567025808044
 21
160.26170132797955
  0
ARC
  8
_0-1_作画層１
  6
CONTINUOUS
 62
    7
 10
28.28711545955214
 20
158.76170132797955
 40
1.1999999999999886
 50
89.99999999999865
 51
180
  0
LINE
  8
_0-1_作画層１
  6
CONTINUOUS
 62
    7
 10
28.287115459552169
 20
159.96170132797954
 11
28.282427959552166
 21
159.96170132797954
  0
ARC
  8
_0-1_作画層１
  6
CONTINUOUS
 62
    7
 10
28.28242795955218
 20
158.76170132797955
 40
1.1999999999999886
 50
0
 51
90.000000000000696
  0
LINE
  8
_0-1_作画層１
  6
CONTINUOUS
 62
    7
 10
29.482427959552169
 20
111.74295132797953
 11
27.087115459552166
 21
111.74295132797953
  0
LINE
  8
_0-1_作画層１
  6
CONTINUOUS
 62
    7
 10
27.680865459552166
 20
111.74295132797953
 11
28.930865459552166
 21
111.74295132797953
  0
LINE
  8
_0-1_作画層１
  6
CONTINUOUS
 62
    7
 10
28.930865459552166
 20
111.74295132797953
 11
28.930865459552166
 21
106.74295132797953
  0
LINE
  8
_0-1_作画層１
  6
CONTINUOUS
 62
    7
 10
28.930865459552166
 20
106.74295132797953
 11
27.680865459552166
 21
106.74295132797953
  0
LINE
  8
_0-1_作画層１
  6
CONTINUOUS
 62
    7
 10
27.680865459552166
 20
106.74295132797953
 11
27.680865459552166
 21
111.74295132797953
  0
LINE
  8
_0-1_作画層１
  6
DOT_18
 62
    7
 10
31.062254525808001
 20
111.83647242431995
 11
33.457567025808004
 21
111.83647242431995
  0
LINE
  8
_0-1_作画層１
  6
DOT_18
 62
    7
 10
32.863817025808004
 20
111.83647242431995
 11
31.613817025808004
 21
111.83647242431995
  0
LINE
  8
_0-1_作画層１
  6
DOT_18
 62
    7
 10
31.613817025808004
 20
111.83647242431995
 11
31.613817025808004
 21
106.83647242431995
  0
LINE
  8
_0-1_作画層１
  6
DOT_18
 62
    7
 10
31.613817025808004
 20
106.83647242431995
 11
32.863817025808004
 21
106.83647242431995
  0
LINE
  8
_0-1_作画層１
  6
DOT_18
 62
    7
 10
32.863817025808004
 20
106.83647242431995
 11
32.863817025808004
 21
111.83647242431995
  0
ARC
  8
_0-1_作画層１
  6
CONTINUOUS
 62
    7
 10
36.257567025808044
 20
158.76170132797955
 40
1.1999999999999886
 50
0
 51
90.000000000001364
  0
LINE
  8
_0-1_作画層１
  6
CONTINUOUS
 62
    7
 10
36.257567025808015
 20
159.96170132797954
 11
36.262254525808018
 21
159.96170132797954
  0
ARC
  8
_0-1_作画層１
  6
CONTINUOUS
 62
    7
 10
36.262254525808004
 20
158.76170132797955
 40
1.1999999999999886
 50
89.999999999999332
 51
180
  0
LINE
  8
_0-1_作画層１
  6
CONTINUOUS
 62
    7
 10
35.062254525808001
 20
111.74295132797953
 11
37.457567025808004
 21
111.74295132797953
  0
LINE
  8
_0-1_作画層１
  6
CONTINUOUS
 62
    7
 10
36.863817025808004
 20
111.74295132797953
 11
35.613817025808004
 21
111.74295132797953
  0
LINE
  8
_0-1_作画層１
  6
CONTINUOUS
 62
    7
 10
35.613817025808004
 20
111.74295132797953
 11
35.613817025808004
 21
106.74295132797953
  0
LINE
  8
_0-1_作画層１
  6
CONTINUOUS
 62
    7
 10
35.613817025808004
 20
106.74295132797953
 11
36.863817025808004
 21
106.74295132797953
  0
LINE
  8
_0-1_作画層１
  6
CONTINUOUS
 62
    7
 10
36.863817025808004
 20
106.74295132797953
 11
36.863817025808004
 21
111.74295132797953
  0
LINE
  8
_0-1_作画層１
  6
CONTINUOUS
 62
    7
 10
25.757567025808044
 20
154.58730957763129
 11
25.757567025808044
 21
160.26170132797955
  0
LINE
  8
_0-1_作画層１
  6
CONTINUOUS
 62
    7
 10
38.757567025808044
 20
154.58730957763109
 11
38.757567025808044
 21
160.26170132797955
  0
ARC
  8
_0-1_作画層１
  6
CONTINUOUS
 62
    7
 10
39.757567025808044
 20
154.58730957763109
 40
1
 50
180
 51
239.9653356274697
  0
ARC
  8
_0-1_作画層１
  6
CONTINUOUS
 62
    7
 10
24.757567025808044
 20
154.58730957763129
 40
1
 50
300.03466437253121
 51
0.0000000000000254
  0
LINE
  8
_0-1_作画層１
  6
CONTINUOUS
 62
    7
 10
27.087115459552166
 20
130.48836036515638
 11
27.087115459552166
 21
111.74295132797953
  0
LINE
  8
_0-1_作画層１
  6
CONTINUOUS
 62
    7
 10
29.482427959552169
 20
129.77241073060677
 11
29.482427959552169
 21
111.74295132797953
  0
LINE
  8
_0-1_作画層１
  6
DOT_18
 62
    7
 10
31.062254525808001
 20
128.72524299465465
 11
31.062254525808001
 21
111.83647242431995
  0
LINE
  8
_0-1_作画層１
  6
DOT_18
 62
    7
 10
33.457567025808004
 20
127.24986590882843
 11
33.457567025808004
 21
111.83647242431995
  0
LINE
  8
_0-1_作画層１
  6
CONTINUOUS
 62
    7
 10
35.062254525808001
 20
126.88876717039258
 11
35.062254525808001
 21
111.74295132797953
  0
LINE
  8
_0-1_作画層１
  6
CONTINUOUS
 62
    7
 10
37.457567025808004
 20
127.34170132798791
 11
37.457567025808004
 21
111.74295132797953
  0
LINE
  8
_0-1_作画層１
  6
CONTINUOUS
 62
    7
 10
27.087115459552166
 20
132.98836036515638
 11
27.087115459552166
 21
158.76170132797955
  0
LINE
  8
_0-1_作画層１
  6
CONTINUOUS
 62
    7
 10
29.482427959552169
 20
132.27241073060677
 11
29.482427959552169
 21
158.76170132797955
  0
LINE
  8
_0-1_作画層１
  6
CONTINUOUS
 62
    7
 10
35.062254525808001
 20
129.38876717039258
 11
35.062254525808015
 21
158.76170132797955
  0
LINE
  8
_0-1_作画層１
  6
CONTINUOUS
 62
    7
 10
37.457567025808004
 20
129.84170132798792
 11
37.457567025808004
 21
158.76170132797955
  0
ARC
  8
_0-1_作画層１
  6
CONTINUOUS
 62
    7
 10
32.257567025808427
 20
178.76170132798376
 40
26.000000000004221
 50
84.482266193176443
 51
258.52949124893365
  0
ARC
  8
_0-1_作画層１
  6
CONTINUOUS
 62
    7
 10
32.257567025808427
 20
178.76170132798376
 40
26.000000000004221
 50
263.87279902167728
 51
276.19269453298557
  0
ARC
  8
_0-1_作画層１
  6
CONTINUOUS
 62
    7
 10
32.257567025808427
 20
178.76170132798376
 40
26.000000000004221
 50
281.53695903281266
 51
83.971305837493318
  0
ARC
  8
_0-1_作画層１
  6
CONTINUOUS
 62
    7
 10
28.257567025808044
 20
158.76170132797955
 40
1.5
 50
324.74328966850203
 51
218.71185300886799
  0
ARC
  8
_0-1_作画層１
  6
CONTINUOUS
 62
    7
 10
36.257567025808044
 20
158.76170132797955
 40
1.5
 50
323.13010235415356
 51
217.16728546127214
  0
TEXT
  8
_0-7_注記層１
 62
    7
 10
-9.2424329741919564
 20
216.76170132798796
 40
4
 41
1
 50
0
  1
本体
  0
LINE
  8
_0-9_寸法線層１
  6
CONTINUOUS
 62
    7
 10
45.350782740145007
 20
138.48225256585704
 11
39.657567025808063
 21
165.94452535197826
  0
LINE
  8
_0-9_寸法線層１
  6
CONTINUOUS
 62
    7
 10
39.657567025808063
 20
165.94452535197826
 11
40.556582574172154
 21
164.15797251374491
  0
LINE
  8
_0-9_寸法線層１
  6
CONTINUOUS
 62
    7
 10
39.657567025808063
 20
165.94452535197826
 11
39.542860909971893
 21
163.94781743468295
  0
TEXT
  8
_0-9_寸法線層１
 62
    7
 10
46.556793809386619
 20
187.59471402988015
 40
3
 41
1
 50
30
  1
R14.8
  0
POINT
  8
_0-1_作画層１
 62
    7
 10
137.45756702580809
 20
57.961701327987925
  0
CIRCLE
  8
_0-1_作画層１
  6
CONTINUOUS
 62
    7
 10
117.25756702580807
 20
55.011701327987936
 40
3.5
  0
CIRCLE
  8
_0-1_作画層１
  6
CONTINUOUS
 62
    7
 10
137.45756702580809
 20
57.961701327987925
 40
3.5
  0
CIRCLE
  8
_0-1_作画層１
  6
CONTINUOUS
 62
    7
 10
117.25756702580807
 20
55.011701327987936
 40
1.6000000000000001
  0
CIRCLE
  8
_0-1_作画層１
  6
CONTINUOUS
 62
    7
 10
137.45756702580809
 20
57.961701327987925
 40
1.6000000000000001
  0
CIRCLE
  8
_0-1_作画層１
  6
CONTINUOUS
 62
    7
 10
187.25756702580807
 20
55.011701327987936
 40
1.6000000000000001
  0
CIRCLE
  8
_0-1_作画層１
  6
CONTINUOUS
 62
    7
 10
187.25756702580807
 20
55.011701327987936
 40
3.5
  0
POINT
  8
_0-1_作画層１
 62
    7
 10
159.63726883640322
 20
70.79057505823792
  0
POINT
  8
_0-1_作画層１
 62
    7
 10
159.67795843772225
 20
45.156319986770846
  0
CIRCLE
  8
_0-1_作画層１
  6
CONTINUOUS
 62
    7
 10
159.63726883640322
 20
70.79057505823792
 40
3.5
  0
CIRCLE
  8
_0-1_作画層１
  6
CONTINUOUS
 62
    7
 10
159.67795843772225
 20
45.156319986770846
 40
3.5
  0
CIRCLE
  8
_0-1_作画層１
  6
CONTINUOUS
 62
    7
 10
159.63726883640322
 20
70.79057505823792
 40
1.6000000000000001
  0
CIRCLE
  8
_0-1_作画層１
  6
CONTINUOUS
 62
    7
 10
159.67795843772225
 20
45.156319986770846
 40
1.6000000000000001
  0
CIRCLE
  8
_0-1_作画層１
  6
CONTINUOUS
 62
    7
 10
152.25756702580807
 20
57.961701327987925
 40
18.5
  0
LINE
  8
_0-1_作画層１
  6
CONTINUOUS
 62
    5
 10
152.25756702580807
 20
92.011701327987936
 11
152.25756702580807
 21
85.011701327987936
  0
CIRCLE
  8
_0-1_作画層１
  6
CONTINUOUS
 62
    7
 10
152.25756702580807
 20
57.961701327987925
 40
27
  0
ARC
  8
_0-1_作画層１
  6
CONTINUOUS
 62
    7
 10
152.25756702580807
 20
84.961701327987925
 40
1
 50
181.06109360762264
 51
358.93890639237736
  0
CIRCLE
  8
_0-1_作画層１
  6
CONTINUOUS
 62
    7
 10
152.25756702580807
 20
80.961701327987925
 40
1
  0
CIRCLE
  8
_0-1_作画層１
  6
CONTINUOUS
 62
    7
 10
161.05928597020514
 20
79.210930575747511
 40
1
  0
CIRCLE
  8
_0-1_作画層１
  6
CONTINUOUS
 62
    7
 10
173.50679627356766
 20
66.763420272384991
 40
1
  0
CIRCLE
  8
_0-1_作画層１
  6
CONTINUOUS
 62
    7
 10
173.50679627356766
 20
49.159982383590858
 40
1
  0
CIRCLE
  8
_0-1_作画層１
  6
CONTINUOUS
 62
    7
 10
161.05928597020517
 20
36.712472080228338
 40
1
  0
CIRCLE
  8
_0-1_作画層１
  6
CONTINUOUS
 62
    7
 10
143.45584808141103
 20
36.712472080228324
 40
1
  0
CIRCLE
  8
_0-1_作画層１
  6
CONTINUOUS
 62
    7
 10
131.00833777804849
 20
49.15998238359083
 40
1
  0
ARC
  8
_0-1_作画層１
  6
CONTINUOUS
 62
    7
 10
152.25756702580807
 20
57.961701327987925
 40
21.5
 50
11.250000000000004
 51
33.749999999999972
  0
ARC
  8
_0-1_作画層１
  6
CONTINUOUS
 62
    7
 10
152.25756702580807
 20
57.961701327987925
 40
24.5
 50
11.25
 51
33.749999999999972
  0
ARC
  8
_0-1_作画層１
  6
CONTINUOUS
 62
    7
 10
152.25756702580807
 20
57.961701327987925
 40
21.5
 50
326.25
 51
348.75
  0
ARC
  8
_0-1_作画層１
  6
CONTINUOUS
 62
    7
 10
152.25756702580807
 20
57.961701327987925
 40
24.5
 50
326.25
 51
348.75
  0
ARC
  8
_0-1_作画層１
  6
CONTINUOUS
 62
    7
 10
152.25756702580807
 20
57.961701327987925
 40
21.5
 50
281.25000000000006
 51
303.75
  0
ARC
  8
_0-1_作画層１
  6
CONTINUOUS
 62
    7
 10
152.25756702580807
 20
57.961701327987925
 40
24.5
 50
281.25000000000006
 51
303.75
  0
ARC
  8
_0-1_作画層１
  6
CONTINUOUS
 62
    7
 10
152.25756702580807
 20
57.961701327987925
 40
21.5
 50
236.25000000000006
 51
258.75000000000006
  0
ARC
  8
_0-1_作画層１
  6
CONTINUOUS
 62
    7
 10
152.25756702580807
 20
57.961701327987925
 40
24.5
 50
236.25000000000006
 51
258.75
  0
LINE
  8
_0-1_作画層１
  6
CONTINUOUS
 62
    7
 10
131.17068349713861
 20
53.767259404641173
 11
128.22832765592892
 21
53.181988438592789
  0
LINE
  8
_0-1_作画層１
  6
CONTINUOUS
 62
    7
 10
148.06312510246133
 20
36.874817799318464
 11
147.47785413641296
 21
33.932461958108775
  0
LINE
  8
_0-1_作画層１
  6
CONTINUOUS
 62
    7
 10
156.45200894915484
 20
36.874817799318478
 11
157.03727991520324
 21
33.932461958108775
  0
LINE
  8
_0-1_作画層１
  6
CONTINUOUS
 62
    7
 10
173.34445055447753
 20
53.767259404641166
 11
176.28680639568722
 21
53.181988438592782
  0
LINE
  8
_0-1_作画層１
  6
CONTINUOUS
 62
    7
 10
173.34445055447753
 20
62.156143251334683
 11
176.28680639568722
 21
62.741414217383067
  0
LINE
  8
_0-1_作画層１
  6
CONTINUOUS
 62
    7
 10
156.45200894915484
 20
79.048584856657385
 11
157.03727991520321
 21
81.990940697867075
  0
ARC
  8
_0-1_作画層１
  6
CONTINUOUS
 62
    7
 10
152.25756702580807
 20
57.961701327987925
 40
21.5
 50
56.249999999999986
 51
78.749999999999986
  0
ARC
  8
_0-1_作画層１
  6
CONTINUOUS
 62
    7
 10
152.25756702580807
 20
57.961701327987925
 40
21.5
 50
191.25
 51
213.75000000000014
  0
ARC
  8
_0-1_作画層１
  6
CONTINUOUS
 62
    7
 10
152.25756702580807
 20
57.961701327987925
 40
24.5
 50
56.249999999999986
 51
78.749999999999986
  0
ARC
  8
_0-1_作画層１
  6
CONTINUOUS
 62
    7
 10
152.25756702580807
 20
57.961701327987925
 40
24.5
 50
191.25
 51
213.75000000000014
  0
ARC
  8
_0-1_作画層１
  6
CONTINUOUS
 62
    7
 10
152.25756702580807
 20
57.961701327987925
 40
21.5
 50
33.749999999999979
 51
56.250000000000014
  0
ARC
  8
_0-1_作画層１
  6
CONTINUOUS
 62
    7
 10
152.25756702580807
 20
57.961701327987846
 40
21.5
 50
303.75000000000011
 51
326.25000000000023
  0
ARC
  8
_0-1_作画層１
  6
CONTINUOUS
 62
    7
 10
152.25756702580807
 20
57.961701327987925
 40
21.5
 50
213.75000000000017
 51
236.25000000000009
  0
ARC
  8
_0-1_作画層１
  6
CONTINUOUS
 62
    7
 10
152.25756702580807
 20
57.961701327987846
 40
24.5
 50
33.750000000000142
 51
56.250000000000099
  0
ARC
  8
_0-1_作画層１
  6
CONTINUOUS
 62
    7
 10
152.25756702580807
 20
57.961701327987925
 40
24.5
 50
303.75
 51
326.25
  0
ARC
  8
_0-1_作画層１
  6
CONTINUOUS
 62
    7
 10
152.25756702580807
 20
57.961701327987925
 40
24.5
 50
213.75000000000017
 51
236.25000000000009
  0
CIRCLE
  8
_0-1_作画層１
  6
CONTINUOUS
 62
    7
 10
168.52102299309865
 20
74.225157295278521
 40
1
  0
CIRCLE
  8
_0-1_作画層１
  6
CONTINUOUS
 62
    7
 10
168.52102299309868
 20
41.698245360697328
 40
1
  0
CIRCLE
  8
_0-1_作画層１
  6
CONTINUOUS
 62
    7
 10
135.99411105851752
 20
41.698245360697292
 40
1
  0
LINE
  8
_0-1_作画層１
  6
CONTINUOUS
 62
    7
 10
152.25756702580807
 20
80.961701327987925
 11
152.25756702580807
 21
82.711701327987925
  0
LINE
  8
_0-1_作画層１
  6
CONTINUOUS
 62
    7
 10
152.25756702580807
 20
80.961701327987925
 11
152.25756702580807
 21
79.211701327987925
  0
ARC
  8
_0-1_作画層１
  6
CONTINUOUS
 62
    7
 10
151.25756702580807
 20
80.961701327987925
 40
2
 50
118.95502437185984
 51
241.04497562814012
  0
ARC
  8
_0-1_作画層１
  6
CONTINUOUS
 62
    7
 10
153.25756702580807
 20
80.961701327987925
 40
2
 50
298.95502437185985
 51
61.044975628140158
  0
LINE
  8
_0-1_作画層１
  6
CONTINUOUS
 62
    7
 10
152.25756702580807
 20
82.711701327987925
 11
154.22581286235993
 21
82.711701327987925
  0
LINE
  8
_0-1_作画層１
  6
CONTINUOUS
 62
    7
 10
152.25756702580807
 20
82.711701327987925
 11
150.28932118925621
 21
82.711701327987925
  0
LINE
  8
_0-1_作画層１
  6
CONTINUOUS
 62
    7
 10
152.25756702580807
 20
79.211701327987925
 11
154.22581286235993
 21
79.211701327987925
  0
LINE
  8
_0-1_作画層１
  6
CONTINUOUS
 62
    7
 10
152.25756702580807
 20
79.211701327987925
 11
150.28932118925621
 21
79.211701327987925
  0
ARC
  8
_0-1_作画層１
  6
CONTINUOUS
 62
    7
 10
152.25756702580807
 20
57.961701327987925
 40
29
 50
83.558399900664952
 51
96.441600099335062
  0
ARC
  8
_0-1_作画層１
  6
CONTINUOUS
 62
    7
 10
152.25756702580807
 20
57.961701327987846
 40
31
 50
83.558399900664966
 51
96.441600099335062
  0
LINE
  8
_0-1_作画層１
  6
CONTINUOUS
 62
    7
 10
149.00404436417875
 20
86.778616330990303
 11
148.77966349096295
 21
88.765989779473159
  0
LINE
  8
_0-1_作画層１
  6
CONTINUOUS
 62
    7
 10
155.51108968743739
 20
86.778616330990332
 11
155.7354705606532
 21
88.765989779473159
  0
LINE
  8
_0-7_注記層１
  6
CONTINUOUS
 62
    7
 10
113.75756702580807
 20
55.01170132798795
 11
111.75756702580807
 21
54.471701327987944
  0
LINE
  8
_0-7_注記層１
  6
CONTINUOUS
 62
    7
 10
113.75756702580807
 20
55.01170132798795
 11
111.75756702580807
 21
55.551701327987956
  0
LINE
  8
_0-7_注記層１
  6
CONTINUOUS
 62
    7
 10
113.75756702580807
 20
55.01170132798795
 11
107.25756702580807
 21
55.01170132798795
  0
LINE
  8
_0-7_注記層１
  6
CONTINUOUS
 62
    7
 10
120.75756702580807
 20
55.01170132798795
 11
123.25756702580807
 21
54.336701327987939
  0
LINE
  8
_0-7_注記層１
  6
CONTINUOUS
 62
    7
 10
120.75756702580807
 20
55.01170132798795
 11
123.25756702580807
 21
55.686701327987961
  0
LINE
  8
_0-7_注記層１
  6
CONTINUOUS
 62
    7
 10
120.75756702580807
 20
55.01170132798795
 11
124.75756702580807
 21
55.01170132798795
  0
TEXT
  8
_0-7_注記層１
 62
    7
 10
174.00756702580807
 20
59.211701327987925
 40
2.5
 41
1
 50
-90
  1
５
  0
TEXT
  8
_0-7_注記層１
 62
    7
 10
154.75756702580807
 20
36.211701327987925
 40
2.5
 41
1
 50
180
  1
１０
  0
TEXT
  8
_0-7_注記層１
 62
    7
 10
130.50756702580807
 20
54.211701327987925
 40
2.5
 41
1
 50
90
  1
１５Ｍ
  0
TEXT
  8
_0-7_注記層１
 62
    7
 10
135.11022758203427
 20
71.573506865828932
 40
2.5
 41
1
 50
44.999999999999986
  1
ＯＮ
  0
LINE
  8
_0-9_寸法線層１
  6
CONTINUOUS
 62
    7
 10
7.2575670258080436
 20
152.76170132797955
 11
7.2575670258080436
 21
105.63670132798794
  0
TEXT
  8
_0-9_寸法線層１
 62
    7
 10
6.2575670258080436
 20
126.56097276032997
 40
3
 41
1
 50
90
  1
300
  0
LINE
  8
_0-9_寸法線層１
  6
CONTINUOUS
 62
    7
 10
31.757567025808044
 20
152.76170132797955
 11
5.2575670258080436
 21
152.76170132797955
  0
LINE
  8
_0-9_寸法線層１
  6
CONTINUOUS
 62
    7
 10
26.132567025808058
 20
105.63670132798794
 11
5.2575670258080436
 21
105.63670132798794
  0
LINE
  8
_0-9_寸法線層１
  6
CONTINUOUS
 62
    7
 10
7.2575670258080436
 20
152.76170132797955
 11
7.7752051160130975
 21
150.82984967540142
  0
LINE
  8
_0-9_寸法線層１
  6
CONTINUOUS
 62
    7
 10
7.2575670258080436
 20
152.76170132797955
 11
6.7399289356029897
 21
150.82984967540142
  0
LINE
  8
_0-9_寸法線層１
  6
CONTINUOUS
 62
    7
 10
7.2575670258080436
 20
105.63670132798794
 11
6.7399289356029897
 21
107.56855298056607
  0
LINE
  8
_0-9_寸法線層１
  6
CONTINUOUS
 62
    7
 10
7.2575670258080436
 20
105.63670132798794
 11
7.7752051160130975
 21
107.56855298056607
  0
TEXT
  8
_0-9_寸法線層１
 62
    7
 10
15.369338458154289
 20
189.76170132798794
 40
3
 41
1
 50
0
  1
10
  0
LINE
  8
_0-9_寸法線層１
  6
CONTINUOUS
 62
    7
 10
37.257567025808058
 20
179.26170132798794
 11
37.257567025808058
 21
190.76170132798794
  0
LINE
  8
_0-9_寸法線層１
  6
CONTINUOUS
 62
    7
 10
27.257567025808058
 20
188.76170132798794
 11
15.369338458154289
 21
188.76170132798794
  0
LINE
  8
_0-9_寸法線層１
  6
CONTINUOUS
 62
    7
 10
37.257567025808058
 20
188.76170132798794
 11
41.757567025808044
 21
188.76170132798794
  0
LINE
  8
_0-9_寸法線層１
  6
CONTINUOUS
 62
    7
 10
27.257567025808058
 20
188.76170132798794
 11
37.257567025808058
 21
188.76170132798794
  0
LINE
  8
_0-9_寸法線層１
  6
CONTINUOUS
 62
    7
 10
37.257567025808058
 20
188.76170132798794
 11
39.18941867838619
 21
189.27933941819299
  0
LINE
  8
_0-9_寸法線層１
  6
CONTINUOUS
 62
    7
 10
37.257567025808058
 20
188.76170132798794
 11
39.18941867838619
 21
188.24406323778288
  0
LINE
  8
_0-9_寸法線層１
  6
CONTINUOUS
 62
    7
 10
27.257567025808058
 20
188.76170132798794
 11
25.325715373229926
 21
188.24406323778288
  0
LINE
  8
_0-9_寸法線層１
  6
CONTINUOUS
 62
    7
 10
27.257567025808058
 20
188.76170132798794
 11
25.325715373229926
 21
189.27933941819299
  0
LINE
  8
_0-9_寸法線層１
  6
CONTINUOUS
 62
    7
 10
32.257567025808058
 20
178.76170132798794
 11
45.074743001817737
 21
186.16170132798794
  0
LINE
  8
_0-9_寸法線層１
  6
CONTINUOUS
 62
    7
 10
45.074743001817737
 20
186.16170132798794
 11
54.774227524205571
 21
191.76170132798916
  0
LINE
  8
_0-9_寸法線層１
  6
CONTINUOUS
 62
    7
 10
-27.742432974191956
 20
68.76170132798795
 11
-27.742432974191956
 21
28.76170132798795
  0
TEXT
  8
_0-9_寸法線層１
 62
    7
 10
-28.742432974191956
 20
44.623472760334167
 40
3
 41
1
 50
90
  1
φ40
  0
LINE
  8
_0-9_寸法線層１
  6
CONTINUOUS
 62
    7
 10
4.2575670258080436
 20
68.76170132798795
 11
-29.742432974191956
 21
68.76170132798795
  0
LINE
  8
_0-9_寸法線層１
  6
CONTINUOUS
 62
    7
 10
4.2575670258080436
 20
28.76170132798795
 11
-29.742432974191956
 21
28.76170132798795
  0
LINE
  8
_0-9_寸法線層１
  6
CONTINUOUS
 62
    7
 10
-27.742432974191956
 20
68.76170132798795
 11
-27.224794883986903
 21
66.829849675409804
  0
LINE
  8
_0-9_寸法線層１
  6
CONTINUOUS
 62
    7
 10
-27.742432974191956
 20
68.76170132798795
 11
-28.26007106439701
 21
66.829849675409804
  0
LINE
  8
_0-9_寸法線層１
  6
CONTINUOUS
 62
    7
 10
-27.742432974191956
 20
28.76170132798795
 11
-28.26007106439701
 21
30.693552980566082
  0
LINE
  8
_0-9_寸法線層１
  6
CONTINUOUS
 62
    7
 10
-27.742432974191956
 20
28.76170132798795
 11
-27.224794883986903
 21
30.693552980566082
  0
LINE
  8
_0-9_寸法線層１
  6
CONTINUOUS
 62
    7
 10
49.757567025808058
 20
78.76170132798795
 11
67.757567025808072
 21
78.76170132798795
  0
TEXT
  8
_0-9_寸法線層１
 62
    7
 10
56.869338458154289
 20
79.76170132798795
 40
3
 41
1
 50
0
  1
18
  0
LINE
  8
_0-9_寸法線層１
  6
CONTINUOUS
 62
    7
 10
49.757567025808058
 20
69.26170132798795
 11
49.757567025808058
 21
80.76170132798795
  0
LINE
  8
_0-9_寸法線層１
  6
CONTINUOUS
 62
    7
 10
67.757567025808072
 20
66.761701327987964
 11
67.757567025808072
 21
80.76170132798795
  0
LINE
  8
_0-9_寸法線層１
  6
CONTINUOUS
 62
    7
 10
49.757567025808058
 20
78.76170132798795
 11
51.68941867838619
 21
79.27933941819299
  0
LINE
  8
_0-9_寸法線層１
  6
CONTINUOUS
 62
    7
 10
49.757567025808058
 20
78.76170132798795
 11
51.68941867838619
 21
78.24406323778291
  0
LINE
  8
_0-9_寸法線層１
  6
CONTINUOUS
 62
    7
 10
67.757567025808072
 20
78.76170132798795
 11
65.82571537322994
 21
78.24406323778291
  0
LINE
  8
_0-9_寸法線層１
  6
CONTINUOUS
 62
    7
 10
67.757567025808072
 20
78.76170132798795
 11
65.82571537322994
 21
79.27933941819299
  0
LINE
  8
_0-9_寸法線層１
  6
CONTINUOUS
 62
    7
 10
109.93786512131706
 20
6.2617013279879359
 11
194.5928276454903
 21
6.2617013279879359
  0
TEXT
  8
_0-9_寸法線層１
 62
    7
 10
150.3771178157499
 20
7.2617013279879359
 40
3
 41
1
 50
0
  1
84
  0
LINE
  8
_0-9_寸法線層１
  6
CONTINUOUS
 62
    7
 10
109.93786512131706
 20
48.582730859409253
 11
109.93786512131706
 21
4.2617013279879359
  0
LINE
  8
_0-9_寸法線層１
  6
CONTINUOUS
 62
    7
 10
194.5928276454903
 20
48.852547089362275
 11
194.5928276454903
 21
4.2617013279879359
  0
LINE
  8
_0-9_寸法線層１
  6
CONTINUOUS
 62
    7
 10
117.25756702580807
 20
11.261701327987936
 11
187.25756702580807
 21
11.261701327987936
  0
TEXT
  8
_0-9_寸法線層１
 62
    7
 10
150.36933845815429
 20
12.261701327987936
 40
3
 41
1
 50
0
  1
70
  0
LINE
  8
_0-9_寸法線層１
  6
CONTINUOUS
 62
    7
 10
117.25756702580807
 20
60.76170132798795
 11
117.25756702580807
 21
9.2617013279879359
  0
LINE
  8
_0-9_寸法線層１
  6
CONTINUOUS
 62
    7
 10
187.25756702580807
 20
60.76170132798795
 11
187.25756702580807
 21
9.2617013279879359
  0
LINE
  8
_0-9_寸法線層１
  6
CONTINUOUS
 62
    7
 10
207.25756702580804
 20
55.011701327987936
 11
207.25756702580804
 21
18.011701327987936
  0
TEXT
  8
_0-9_寸法線層１
 62
    7
 10
206.25756702580804
 20
34.623472760334153
 40
3
 41
1
 50
90
  1
37
  0
LINE
  8
_0-9_寸法線層１
  6
CONTINUOUS
 62
    7
 10
182.7575670258081
 20
55.011701327987936
 11
209.25756702580804
 21
55.011701327987936
  0
LINE
  8
_0-9_寸法線層１
  6
CONTINUOUS
 62
    7
 10
179.34947249046232
 20
18.011701327987936
 11
209.25756702580804
 21
18.011701327987936
  0
LINE
  8
_0-9_寸法線層１
  6
CONTINUOUS
 62
    7
 10
207.25756702580804
 20
55.011701327987936
 11
207.25756702580804
 21
92.011701327987936
  0
TEXT
  8
_0-9_寸法線層１
 62
    7
 10
206.25756702580804
 20
71.623472760334153
 40
3
 41
1
 50
90
  1
37
  0
LINE
  8
_0-9_寸法線層１
  6
CONTINUOUS
 62
    7
 10
182.7575670258081
 20
55.011701327987936
 11
209.25756702580804
 21
55.011701327987936
  0
LINE
  8
_0-9_寸法線層１
  6
CONTINUOUS
 62
    7
 10
179.34790858216994
 20
92.011701327987936
 11
209.25756702580804
 21
92.011701327987936
  0
TEXT
  8
_0-9_寸法線層１
 62
    7
 10
201.25756702580804
 20
61.123472760334181
 40
3
 41
1
 50
90
  1
3.0
  0
LINE
  8
_0-9_寸法線層１
  6
CONTINUOUS
 62
    7
 10
182.7575670258081
 20
55.011701327987936
 11
204.25756702580804
 21
55.011701327987936
  0
LINE
  8
_0-9_寸法線層１
  6
CONTINUOUS
 62
    7
 10
197.75756702580804
 20
57.961701327987925
 11
204.25756702580804
 21
57.961701327987925
  0
TEXT
  8
_0-9_寸法線層１
 62
    7
 10
248.75756702580804
 20
58.623472760334181
 40
3
 41
1
 50
90
  1
1.5
  0
LINE
  8
_0-9_寸法線層１
  6
CONTINUOUS
 62
    7
 10
261.75756702580804
 20
56.26170132798795
 11
247.75756702580804
 21
56.26170132798795
  0
LINE
  8
_0-9_寸法線層１
  6
CONTINUOUS
 62
    7
 10
269.25756702580804
 20
53.26170132798795
 11
247.75756702580804
 21
53.26170132798795
  0
LINE
  8
_0-9_寸法線層１
  6
CONTINUOUS
 62
    7
 10
269.75756702580804
 20
71.26170132798795
 11
283.75756702580804
 21
71.26170132798795
  0
TEXT
  8
_0-9_寸法線層１
 62
    7
 10
273.36933845815429
 20
72.26170132798795
 40
3
 41
1
 50
0
  1
φ7
  0
LINE
  8
_0-9_寸法線層１
  6
CONTINUOUS
 62
    7
 10
269.75756702580804
 20
56.76170132798795
 11
269.75756702580804
 21
73.26170132798795
  0
LINE
  8
_0-9_寸法線層１
  6
CONTINUOUS
 62
    7
 10
283.75756702580804
 20
56.76170132798795
 11
283.75756702580804
 21
73.26170132798795
  0
LINE
  8
_0-9_寸法線層１
  6
CONTINUOUS
 62
    7
 10
307.25756702580804
 20
56.26170132798795
 11
307.25756702580804
 21
48.26170132798795
  0
TEXT
  8
_0-9_寸法線層１
 62
    7
 10
306.25756702580804
 20
51.123472760334181
 40
3
 41
1
 50
90
  1
4
  0
LINE
  8
_0-9_寸法線層１
  6
CONTINUOUS
 62
    7
 10
295.25756702580804
 20
56.26170132798795
 11
309.25756702580804
 21
56.26170132798795
  0
LINE
  8
_0-9_寸法線層１
  6
CONTINUOUS
 62
    7
 10
296.85756702580795
 20
48.26170132798795
 11
309.25756702580804
 21
48.26170132798795
  0
TEXT
  8
_0-9_寸法線層１
 62
    7
 10
287.36933845815429
 20
32.26170132798795
 40
3
 41
1
 50
0
  1
φ3.2
  0
LINE
  8
_0-9_寸法線層１
  6
CONTINUOUS
 62
    7
 10
273.557567025808
 20
47.76170132798795
 11
273.557567025808
 21
29.26170132798795
  0
LINE
  8
_0-9_寸法線層１
  6
CONTINUOUS
 62
    7
 10
279.95756702580809
 20
47.76170132798795
 11
279.95756702580809
 21
29.26170132798795
  0
LINE
  8
_0-9_寸法線層１
  6
CONTINUOUS
 62
    7
 10
117.25756702580807
 20
11.261701327987936
 11
119.1894186783862
 21
11.779339418192976
  0
LINE
  8
_0-9_寸法線層１
  6
CONTINUOUS
 62
    7
 10
117.25756702580807
 20
11.261701327987936
 11
119.1894186783862
 21
10.744063237782896
  0
LINE
  8
_0-9_寸法線層１
  6
CONTINUOUS
 62
    7
 10
109.93786512131706
 20
6.2617013279879359
 11
111.86971677389519
 21
6.7793394181929756
  0
LINE
  8
_0-9_寸法線層１
  6
CONTINUOUS
 62
    7
 10
109.93786512131706
 20
6.2617013279879359
 11
111.86971677389519
 21
5.7440632377828962
  0
LINE
  8
_0-9_寸法線層１
  6
CONTINUOUS
 62
    7
 10
187.25756702580807
 20
11.261701327987936
 11
185.32571537322994
 21
10.744063237782896
  0
LINE
  8
_0-9_寸法線層１
  6
CONTINUOUS
 62
    7
 10
187.25756702580807
 20
11.261701327987936
 11
185.32571537322994
 21
11.779339418192976
  0
LINE
  8
_0-9_寸法線層１
  6
CONTINUOUS
 62
    7
 10
194.5928276454903
 20
6.2617013279879359
 11
192.66097599291217
 21
5.7440632377828962
  0
LINE
  8
_0-9_寸法線層１
  6
CONTINUOUS
 62
    7
 10
194.5928276454903
 20
6.2617013279879359
 11
192.66097599291217
 21
6.7793394181929756
  0
LINE
  8
_0-9_寸法線層１
  6
CONTINUOUS
 62
    7
 10
207.25756702580804
 20
18.011701327987936
 11
206.73992893560302
 21
19.943552980566068
  0
LINE
  8
_0-9_寸法線層１
  6
CONTINUOUS
 62
    7
 10
207.25756702580804
 20
18.011701327987936
 11
207.77520511601307
 21
19.943552980566068
  0
LINE
  8
_0-9_寸法線層１
  6
CONTINUOUS
 62
    7
 10
207.25756702580804
 20
55.011701327987936
 11
207.77520511601307
 21
53.079849675409797
  0
LINE
  8
_0-9_寸法線層１
  6
CONTINUOUS
 62
    7
 10
207.25756702580804
 20
55.011701327987936
 11
206.73992893560302
 21
53.079849675409797
  0
LINE
  8
_0-9_寸法線層１
  6
CONTINUOUS
 62
    7
 10
207.25756702580804
 20
55.011701327987936
 11
206.73992893560302
 21
56.943552980566075
  0
LINE
  8
_0-9_寸法線層１
  6
CONTINUOUS
 62
    7
 10
207.25756702580804
 20
55.011701327987936
 11
207.77520511601307
 21
56.943552980566075
  0
LINE
  8
_0-9_寸法線層１
  6
CONTINUOUS
 62
    7
 10
207.25756702580804
 20
92.011701327987936
 11
207.77520511601307
 21
90.079849675409804
  0
LINE
  8
_0-9_寸法線層１
  6
CONTINUOUS
 62
    7
 10
207.25756702580804
 20
92.011701327987936
 11
206.73992893560302
 21
90.079849675409804
  0
LINE
  8
_0-9_寸法線層１
  6
CONTINUOUS
 62
    7
 10
202.25756702580804
 20
57.961701327987925
 11
202.25756702580804
 21
66.399929895641733
  0
LINE
  8
_0-9_寸法線層１
  6
CONTINUOUS
 62
    7
 10
202.25756702580804
 20
55.011701327987936
 11
202.25756702580804
 21
50.511701327987936
  0
LINE
  8
_0-9_寸法線層１
  6
CONTINUOUS
 62
    7
 10
202.25756702580804
 20
55.011701327987936
 11
202.25756702580804
 21
57.961701327987925
  0
LINE
  8
_0-9_寸法線層１
  6
CONTINUOUS
 62
    7
 10
202.25756702580804
 20
57.961701327987925
 11
201.73992893560302
 21
59.893552980566064
  0
LINE
  8
_0-9_寸法線層１
  6
CONTINUOUS
 62
    7
 10
202.25756702580804
 20
57.961701327987925
 11
202.77520511601307
 21
59.893552980566064
  0
LINE
  8
_0-9_寸法線層１
  6
CONTINUOUS
 62
    7
 10
202.25756702580804
 20
55.011701327987936
 11
202.77520511601307
 21
53.079849675409797
  0
LINE
  8
_0-9_寸法線層１
  6
CONTINUOUS
 62
    7
 10
202.25756702580804
 20
55.011701327987936
 11
201.73992893560302
 21
53.079849675409797
  0
LINE
  8
_0-9_寸法線層１
  6
CONTINUOUS
 62
    7
 10
269.75756702580804
 20
71.26170132798795
 11
271.68941867838618
 21
71.77933941819299
  0
LINE
  8
_0-9_寸法線層１
  6
CONTINUOUS
 62
    7
 10
269.75756702580804
 20
71.26170132798795
 11
271.68941867838618
 21
70.74406323778291
  0
LINE
  8
_0-9_寸法線層１
  6
CONTINUOUS
 62
    7
 10
283.75756702580804
 20
71.26170132798795
 11
281.82571537322991
 21
70.74406323778291
  0
LINE
  8
_0-9_寸法線層１
  6
CONTINUOUS
 62
    7
 10
283.75756702580804
 20
71.26170132798795
 11
281.82571537322991
 21
71.77933941819299
  0
LINE
  8
_0-9_寸法線層１
  6
CONTINUOUS
 62
    7
 10
307.25756702580804
 20
48.26170132798795
 11
306.73992893560296
 21
50.193552980566089
  0
LINE
  8
_0-9_寸法線層１
  6
CONTINUOUS
 62
    7
 10
307.25756702580804
 20
48.26170132798795
 11
307.77520511601313
 21
50.193552980566089
  0
LINE
  8
_0-9_寸法線層１
  6
CONTINUOUS
 62
    7
 10
307.25756702580804
 20
56.26170132798795
 11
307.77520511601313
 21
54.329849675409811
  0
LINE
  8
_0-9_寸法線層１
  6
CONTINUOUS
 62
    7
 10
307.25756702580804
 20
56.26170132798795
 11
306.73992893560296
 21
54.329849675409811
  0
LINE
  8
_0-9_寸法線層１
  6
CONTINUOUS
 62
    7
 10
249.75756702580804
 20
56.26170132798795
 11
249.75756702580804
 21
63.899929895641733
  0
LINE
  8
_0-9_寸法線層１
  6
CONTINUOUS
 62
    7
 10
249.75756702580804
 20
53.26170132798795
 11
249.75756702580804
 21
48.76170132798795
  0
LINE
  8
_0-9_寸法線層１
  6
CONTINUOUS
 62
    7
 10
273.557567025808
 20
31.26170132798795
 11
269.057567025808
 21
31.26170132798795
  0
LINE
  8
_0-9_寸法線層１
  6
CONTINUOUS
 62
    7
 10
279.95756702580809
 20
31.26170132798795
 11
296.3957955934618
 21
31.26170132798795
  0
LINE
  8
_0-9_寸法線層１
  6
CONTINUOUS
 62
    7
 10
249.75756702580804
 20
53.26170132798795
 11
249.75756702580804
 21
56.26170132798795
  0
LINE
  8
_0-9_寸法線層１
  6
CONTINUOUS
 62
    7
 10
273.557567025808
 20
31.26170132798795
 11
279.95756702580809
 21
31.26170132798795
  0
LINE
  8
_0-9_寸法線層１
  6
CONTINUOUS
 62
    7
 10
249.75756702580804
 20
56.26170132798795
 11
249.23992893560302
 21
58.193552980566089
  0
LINE
  8
_0-9_寸法線層１
  6
CONTINUOUS
 62
    7
 10
249.75756702580804
 20
56.26170132798795
 11
250.27520511601307
 21
58.193552980566089
  0
LINE
  8
_0-9_寸法線層１
  6
CONTINUOUS
 62
    7
 10
249.75756702580804
 20
53.26170132798795
 11
250.27520511601307
 21
51.329849675409811
  0
LINE
  8
_0-9_寸法線層１
  6
CONTINUOUS
 62
    7
 10
249.75756702580804
 20
53.26170132798795
 11
249.23992893560302
 21
51.329849675409811
  0
LINE
  8
_0-9_寸法線層１
  6
CONTINUOUS
 62
    7
 10
273.557567025808
 20
31.26170132798795
 11
271.62571537322987
 21
30.74406323778291
  0
LINE
  8
_0-9_寸法線層１
  6
CONTINUOUS
 62
    7
 10
273.557567025808
 20
31.26170132798795
 11
271.62571537322987
 21
31.77933941819299
  0
LINE
  8
_0-9_寸法線層１
  6
CONTINUOUS
 62
    7
 10
279.95756702580809
 20
31.26170132798795
 11
281.88941867838622
 21
31.77933941819299
  0
LINE
  8
_0-9_寸法線層１
  6
CONTINUOUS
 62
    7
 10
279.95756702580809
 20
31.26170132798795
 11
281.88941867838622
 21
30.74406323778291
  0
TEXT
  8
_0-7_注記層１
 62
    7
 10
210.9106018368231
 20
-6.0412010850888009
 40
3
 41
1
 50
0
  1
2019.12.11　図面見直し（石津）
  0
LINE
  8
_0-0_BaseLayer
  6
CONTINUOUS
 62
    7
 10
26.757567025808044
 20
161.26170132797955
 11
32.257567025808044
 21
161.26170132797955
  0
LINE
  8
_0-1_作画層１
  6
CONTINUOUS
 62
    7
 10
32.257567025808015
 20
159.55522242431994
 11
32.262254525808018
 21
159.55522242431994
  0
ARC
  8
_0-1_作画層１
  6
DOT_18
 62
    7
 10
32.262254525808004
 20
158.35522242431995
 40
1.1999999999999886
 50
89.999999999999332
 51
180
  0
ARC
  8
_0-1_作画層１
  6
DOT_18
 62
    7
 10
32.257567025808044
 20
158.35522242431995
 40
1.1999999999999886
 50
0
 51
90.000000000001364
  0
CIRCLE
  8
_0-1_作画層１
  6
DASHED2
 62
    7
 10
32.257567025808044
 20
158.26170132797955
 40
1.5
  0
LINE
  8
_0-1_作画層１
  6
DOT_18
 62
    7
 10
31.062254525808001
 20
131.22524299465465
 11
31.062254525808015
 21
158.35522242431995
  0
LINE
  8
_0-1_作画層１
  6
DOT_18
 62
    7
 10
33.457567025808004
 20
129.74986590882841
 11
33.457567025808004
 21
158.35522242431995
  0
TEXT
  8
_0-7_注記層１
 62
    7
 10
234.75
 20
219.5
 40
3.5
 41
1
 50
0
  1
型　　 　番
  0
TEXT
  8
_0-7_注記層１
 62
    7
 10
232.25
 20
228.75
 40
5
 41
1
 50
0
  1
規　格
  0
TEXT
  8
_0-7_注記層１
 62
    7
 10
269.75
 20
219.5
 40
3.5
 41
1
 50
0
  1
機能
  0
TEXT
  8
_0-7_注記層１
 62
    7
 10
234.75756702580804
 20
214.76170132798794
 40
3
 41
1
 50
0
  1
SCD-15M1A
  0
TEXT
  8
_0-7_注記層１
 62
    7
 10
234.75756702580804
 20
209.76170132798794
 40
3
 41
1
 50
0
  1
SCD-15MAB
  0
TEXT
  8
_0-7_注記層１
 62
    7
 10
234.75756702580804
 20
204.76170132798794
 40
3
 41
1
 50
0
  1
SCD-30M1A
  0
TEXT
  8
_0-7_注記層１
 62
    7
 10
234.75756702580804
 20
194.76170132798794
 40
3
 41
1
 50
0
  1
SCD-1H1A
  0
TEXT
  8
_0-7_注記層１
 62
    7
 10
234.75756702580804
 20
189.76170132798794
 40
3
 41
1
 50
0
  1
SCD-1HAB
  0
TEXT
  8
_0-7_注記層１
 62
    7
 10
234.75756702580804
 20
184.76170132798794
 40
3
 41
1
 50
0
  1
SCD-2H1A
  0
TEXT
  8
_0-7_注記層１
 62
    7
 10
234.75756702580804
 20
179.76170132798794
 40
3
 41
1
 50
0
  1
SCD-2HAB
  0
TEXT
  8
_0-7_注記層１
 62
    7
 10
269.75756702580804
 20
184.76170132798794
 40
3
 41
1
 50
0
  1
最大120分　a接点
  0
TEXT
  8
_0-7_注記層１
 62
    7
 10
269.75756702580804
 20
179.76170132798794
 40
3
 41
1
 50
0
  1
最大120分　c接点
  0
TEXT
  8
_0-7_注記層１
 62
    7
 10
269.75756702580804
 20
214.76170132798794
 40
3
 41
1
 50
0
  1
最大 15分　a接点
  0
TEXT
  8
_0-7_注記層１
 62
    7
 10
269.75756702580804
 20
209.76170132798794
 40
3
 41
1
 50
0
  1
最大 15分　c接点
  0
TEXT
  8
_0-7_注記層１
 62
    7
 10
269.75756702580804
 20
204.76170132798794
 40
3
 41
1
 50
0
  1
最大 30分　a接点
  0
TEXT
  8
_0-7_注記層１
 62
    7
 10
269.75756702580804
 20
199.76170132798794
 40
3
 41
1
 50
0
  1
最大 30分　c接点
  0
TEXT
  8
_0-7_注記層１
 62
    7
 10
269.75756702580804
 20
194.76170132798794
 40
3
 41
1
 50
0
  1
最大 60分　a接点
  0
TEXT
  8
_0-7_注記層１
 62
    7
 10
269.75756702580804
 20
189.76170132798794
 40
3
 41
1
 50
0
  1
最大 60分　c接点
  0
TEXT
  8
_0-7_注記層１
 62
    7
 10
244.75756702580804
 20
102.26170132798794
 40
3
 41
1
 50
0
  1
※本体（SC-2)とツマミ（K-1)と飾り板がセットになっています
  0
TEXT
  8
_0-7_注記層１
 62
    7
 10
234.75
 20
154.5
 40
3.5
 41
1
 50
0
  1
微 角 度 セット
  0
TEXT
  8
_0-7_注記層１
 62
    7
 10
234.75
 20
149.5
 40
3.5
 41
1
 50
0
  1
時間設定方向
  0
TEXT
  8
_0-7_注記層１
 62
    7
 10
234.75
 20
144.5
 40
3.5
 41
1
 50
0
  1
動　作　方　向
  0
TEXT
  8
_0-7_注記層１
 62
    7
 10
234.75
 20
139.5
 40
3.5
 41
1
 50
0
  1
設　定　トルク
  0
TEXT
  8
_0-7_注記層１
 62
    7
 10
234.75
 20
134.5
 40
3.5
 41
1
 50
0
  1
戻　し　トルク
  0
TEXT
  8
_0-7_注記層１
 62
    7
 10
234.75
 20
129.5
 40
3.5
 41
1
 50
0
  1
絶　縁　抵　抗
  0
TEXT
  8
_0-7_注記層１
 62
    7
 10
234.75
 20
124.5
 40
3.5
 41
1
 50
0
  1
絶　縁　耐　圧
  0
TEXT
  8
_0-7_注記層１
 62
    7
 10
234.75
 20
119.5
 40
3.5
 41
1
 50
0
  1
強制反復耐力
  0
TEXT
  8
_0-7_注記層１
 62
    7
 10
269.75
 20
154.5
 40
3.5
 41
1
 50
0
  1
OFF位置から60度
  0
TEXT
  8
_0-7_注記層１
 62
    7
 10
269.75
 20
149.5
 40
3.5
 41
1
 50
0
  1
時計方向
  0
TEXT
  8
_0-7_注記層１
 62
    7
 10
269.75
 20
144.5
 40
3.5
 41
1
 50
0
  1
反時計方向
  0
TEXT
  8
_0-7_注記層１
 62
    7
 10
269.75
 20
129.5
 40
3.5
 41
1
 50
0
  1
100MΩ以上（DC500Vメガ－）
  0
TEXT
  8
_0-7_注記層１
 62
    7
 10
269.75
 20
124.5
 40
3.5
 41
1
 50
0
  1
AC1000V、1分間（充電部、非充電部間）
  0
TEXT
  8
_0-7_注記層１
 62
    7
 10
269.75
 20
119.5
 40
3.5
 41
1
 50
0
  1
毎分5回の速度にて機械的5000回
  0
TEXT
  8
_0-7_注記層１
 62
    7
 10
269.75
 20
116
 40
3.5
 41
1
 50
0
  1
電気的10000回に耐えること
  0
TEXT
  8
_0-7_注記層１
 62
    7
 10
234.75
 20
174.5
 40
3.5
 41
1
 50
0
  1
最　大　角　度
  0
TEXT
  8
_0-7_注記層１
 62
    7
 10
234.75
 20
169.5
 40
3.5
 41
1
 50
0
  1
接　点　定　格
  0
TEXT
  8
_0-7_注記層１
 62
    7
 10
234.75
 20
164.5
 40
3.5
 41
1
 50
0
  1
ス　イ　ッ　チ
  0
TEXT
  8
_0-7_注記層１
 62
    7
 10
234.75
 20
159.5
 40
3.5
 41
1
 50
0
  1
時　間　精　度
  0
TEXT
  8
_0-7_注記層１
 62
    7
 10
269.75
 20
159.5
 40
3.5
 41
1
 50
0
  1
最大時間±15％（最大角度にて）
  0
TEXT
  8
_0-7_注記層１
 62
    7
 10
269.75
 20
164.5
 40
3.5
 41
1
 50
0
  1
1a、1c
  0
TEXT
  8
_0-7_注記層１
 62
    7
 10
269.75
 20
139.5
 40
3.5
 41
1
 50
0
  1
0.12N・m～0.45N・m
  0
TEXT
  8
_0-7_注記層１
 62
    7
 10
269.75
 20
134.5
 40
3.5
 41
1
 50
0
  1
0.45N・m以下
  0
TEXT
  8
_0-7_注記層１
 62
    7
 10
269.75
 20
174.5
 40
3.5
 41
1
 50
0
  1
270度（連続ONは-45度）
  0
TEXT
  8
_0-7_注記層１
 62
    7
 10
269.75
 20
169.5
 40
3.5
 41
1
 50
0
  1
AC125V　6A
  0
TEXT
  8
_0-7_注記層１
 62
    7
 10
234.75756702580804
 20
199.76170132798794
 40
3
 41
1
 50
0
  1
SCD-30MAB
  0
LINE
  8
_0-0_BaseLayer
  6
CONTINUOUS
 62
    7
 10
229.75
 20
228.75
 11
249.75
 21
228.75
  0
LINE
  8
_0-0_BaseLayer
  6
CONTINUOUS
 62
    7
 10
344.75
 20
223.75
 11
232.25
 21
223.75
  0
LINE
  8
_0-0_BaseLayer
  6
CONTINUOUS
 62
    7
 10
344.75
 20
218.75
 11
232.25
 21
218.75
  0
LINE
  8
_0-0_BaseLayer
  6
CONTINUOUS
 62
    7
 10
344.75
 20
208.75
 11
232.25
 21
208.75
  0
LINE
  8
_0-0_BaseLayer
  6
CONTINUOUS
 62
    7
 10
344.75
 20
203.75
 11
232.25
 21
203.75
  0
LINE
  8
_0-0_BaseLayer
  6
CONTINUOUS
 62
    7
 10
344.75
 20
198.75
 11
232.25
 21
198.75
  0
LINE
  8
_0-0_BaseLayer
  6
CONTINUOUS
 62
    7
 10
232.25
 20
193.75
 11
344.75
 21
193.75
  0
LINE
  8
_0-0_BaseLayer
  6
CONTINUOUS
 62
    7
 10
344.75
 20
188.75
 11
232.25
 21
188.75
  0
LINE
  8
_0-0_BaseLayer
  6
CONTINUOUS
 62
    7
 10
344.75
 20
213.75
 11
232.25
 21
213.75
  0
LINE
  8
_0-0_BaseLayer
  6
CONTINUOUS
 62
    7
 10
344.75
 20
173.75
 11
232.25
 21
173.75
  0
LINE
  8
_0-0_BaseLayer
  6
CONTINUOUS
 62
    7
 10
232.25
 20
183.75
 11
344.75
 21
183.75
  0
LINE
  8
_0-0_BaseLayer
  6
CONTINUOUS
 62
    7
 10
344.75
 20
178.75
 11
232.25
 21
178.75
  0
LINE
  8
_0-0_BaseLayer
  6
CONTINUOUS
 62
    7
 10
344.75
 20
153.75
 11
232.25
 21
153.75
  0
LINE
  8
_0-0_BaseLayer
  6
CONTINUOUS
 62
    7
 10
344.75
 20
148.75
 11
232.25
 21
148.75
  0
LINE
  8
_0-0_BaseLayer
  6
CONTINUOUS
 62
    7
 10
344.75
 20
143.75
 11
232.25
 21
143.75
  0
LINE
  8
_0-0_BaseLayer
  6
CONTINUOUS
 62
    7
 10
344.75
 20
128.75
 11
232.25
 21
128.75
  0
LINE
  8
_0-0_BaseLayer
  6
CONTINUOUS
 62
    7
 10
344.75
 20
128.75
 11
232.25
 21
128.75
  0
LINE
  8
_0-0_BaseLayer
  6
CONTINUOUS
 62
    7
 10
344.75
 20
123.75
 11
232.25
 21
123.75
  0
LINE
  8
_0-0_BaseLayer
  6
CONTINUOUS
 62
    7
 10
267.25
 20
133.75
 11
344.75
 21
133.75
  0
LINE
  8
_0-0_BaseLayer
  6
CONTINUOUS
 62
    7
 10
232.25
 20
138.75
 11
344.75
 21
138.75
  0
LINE
  8
_0-0_BaseLayer
  6
CONTINUOUS
 62
    7
 10
344.75
 20
173.75
 11
232.25
 21
173.75
  0
LINE
  8
_0-0_BaseLayer
  6
CONTINUOUS
 62
    7
 10
344.75
 20
168.75
 11
232.25
 21
168.75
  0
LINE
  8
_0-0_BaseLayer
  6
CONTINUOUS
 62
    7
 10
232.25
 20
163.75
 11
344.75
 21
163.75
  0
LINE
  8
_0-0_BaseLayer
  6
CONTINUOUS
 62
    7
 10
344.75
 20
158.75
 11
232.25
 21
158.75
  0
LINE
  8
_0-0_BaseLayer
  6
CONTINUOUS
 62
    7
 10
344.75
 20
113.75
 11
232.25
 21
113.75
  0
LINE
  8
_0-0_BaseLayer
  6
CONTINUOUS
 62
    7
 10
232.25
 20
113.75
 11
232.25
 21
223.75
  0
LINE
  8
_0-0_BaseLayer
  6
CONTINUOUS
 62
    7
 10
344.75
 20
113.75
 11
344.75
 21
223.75
  0
LINE
  8
_0-0_BaseLayer
  6
CONTINUOUS
 62
    7
 10
267.25
 20
223.75
 11
267.25
 21
113.75
  0
LINE
  8
_0-1_作画層１
  6
CONTINUOUS
 62
    7
 10
104.45756702580806
 20
174.76170132798794
 11
103.45756702580806
 21
174.76170132798794
  0
LINE
  8
_0-1_作画層１
  6
CONTINUOUS
 62
    7
 10
103.45756702580806
 20
182.76170132798794
 11
104.45756702580806
 21
182.76170132798794
  0
LINE
  8
_0-1_作画層１
  6
CONTINUOUS
 62
    7
 10
103.45756702580806
 20
174.76170132798794
 11
103.45756702580806
 21
175.76170132798794
  0
LINE
  8
_0-1_作画層１
  6
CONTINUOUS
 62
    7
 10
103.45756702580806
 20
181.76170132798794
 11
103.45756702580806
 21
182.76170132798794
  0
CIRCLE
  8
_0-1_作画層１
  6
CONTINUOUS
 62
    7
 10
97.457567025808061
 20
178.66422328465615
 40
1
  0
LINE
  8
_0-1_作画層１
  6
CONTINUOUS
 62
    7
 10
105.45756702580806
 20
152.76170132798794
 11
110.45756702580806
 21
152.76170132798794
  0
ARC
  8
_0-1_作画層１
  6
CONTINUOUS
 62
    7
 10
105.45756702580806
 20
153.76170132798794
 40
1
 50
180
 51
270
  0
LINE
  8
_0-1_作画層１
  6
CONTINUOUS
 62
    7
 10
105.45756702580806
 20
204.76170132798794
 11
110.45756702580806
 21
204.76170132798794
  0
ARC
  8
_0-1_作画層１
  6
CONTINUOUS
 62
    7
 10
105.45756702580806
 20
203.76170132798794
 40
1
 50
90
 51
180
  0
LINE
  8
_0-1_作画層１
  6
CONTINUOUS
 62
    7
 10
90.634129525808049
 20
128.76170132799635
 11
98.0388482494307
 21
132.46406068980767
  0
LINE
  8
_0-1_作画層１
  6
CONTINUOUS
 62
    7
 10
90.634129525808049
 20
126.26170132799635
 11
98.0388482494307
 21
129.96406068980767
  0
ARC
  8
_0-1_作画層１
  6
CONTINUOUS
 62
    7
 10
100.2749162269305
 20
127.99192473480824
 40
4.9999999999998712
 50
56.309932474019355
 51
116.56505117707886
  0
ARC
  8
_0-1_作画層１
  6
CONTINUOUS
 62
    7
 10
100.2749162269305
 20
125.49192473480824
 40
4.9999999999998712
 50
56.309932474019355
 51
116.56505117707886
  0
LINE
  8
_0-1_作画層１
  6
CONTINUOUS
 62
    7
 10
103.04841720805663
 20
132.1521762064973
 11
105.94571040590577
 21
130.22064740793121
  0
LINE
  8
_0-1_作画層１
  6
CONTINUOUS
 62
    7
 10
103.04841720805663
 20
129.6521762064973
 11
105.94571040590577
 21
127.72064740793121
  0
ARC
  8
_0-1_作画層１
  6
CONTINUOUS
 62
    7
 10
108.71921138703196
 20
134.38089887962039
 40
4.999999999999992
 50
236.30993247401949
 51
291.80140948635136
  0
ARC
  8
_0-1_作画層１
  6
CONTINUOUS
 62
    7
 10
108.71921138703196
 20
131.88089887962039
 40
4.999999999999992
 50
236.30993247401949
 51
291.80140948635136
  0
LINE
  8
_0-1_作画層１
  6
CONTINUOUS
 62
    7
 10
120.63412952580808
 20
131.26170132799635
 11
110.57616476880244
 21
127.23851542519409
  0
LINE
  8
_0-1_作画層１
  6
CONTINUOUS
 62
    7
 10
120.63412952580808
 20
133.76170132799635
 11
110.57616476880244
 21
129.73851542519409
  0
LINE
  8
_0-1_作画層１
  6
CONTINUOUS
 62
    7
 10
104.45756702580805
 20
128.71274299466302
 11
104.45756702580805
 21
110.63670132799635
  0
LINE
  8
_0-1_作画層１
  6
CONTINUOUS
 62
    7
 10
106.85287952580805
 20
127.24227781471538
 11
106.85287952580805
 21
110.63670132799635
  0
LINE
  8
_0-1_作画層１
  6
CONTINUOUS
 62
    7
 10
104.45756702580805
 20
110.63670132799635
 11
106.85287952580805
 21
110.63670132799635
  0
LINE
  8
_0-1_作画層１
  6
CONTINUOUS
 62
    7
 10
106.25912952580805
 20
110.63670132799635
 11
105.00912952580805
 21
110.63670132799635
  0
LINE
  8
_0-1_作画層１
  6
CONTINUOUS
 62
    7
 10
105.00912952580805
 20
110.63670132799635
 11
105.00912952580805
 21
105.63670132799635
  0
LINE
  8
_0-1_作画層１
  6
CONTINUOUS
 62
    7
 10
105.00912952580805
 20
105.63670132799635
 11
106.25912952580805
 21
105.63670132799635
  0
LINE
  8
_0-1_作画層１
  6
CONTINUOUS
 62
    7
 10
106.25912952580805
 20
105.63670132799635
 11
106.25912952580805
 21
110.63670132799635
  0
LINE
  8
_0-1_作画層１
  6
CONTINUOUS
 62
    7
 10
104.45756702580805
 20
131.21274299466302
 11
104.45756702580806
 21
153.76170132798794
  0
LINE
  8
_0-1_作画層１
  6
CONTINUOUS
 62
    7
 10
106.85287952580805
 20
129.74227781471538
 11
106.85287952580805
 21
152.76170132798794
  0
TEXT
  8
_0-9_寸法線層１
 62
    7
 10
116.33256702580806
 20
215.0562539861788
 40
3
 41
1
 50
0
  1
27
  0
LINE
  8
_0-1_作画層１
  6
CONTINUOUS
 62
    7
 10
110.45756702580806
 20
152.76170132798794
 11
110.45756702580806
 21
204.76170132798794
  0
LINE
  8
_0-1_作画層１
  6
CONTINUOUS
 62
    7
 10
104.45756702580806
 20
203.76170132798794
 11
104.45756702580806
 21
153.76170132798794
  0
TEXT
  8
_0-9_寸法線層１
 62
    7
 10
93.332567025808061
 20
215.0562539861788
 40
3
 41
1
 50
0
  1
17
  0
TEXT
  8
_0-9_寸法線層１
 62
    7
 10
99.707567025808061
 20
200.95507715327756
 40
3
 41
1
 50
0
  1
6
  0
TEXT
  8
_0-9_寸法線層１
 62
    7
 10
103.21064020974114
 20
218.12278393643027
 40
3
 41
1
 50
0
  1
1
  0
TEXT
  8
_0-9_寸法線層１
 62
    7
 10
76.399950479000836
 20
176.26170132798794
 40
3
 41
1
 50
90
  1
φ6
  0
LINE
  8
_0-1_作画層１
  6
CONTINUOUS
 62
    7
 10
87.457567025808061
 20
175.76170132798794
 11
104.45756702580806
 21
175.76170132798794
  0
LINE
  8
_0-1_作画層１
  6
CONTINUOUS
 62
    7
 10
86.457567025808061
 20
176.76170132798794
 11
87.457567025808061
 21
175.76170132798794
  0
LINE
  8
_0-1_作画層１
  6
CONTINUOUS
 62
    7
 10
87.457567025808061
 20
181.76170132798794
 11
104.45756702580806
 21
181.76170132798794
  0
LINE
  8
_0-1_作画層１
  6
CONTINUOUS
 62
    7
 10
86.457567025808061
 20
180.76170132798794
 11
86.457567025808061
 21
176.76170132798794
  0
LINE
  8
_0-1_作画層１
  6
CONTINUOUS
 62
    7
 10
87.457567025808061
 20
181.76170132798794
 11
86.457567025808061
 21
180.76170132798794
  0
LINE
  8
_0-1_作画層１
  6
CONTINUOUS
 62
    7
 10
87.457567025808061
 20
175.76170132798794
 11
87.457567025808061
 21
181.76170132798794
  0
TEXT
  8
_0-9_寸法線層１
 62
    7
 10
73.131276397053426
 20
206.52291589734281
 40
3
 41
1
 50
0
  1
φ2×10
  0
TEXT
  8
_0-9_寸法線層１
 62
    7
 10
76.372005715486566
 20
169.31178818285568
 40
3
 41
1
 50
0
  1
C1
  0
LINE
  8
_0-1_作画層１
  6
CONTINUOUS
 62
    7
 10
104.45756702580806
 20
187.57887730399761
 11
103.45756702580806
 21
187.57887730399761
  0
LINE
  8
_0-1_作画層１
  6
CONTINUOUS
 62
    7
 10
103.45756702580806
 20
187.57887730399761
 11
103.45756702580806
 21
195.57887730399761
  0
LINE
  8
_0-1_作画層１
  6
CONTINUOUS
 62
    7
 10
103.45756702580806
 20
195.57887730399761
 11
104.45756702580806
 21
195.57887730399761
  0
LINE
  8
_0-1_作画層１
  6
CONTINUOUS
 62
    7
 10
104.45756702580806
 20
195.57887730399761
 11
104.45756702580806
 21
187.57887730399761
  0
LINE
  8
_0-1_作画層１
  6
CONTINUOUS
 62
    7
 10
104.45756702580806
 20
161.94452535197823
 11
103.45756702580806
 21
161.94452535197823
  0
LINE
  8
_0-1_作画層１
  6
CONTINUOUS
 62
    7
 10
103.45756702580806
 20
161.94452535197823
 11
103.45756702580806
 21
169.94452535197823
  0
LINE
  8
_0-1_作画層１
  6
CONTINUOUS
 62
    7
 10
103.45756702580806
 20
169.94452535197823
 11
104.45756702580806
 21
169.94452535197823
  0
LINE
  8
_0-1_作画層１
  6
CONTINUOUS
 62
    7
 10
104.45756702580806
 20
169.94452535197823
 11
104.45756702580806
 21
161.94452535197823
  0
LINE
  8
_0-9_寸法線層１
  6
CONTINUOUS
 62
    7
 10
104.45756702580806
 20
214.5562539861788
 11
131.45756702580806
 21
214.5562539861788
  0
LINE
  8
_0-9_寸法線層１
  6
CONTINUOUS
 62
    7
 10
104.45756702580806
 20
217.5562539861788
 11
104.45756702580806
 21
204.76170132798794
  0
LINE
  8
_0-9_寸法線層１
  6
CONTINUOUS
 62
    7
 10
131.45756702580806
 20
217.5562539861788
 11
131.45756702580806
 21
204.76170132798794
  0
LINE
  8
_0-9_寸法線層１
  6
CONTINUOUS
 62
    7
 10
104.45756702580806
 20
214.5562539861788
 11
109.45756702580806
 21
214.5562539861788
  0
LINE
  8
_0-9_寸法線層１
  6
CONTINUOUS
 62
    7
 10
103.45756702580806
 20
214.5562539861788
 11
104.45756702580806
 21
214.5562539861788
  0
LINE
  8
_0-9_寸法線層１
  6
CONTINUOUS
 62
    7
 10
104.45756702580806
 20
217.5562539861788
 11
104.45756702580806
 21
204.76170132798794
  0
LINE
  8
_0-9_寸法線層１
  6
CONTINUOUS
 62
    7
 10
97.457567025808061
 20
200.45507715327756
 11
103.45756702580806
 21
200.45507715327756
  0
LINE
  8
_0-9_寸法線層１
  6
CONTINUOUS
 62
    7
 10
97.457567025808061
 20
203.45507715327756
 11
97.457567025808061
 21
182.76170132798794
  0
LINE
  8
_0-9_寸法線層１
  6
CONTINUOUS
 62
    7
 10
103.45756702580806
 20
217.5562539861788
 11
103.45756702580806
 21
196.45476526561708
  0
LINE
  8
_0-9_寸法線層１
  6
CONTINUOUS
 62
    7
 10
86.457567025808061
 20
214.5562539861788
 11
103.45756702580806
 21
214.5562539861788
  0
LINE
  8
_0-9_寸法線層１
  6
CONTINUOUS
 62
    7
 10
86.457567025808061
 20
217.5562539861788
 11
86.457567025808061
 21
204.76170132798794
  0
LINE
  8
_0-9_寸法線層１
  6
CONTINUOUS
 62
    7
 10
103.45756702580806
 20
217.5562539861788
 11
103.45756702580806
 21
204.76170132798794
  0
LINE
  8
_0-9_寸法線層１
  6
CONTINUOUS
 62
    7
 10
97.457567025808061
 20
182.76170132798794
 11
97.457567025808061
 21
174.76170132798794
  0
LINE
  8
_0-9_寸法線層１
  6
CONTINUOUS
 62
    7
 10
103.45756702580806
 20
214.5562539861788
 11
101.52571537322993
 21
214.03861589597375
  0
LINE
  8
_0-9_寸法線層１
  6
CONTINUOUS
 62
    7
 10
103.45756702580806
 20
214.5562539861788
 11
101.52571537322993
 21
215.07389207638386
  0
LINE
  8
_0-9_寸法線層１
  6
CONTINUOUS
 62
    7
 10
104.45756702580806
 20
214.5562539861788
 11
106.38941867838619
 21
215.07389207638386
  0
LINE
  8
_0-9_寸法線層１
  6
CONTINUOUS
 62
    7
 10
104.45756702580806
 20
214.5562539861788
 11
106.38941867838619
 21
214.03861589597375
  0
LINE
  8
_0-9_寸法線層１
  6
CONTINUOUS
 62
    7
 10
86.457567025808061
 20
214.5562539861788
 11
88.389418678386193
 21
215.07389207638386
  0
LINE
  8
_0-9_寸法線層１
  6
CONTINUOUS
 62
    7
 10
86.457567025808061
 20
214.5562539861788
 11
88.389418678386193
 21
214.03861589597375
  0
LINE
  8
_0-9_寸法線層１
  6
CONTINUOUS
 62
    7
 10
97.457567025808061
 20
200.45507715327756
 11
99.389418678386193
 21
200.97271524348258
  0
LINE
  8
_0-9_寸法線層１
  6
CONTINUOUS
 62
    7
 10
97.457567025808061
 20
200.45507715327756
 11
99.389418678386193
 21
199.93743906307253
  0
LINE
  8
_0-9_寸法線層１
  6
CONTINUOUS
 62
    7
 10
103.45756702580806
 20
200.45507715327756
 11
101.52571537322993
 21
199.93743906307253
  0
LINE
  8
_0-9_寸法線層１
  6
CONTINUOUS
 62
    7
 10
103.45756702580806
 20
200.45507715327756
 11
101.52571537322993
 21
200.97271524348258
  0
LINE
  8
_0-9_寸法線層１
  6
CONTINUOUS
 62
    7
 10
131.45756702580806
 20
214.5562539861788
 11
129.52571537322993
 21
214.03861589597375
  0
LINE
  8
_0-9_寸法線層１
  6
CONTINUOUS
 62
    7
 10
131.45756702580806
 20
214.5562539861788
 11
129.52571537322993
 21
215.07389207638386
  0
LINE
  8
_0-9_寸法線層１
  6
CONTINUOUS
 62
    7
 10
97.034948764067366
 20
179.57053107169281
 11
95.749373544694279
 21
181.10261995793076
  0
LINE
  8
_0-9_寸法線層１
  6
CONTINUOUS
 62
    7
 10
97.034948764067366
 20
179.57053107169281
 11
96.687652408733499
 21
181.54014657771722
  0
LINE
  8
_0-9_寸法線層１
  6
CONTINUOUS
 62
    7
 10
97.034948764067366
 20
179.57053107169281
 11
84.6188209977214
 21
206.19700299255254
  0
LINE
  8
_0-9_寸法線層１
  6
CONTINUOUS
 62
    7
 10
84.6188209977214
 20
206.19700299255254
 11
72.075191991021825
 21
206.19700299255254
  0
LINE
  8
_0-9_寸法線層１
  6
CONTINUOUS
 62
    7
 10
76.899950479000836
 20
175.76170132798794
 11
76.899950479000836
 21
181.76170132798794
  0
LINE
  8
_0-9_寸法線層１
  6
CONTINUOUS
 62
    7
 10
76.899950479000836
 20
175.76170132798794
 11
76.382312388795796
 21
177.69355298056607
  0
LINE
  8
_0-9_寸法線層１
  6
CONTINUOUS
 62
    7
 10
76.899950479000836
 20
175.76170132798794
 11
77.417588569205876
 21
177.69355298056607
  0
LINE
  8
_0-9_寸法線層１
  6
CONTINUOUS
 62
    7
 10
76.899950479000836
 20
181.76170132798794
 11
76.382312388795796
 21
179.8298496754098
  0
LINE
  8
_0-9_寸法線層１
  6
CONTINUOUS
 62
    7
 10
76.899950479000836
 20
181.76170132798794
 11
77.417588569205876
 21
179.8298496754098
  0
LINE
  8
_0-9_寸法線層１
  6
CONTINUOUS
 62
    7
 10
73.899950479000836
 20
175.76170132798794
 11
86.457567025808061
 21
175.76170132798794
  0
LINE
  8
_0-9_寸法線層１
  6
CONTINUOUS
 62
    7
 10
73.899950479000836
 20
181.76170132798794
 11
86.457567025808061
 21
181.76170132798794
  0
LINE
  8
_0-9_寸法線層１
  6
CONTINUOUS
 62
    7
 10
79.813088420767926
 20
169.11722272294782
 11
75.922405069488249
 21
169.11722272294782
  0
LINE
  8
_0-9_寸法線層１
  6
CONTINUOUS
 62
    7
 10
86.957567025808061
 20
176.26170132798794
 11
79.813088420767926
 21
169.11722272294782
  0
LINE
  8
_0-9_寸法線層１
  6
CONTINUOUS
 62
    7
 10
86.957567025808061
 20
176.26170132798794
 11
85.957567025808061
 21
174.52965052041907
  0
LINE
  8
_0-9_寸法線層１
  6
CONTINUOUS
 62
    7
 10
86.957567025808061
 20
176.26170132798794
 11
85.225516218239193
 21
175.26170132798794
  0
LINE
  8
_0-1_作画層１
  6
CONTINUOUS
 62
    7
 10
129.55730527977948
 20
204.26170132798794
 11
110.45756702580806
 21
204.26170132798794
  0
LINE
  8
_0-1_作画層１
  6
CONTINUOUS
 62
    7
 10
129.55730527977948
 20
153.26170132798794
 11
110.45756702580806
 21
153.26170132798794
  0
LINE
  8
_0-1_作画層１
  6
CONTINUOUS
 62
    7
 10
131.45756702580806
 20
178.76170132798794
 11
131.45756702580806
 21
194.76170132798794
  0
LINE
  8
_0-1_作画層１
  6
CONTINUOUS
 62
    7
 10
131.45756702580806
 20
178.76170132798794
 11
131.45756702580806
 21
162.76170132798794
  0
LINE
  8
_0-1_作画層１
  6
CONTINUOUS
 62
    7
 10
130.55181073270091
 20
203.36638611250598
 11
131.45756702580806
 21
194.76170132798794
  0
ARC
  8
_0-1_作画層１
  6
CONTINUOUS
 62
    7
 10
129.55730527977948
 20
203.26170132798794
 40
1
 50
6.0090059574945291
 51
90.000000000000028
  0
LINE
  8
_0-1_作画層１
  6
CONTINUOUS
 62
    7
 10
130.55181073270091
 20
154.15701654346989
 11
131.45756702580806
 21
162.76170132798794
  0
ARC
  8
_0-1_作画層１
  6
CONTINUOUS
 62
    7
 10
129.55730527977948
 20
154.26170132798794
 40
1
 50
270
 51
353.99099404250546
  0
LINE
  8
_0-1_作画層１
  6
CONTINUOUS
 62
    7
 10
130.45756702580806
 20
203.6970503702949
 11
130.45756702580806
 21
153.82635228568097
  0
LINE
  8
_0-9_寸法線層１
  6
CONTINUOUS
 62
    7
 10
134.06239731212739
 20
178.76170132798794
 11
79.257567025808044
 21
178.76170132798794
  0
TEXT
  8
_0-9_寸法線層１
 62
    7
 10
139.95756702580806
 20
175.38670132798794
 40
3
 41
1
 50
90
  1
φ51
  0
LINE
  8
_0-9_寸法線層１
  6
CONTINUOUS
 62
    7
 10
140.45756702580806
 20
153.26170132798794
 11
140.45756702580806
 21
204.26170132798794
  0
LINE
  8
_0-9_寸法線層１
  6
CONTINUOUS
 62
    7
 10
140.45756702580806
 20
204.26170132798794
 11
140.97520511601311
 21
202.3298496754098
  0
LINE
  8
_0-9_寸法線層１
  6
CONTINUOUS
 62
    7
 10
140.45756702580806
 20
204.26170132798794
 11
139.93992893560304
 21
202.3298496754098
  0
LINE
  8
_0-9_寸法線層１
  6
CONTINUOUS
 62
    7
 10
140.45756702580806
 20
153.26170132798794
 11
139.93992893560301
 21
155.19355298056607
  0
LINE
  8
_0-9_寸法線層１
  6
CONTINUOUS
 62
    7
 10
140.45756702580806
 20
153.26170132798794
 11
140.97520511601311
 21
155.19355298056607
  0
LINE
  8
_0-7_注記層１
  6
CONTINUOUS
 62
    7
 10
140.45756702580806
 20
204.26170132798794
 11
143.45756702580806
 21
204.26170132798794
  0
LINE
  8
_0-7_注記層１
  6
CONTINUOUS
 62
    7
 10
140.45756702580806
 20
204.26170132798794
 11
130.45756702580806
 21
204.26170132798794
  0
LINE
  8
_0-7_注記層１
  6
CONTINUOUS
 62
    7
 10
130.45756702580806
 20
153.26170132798794
 11
143.45756702580806
 21
153.26170132798794
  0
TEXT
  8
_0-9_寸法線層１
 62
    7
 10
144.95756702580803
 20
175.38670132798794
 40
3
 41
1
 50
90
  1
φ52
  0
LINE
  8
_0-9_寸法線層１
  6
CONTINUOUS
 62
    7
 10
145.45756702580803
 20
152.76170132798794
 11
145.45756702580806
 21
204.76170132798794
  0
LINE
  8
_0-9_寸法線層１
  6
CONTINUOUS
 62
    7
 10
145.45756702580806
 20
204.76170132798794
 11
145.97520511601309
 21
202.8298496754098
  0
LINE
  8
_0-9_寸法線層１
  6
CONTINUOUS
 62
    7
 10
145.45756702580806
 20
204.76170132798794
 11
144.93992893560301
 21
202.8298496754098
  0
LINE
  8
_0-9_寸法線層１
  6
CONTINUOUS
 62
    7
 10
145.45756702580803
 20
152.76170132798794
 11
144.93992893560301
 21
154.69355298056607
  0
LINE
  8
_0-9_寸法線層１
  6
CONTINUOUS
 62
    7
 10
145.45756702580803
 20
152.76170132798794
 11
145.97520511601309
 21
154.69355298056607
  0
LINE
  8
_0-7_注記層１
  6
CONTINUOUS
 62
    7
 10
145.45756702580806
 20
204.76170132798794
 11
148.45756702580806
 21
204.76170132798794
  0
LINE
  8
_0-7_注記層１
  6
CONTINUOUS
 62
    7
 10
145.45756702580806
 20
204.76170132798794
 11
130.45756702580806
 21
204.76170132798794
  0
LINE
  8
_0-7_注記層１
  6
CONTINUOUS
 62
    7
 10
145.45756702580803
 20
152.76170132798794
 11
130.45756702580806
 21
152.76170132798794
  0
LINE
  8
_0-7_注記層１
  6
CONTINUOUS
 62
    7
 10
145.45756702580803
 20
152.76170132798794
 11
148.45756702580806
 21
152.76170132798794
  0
ARC
  8
_0-1_作画層１
  6
CONTINUOUS
 62
    7
 10
183.45756702580809
 20
153.76170132798794
 40
1
 50
180
 51
270
  0
LINE
  8
_0-1_作画層１
  6
CONTINUOUS
 62
    7
 10
188.45756702580809
 20
152.76170132798794
 11
188.45756702580809
 21
151.76170132798794
  0
LINE
  8
_0-1_作画層１
  6
CONTINUOUS
 62
    7
 10
185.45756702580809
 20
151.76170132798794
 11
188.45756702580809
 21
151.76170132798794
  0
ARC
  8
_0-1_作画層１
  6
CONTINUOUS
 62
    7
 10
185.45756702580809
 20
152.76170132798794
 40
1
 50
180
 51
270
  0
LINE
  8
_0-1_作画層１
  6
CONTINUOUS
 62
    7
 10
183.45756702580809
 20
152.76170132798794
 11
184.45756702580809
 21
152.76170132798794
  0
LINE
  8
_0-1_作画層１
  6
CONTINUOUS
 62
    7
 10
182.45756702580809
 20
174.76170132798794
 11
181.45756702580809
 21
174.76170132798794
  0
LINE
  8
_0-1_作画層１
  6
CONTINUOUS
 62
    7
 10
181.45756702580809
 20
182.76170132798794
 11
182.45756702580809
 21
182.76170132798794
  0
ARC
  8
_0-1_作画層１
  6
CONTINUOUS
 62
    7
 10
183.45756702580809
 20
203.76170132798794
 40
1
 50
90
 51
180
  0
LINE
  8
_0-1_作画層１
  6
CONTINUOUS
 62
    7
 10
188.45756702580809
 20
152.76170132798794
 11
188.45756702580809
 21
204.76170132798794
  0
LINE
  8
_0-1_作画層１
  6
CONTINUOUS
 62
    7
 10
182.45756702580809
 20
203.76170132798794
 11
182.45756702580809
 21
153.76170132798794
  0
LINE
  8
_0-1_作画層１
  6
CONTINUOUS
 62
    7
 10
182.45756702580809
 20
187.57887730399761
 11
181.45756702580809
 21
187.57887730399761
  0
LINE
  8
_0-1_作画層１
  6
CONTINUOUS
 62
    7
 10
181.45756702580809
 20
187.57887730399761
 11
181.45756702580809
 21
195.57887730399761
  0
LINE
  8
_0-1_作画層１
  6
CONTINUOUS
 62
    7
 10
181.45756702580809
 20
195.57887730399761
 11
182.45756702580809
 21
195.57887730399761
  0
LINE
  8
_0-1_作画層１
  6
CONTINUOUS
 62
    7
 10
182.45756702580809
 20
195.57887730399761
 11
182.45756702580809
 21
187.57887730399761
  0
LINE
  8
_0-1_作画層１
  6
CONTINUOUS
 62
    7
 10
182.45756702580809
 20
161.94452535197823
 11
181.45756702580809
 21
161.94452535197823
  0
LINE
  8
_0-1_作画層１
  6
CONTINUOUS
 62
    7
 10
181.45756702580809
 20
161.94452535197823
 11
181.45756702580809
 21
169.94452535197823
  0
LINE
  8
_0-1_作画層１
  6
CONTINUOUS
 62
    7
 10
181.45756702580809
 20
169.94452535197823
 11
182.45756702580809
 21
169.94452535197823
  0
LINE
  8
_0-1_作画層１
  6
CONTINUOUS
 62
    7
 10
182.45756702580809
 20
169.94452535197823
 11
182.45756702580809
 21
161.94452535197823
  0
LINE
  8
_0-1_作画層１
  6
CONTINUOUS
 62
    7
 10
181.45756702580809
 20
174.76170132798794
 11
181.45756702580809
 21
182.76170132798794
  0
LINE
  8
_0-1_作画層１
  6
CONTINUOUS
 62
    7
 10
184.45756702580809
 20
152.76170132798794
 11
184.45756702580809
 21
204.76170132798794
  0
LINE
  8
_0-1_作画層１
  6
CONTINUOUS
 62
    7
 10
188.45756702580809
 20
204.76170132798794
 11
188.45756702580809
 21
205.76170132798794
  0
LINE
  8
_0-1_作画層１
  6
CONTINUOUS
 62
    7
 10
185.45756702580809
 20
205.76170132798794
 11
188.45756702580809
 21
205.76170132798794
  0
ARC
  8
_0-1_作画層１
  6
CONTINUOUS
 62
    7
 10
185.45756702580809
 20
204.76170132798794
 40
1
 50
90
 51
180
  0
LINE
  8
_0-1_作画層１
  6
CONTINUOUS
 62
    7
 10
183.45756702580809
 20
204.76170132798794
 11
184.45756702580809
 21
204.76170132798794
  0
LINE
  8
_0-1_作画層１
  6
CONTINUOUS
 62
    7
 10
211.45756702580809
 20
178.76170132798794
 11
211.45756702580809
 21
193.76170132798794
  0
LINE
  8
_0-1_作画層１
  6
CONTINUOUS
 62
    7
 10
211.45756702580809
 20
178.76170132798794
 11
211.45756702580809
 21
163.76170132798794
  0
LINE
  8
_0-1_作画層１
  6
CONTINUOUS
 62
    7
 10
209.59683386125718
 20
204.9261003152933
 11
211.45756702580809
 21
193.76170132798794
  0
ARC
  8
_0-1_作画層１
  6
CONTINUOUS
 62
    7
 10
208.61043993742504
 20
204.76170132798794
 40
1
 50
9.4623222080255687
 51
89.999999999999943
  0
LINE
  8
_0-1_作画層１
  6
CONTINUOUS
 62
    7
 10
209.59683386125718
 20
152.59730234068257
 11
211.45756702580809
 21
163.76170132798794
  0
ARC
  8
_0-1_作画層１
  6
CONTINUOUS
 62
    7
 10
208.61043993742504
 20
152.76170132798794
 40
1
 50
270
 51
350.53767779197437
  0
LINE
  8
_0-1_作画層１
  6
CONTINUOUS
 62
    7
 10
209.45756702580809
 20
205.29309167051184
 11
209.45756702580809
 21
152.23031098546403
  0
LINE
  8
_0-1_作画層１
  6
CONTINUOUS
 62
    7
 10
188.45756702580809
 20
205.76170132798794
 11
188.45756702580809
 21
206.26170132798794
  0
LINE
  8
_0-1_作画層１
  6
CONTINUOUS
 62
    7
 10
188.45756702580809
 20
151.76170132798794
 11
188.45756702580809
 21
151.26170132798794
  0
LINE
  8
_0-1_作画層１
  6
CONTINUOUS
 62
    7
 10
193.45756702580809
 20
205.76170132798794
 11
188.48238107475814
 21
206.25921992309293
  0
LINE
  8
_0-1_作画層１
  6
CONTINUOUS
 62
    7
 10
193.45756702580809
 20
151.76170132798794
 11
188.45756702580809
 21
151.26170132798794
  0
LINE
  8
_0-1_作画層１
  6
CONTINUOUS
 62
    7
 10
208.61043993742504
 20
205.76170132798794
 11
193.45756702580809
 21
205.76170132798794
  0
LINE
  8
_0-1_作画層１
  6
CONTINUOUS
 62
    7
 10
208.61043993742504
 20
151.76170132798794
 11
193.45756702580809
 21
151.76170132798794
  0
LINE
  8
_0-9_寸法線層１
  6
CONTINUOUS
 62
    7
 10
181.45756702580809
 20
214.5562539861788
 11
182.45756702580809
 21
214.5562539861788
  0
LINE
  8
_0-9_寸法線層１
  6
CONTINUOUS
 62
    7
 10
182.45756702580809
 20
217.5562539861788
 11
182.45756702580809
 21
206.25921992309293
  0
LINE
  8
_0-9_寸法線層１
  6
CONTINUOUS
 62
    7
 10
182.45756702580809
 20
214.5562539861788
 11
184.45756702580809
 21
214.5562539861788
  0
LINE
  8
_0-9_寸法線層１
  6
CONTINUOUS
 62
    7
 10
182.45756702580809
 20
214.5562539861788
 11
184.38941867838622
 21
215.07389207638386
  0
LINE
  8
_0-9_寸法線層１
  6
CONTINUOUS
 62
    7
 10
182.45756702580809
 20
214.5562539861788
 11
184.38941867838622
 21
214.03861589597375
  0
LINE
  8
_0-9_寸法線層１
  6
CONTINUOUS
 62
    7
 10
184.45756702580809
 20
214.5562539861788
 11
182.52571537322996
 21
215.07389207638386
  0
LINE
  8
_0-9_寸法線層１
  6
CONTINUOUS
 62
    7
 10
184.45756702580809
 20
214.5562539861788
 11
182.52571537322996
 21
214.03861589597375
  0
LINE
  8
_0-9_寸法線層１
  6
CONTINUOUS
 62
    7
 10
184.45756702580809
 20
217.5562539861788
 11
184.45756702580809
 21
206.25921992309293
  0
LINE
  8
_0-9_寸法線層１
  6
CONTINUOUS
 62
    7
 10
184.45756702580809
 20
214.5562539861788
 11
211.45756702580809
 21
214.5562539861788
  0
LINE
  8
_0-9_寸法線層１
  6
CONTINUOUS
 62
    7
 10
184.45756702580809
 20
214.5562539861788
 11
186.38941867838622
 21
215.07389207638386
  0
LINE
  8
_0-9_寸法線層１
  6
CONTINUOUS
 62
    7
 10
184.45756702580809
 20
214.5562539861788
 11
186.38941867838622
 21
214.03861589597375
  0
LINE
  8
_0-9_寸法線層１
  6
CONTINUOUS
 62
    7
 10
211.45756702580809
 20
214.5562539861788
 11
209.52571537322993
 21
215.07389207638386
  0
LINE
  8
_0-9_寸法線層１
  6
CONTINUOUS
 62
    7
 10
211.45756702580809
 20
214.5562539861788
 11
209.52571537322993
 21
214.03861589597375
  0
LINE
  8
_0-9_寸法線層１
  6
CONTINUOUS
 62
    7
 10
211.45756702580809
 20
217.5562539861788
 11
211.45756702580809
 21
206.25921992309293
  0
LINE
  8
_0-9_寸法線層１
  6
CONTINUOUS
 62
    7
 10
221.45756702580809
 20
151.76170132798794
 11
221.45756702580809
 21
205.76170132798794
  0
LINE
  8
_0-9_寸法線層１
  6
CONTINUOUS
 62
    7
 10
221.45756702580809
 20
151.76170132798794
 11
220.93992893560304
 21
153.69355298056607
  0
LINE
  8
_0-9_寸法線層１
  6
CONTINUOUS
 62
    7
 10
221.45756702580809
 20
151.76170132798794
 11
221.97520511601311
 21
153.69355298056607
  0
LINE
  8
_0-9_寸法線層１
  6
CONTINUOUS
 62
    7
 10
221.45756702580809
 20
205.76170132798794
 11
220.93992893560304
 21
203.8298496754098
  0
LINE
  8
_0-9_寸法線層１
  6
CONTINUOUS
 62
    7
 10
221.45756702580809
 20
205.76170132798794
 11
221.97520511601311
 21
203.8298496754098
  0
LINE
  8
_0-9_寸法線層１
  6
CONTINUOUS
 62
    7
 10
224.45756702580809
 20
151.76170132798794
 11
209.55801169712299
 21
151.76170132798794
  0
LINE
  8
_0-9_寸法線層１
  6
CONTINUOUS
 62
    7
 10
224.45756702580809
 20
205.76170132798794
 11
209.55801169712299
 21
205.76170132798794
  0
LINE
  8
_0-9_寸法線層１
  6
CONTINUOUS
 62
    7
 10
226.45756702580809
 20
151.26170132798794
 11
226.45756702580809
 21
206.25921992309293
  0
LINE
  8
_0-9_寸法線層１
  6
CONTINUOUS
 62
    7
 10
226.45756702580809
 20
151.26170132798794
 11
225.93992893560304
 21
153.19355298056607
  0
LINE
  8
_0-9_寸法線層１
  6
CONTINUOUS
 62
    7
 10
226.45756702580809
 20
151.26170132798794
 11
226.97520511601311
 21
153.19355298056607
  0
LINE
  8
_0-9_寸法線層１
  6
CONTINUOUS
 62
    7
 10
226.45756702580809
 20
206.25921992309293
 11
225.93992893560304
 21
204.3273682705148
  0
LINE
  8
_0-9_寸法線層１
  6
CONTINUOUS
 62
    7
 10
226.45756702580809
 20
206.25921992309293
 11
226.97520511601311
 21
204.3273682705148
  0
LINE
  8
_0-9_寸法線層１
  6
CONTINUOUS
 62
    7
 10
229.45756702580809
 20
151.26170132798794
 11
209.55801169712299
 21
151.26170132798794
  0
LINE
  8
_0-9_寸法線層１
  6
CONTINUOUS
 62
    7
 10
229.45756702580809
 20
206.25921992309293
 11
209.55801169712299
 21
206.25921992309293
  0
LINE
  8
_0-1_作画層１
  6
CONTINUOUS
 62
    7
 10
168.23881702580809
 20
128.76170132799635
 11
175.64353574943073
 21
132.46406068980767
  0
LINE
  8
_0-1_作画層１
  6
CONTINUOUS
 62
    7
 10
168.23881702580809
 20
126.26170132799635
 11
175.64353574943073
 21
129.96406068980767
  0
ARC
  8
_0-1_作画層１
  6
CONTINUOUS
 62
    7
 10
177.87960372693053
 20
127.99192473480824
 40
4.9999999999998712
 50
56.309932474019355
 51
116.56505117707886
  0
ARC
  8
_0-1_作画層１
  6
CONTINUOUS
 62
    7
 10
177.87960372693053
 20
125.49192473480824
 40
4.9999999999998712
 50
56.309932474019355
 51
116.56505117707886
  0
LINE
  8
_0-1_作画層１
  6
CONTINUOUS
 62
    7
 10
180.65310470805667
 20
132.1521762064973
 11
183.55039790590581
 21
130.22064740793121
  0
LINE
  8
_0-1_作画層１
  6
CONTINUOUS
 62
    7
 10
180.65310470805667
 20
129.6521762064973
 11
183.55039790590581
 21
127.72064740793121
  0
ARC
  8
_0-1_作画層１
  6
CONTINUOUS
 62
    7
 10
186.32389888703199
 20
134.38089887962039
 40
4.999999999999992
 50
236.30993247401949
 51
291.80140948635136
  0
ARC
  8
_0-1_作画層１
  6
CONTINUOUS
 62
    7
 10
186.32389888703199
 20
131.88089887962039
 40
4.999999999999992
 50
236.30993247401949
 51
291.80140948635136
  0
LINE
  8
_0-1_作画層１
  6
CONTINUOUS
 62
    7
 10
198.23881702580809
 20
131.26170132799635
 11
188.18085226880248
 21
127.23851542519409
  0
LINE
  8
_0-1_作画層１
  6
CONTINUOUS
 62
    7
 10
198.23881702580809
 20
133.76170132799635
 11
188.18085226880248
 21
129.73851542519409
  0
LINE
  8
_0-1_作画層１
  6
CONTINUOUS
 62
    7
 10
182.06225452580807
 20
128.71274299466302
 11
182.06225452580807
 21
110.63670132799635
  0
LINE
  8
_0-1_作画層１
  6
CONTINUOUS
 62
    7
 10
184.45756702580809
 20
127.24227781471538
 11
184.45756702580809
 21
110.63670132799635
  0
LINE
  8
_0-1_作画層１
  6
CONTINUOUS
 62
    7
 10
182.06225452580807
 20
110.63670132799635
 11
184.45756702580809
 21
110.63670132799635
  0
LINE
  8
_0-1_作画層１
  6
CONTINUOUS
 62
    7
 10
183.86381702580809
 20
110.63670132799635
 11
182.61381702580809
 21
110.63670132799635
  0
LINE
  8
_0-1_作画層１
  6
CONTINUOUS
 62
    7
 10
182.61381702580809
 20
110.63670132799635
 11
182.61381702580809
 21
105.63670132799635
  0
LINE
  8
_0-1_作画層１
  6
CONTINUOUS
 62
    7
 10
182.61381702580809
 20
105.63670132799635
 11
183.86381702580809
 21
105.63670132799635
  0
LINE
  8
_0-1_作画層１
  6
CONTINUOUS
 62
    7
 10
183.86381702580809
 20
105.63670132799635
 11
183.86381702580809
 21
110.63670132799635
  0
LINE
  8
_0-1_作画層１
  6
CONTINUOUS
 62
    7
 10
184.45756702580809
 20
129.74227781471538
 11
184.45756702580809
 21
152.76170132798794
  0
LINE
  8
_0-1_作画層１
  6
CONTINUOUS
 62
    7
 10
182.06225452580807
 20
131.21274299466302
 11
182.0622545258081
 21
152.76170132798794
  0
LINE
  8
_0-7_注記層１
  6
CONTINUOUS
 62
    7
 10
182.0622545258081
 20
154.76170132798794
 11
182.0622545258081
 21
152.76170132798794
  0
ARC
  8
_0-7_注記層１
  6
CONTINUOUS
 62
    7
 10
183.0622545258081
 20
154.76170132798794
 40
1
 50
127.20635796413222
 51
180
  0
TEXT
  8
_0-9_寸法線層１
 62
    7
 10
196.33256702580809
 20
215.0562539861788
 40
3
 41
1
 50
0
  1
27
  0
TEXT
  8
_0-9_寸法線層１
 62
    7
 10
182.70756702580809
 20
215.0562539861788
 40
3
 41
1
 50
0
  1
2
  0
TEXT
  8
_0-9_寸法線層１
 62
    7
 10
181.20756702580809
 20
218.0562539861788
 40
3
 41
1
 50
0
  1
1
  0
TEXT
  8
_0-9_寸法線層１
 62
    7
 10
220.95756702580809
 20
175.38670132798794
 40
3
 41
1
 50
90
  1
φ54
  0
TEXT
  8
_0-9_寸法線層１
 62
    7
 10
225.95756702580809
 20
175.38546062554042
 40
3
 41
1
 50
90
  1
φ55
  0
LINE
  8
_0-9_寸法線層１
  6
CONTINUOUS
 62
    7
 10
147.13256766994382
 20
163.76170209289913
 11
147.13256702580807
 21
163.76170132798794
  0
CIRCLE
  8
_0-1_作画層１
  6
CONTINUOUS
 62
    7
 10
175.45756702580809
 20
178.66422328465615
 40
1
  0
TEXT
  8
_0-9_寸法線層１
 62
    7
 10
177.70756702580809
 20
200.95507715327756
 40
3
 41
1
 50
0
  1
6
  0
TEXT
  8
_0-9_寸法線層１
 62
    7
 10
154.39995047900084
 20
176.26170132798794
 40
3
 41
1
 50
90
  1
φ6
  0
LINE
  8
_0-1_作画層１
  6
CONTINUOUS
 62
    7
 10
164.45756702580809
 20
176.76170132798794
 11
165.45756702580809
 21
175.76170132798794
  0
LINE
  8
_0-1_作画層１
  6
CONTINUOUS
 62
    7
 10
164.45756702580809
 20
180.76170132798794
 11
164.45756702580809
 21
176.76170132798794
  0
LINE
  8
_0-1_作画層１
  6
CONTINUOUS
 62
    7
 10
165.45756702580809
 20
181.76170132798794
 11
164.45756702580809
 21
180.76170132798794
  0
LINE
  8
_0-1_作画層１
  6
CONTINUOUS
 62
    7
 10
165.45756702580809
 20
175.76170132798794
 11
165.45756702580809
 21
181.76170132798794
  0
TEXT
  8
_0-9_寸法線層１
 62
    7
 10
151.13127639705345
 20
206.52291589734281
 40
3
 41
1
 50
0
  1
φ2×10
  0
TEXT
  8
_0-9_寸法線層１
 62
    7
 10
154.37200571548658
 20
169.31178818285568
 40
3
 41
1
 50
0
  1
C1
  0
LINE
  8
_0-9_寸法線層１
  6
CONTINUOUS
 62
    7
 10
175.45756702580809
 20
203.45507715327756
 11
175.45756702580809
 21
182.76170132798794
  0
LINE
  8
_0-9_寸法線層１
  6
CONTINUOUS
 62
    7
 10
164.45756702580809
 20
217.5562539861788
 11
164.45756702580809
 21
204.76170132798794
  0
LINE
  8
_0-9_寸法線層１
  6
CONTINUOUS
 62
    7
 10
175.45756702580809
 20
182.76170132798794
 11
175.45756702580809
 21
174.76170132798794
  0
LINE
  8
_0-9_寸法線層１
  6
CONTINUOUS
 62
    7
 10
164.45756702580809
 20
214.5562539861788
 11
166.38941867838622
 21
215.07389207638386
  0
LINE
  8
_0-9_寸法線層１
  6
CONTINUOUS
 62
    7
 10
164.45756702580809
 20
214.5562539861788
 11
166.38941867838622
 21
214.03861589597375
  0
LINE
  8
_0-9_寸法線層１
  6
CONTINUOUS
 62
    7
 10
175.45756702580809
 20
200.45507715327756
 11
177.38941867838622
 21
200.97271524348258
  0
LINE
  8
_0-9_寸法線層１
  6
CONTINUOUS
 62
    7
 10
175.45756702580809
 20
200.45507715327756
 11
177.38941867838622
 21
199.93743906307253
  0
LINE
  8
_0-9_寸法線層１
  6
CONTINUOUS
 62
    7
 10
175.03494876406739
 20
179.57053107169281
 11
173.74937354469429
 21
181.10261995793076
  0
LINE
  8
_0-9_寸法線層１
  6
CONTINUOUS
 62
    7
 10
175.03494876406739
 20
179.57053107169281
 11
174.68765240873353
 21
181.54014657771722
  0
LINE
  8
_0-9_寸法線層１
  6
CONTINUOUS
 62
    7
 10
175.03494876406739
 20
179.57053107169281
 11
162.6188209977214
 21
206.19700299255254
  0
LINE
  8
_0-9_寸法線層１
  6
CONTINUOUS
 62
    7
 10
162.6188209977214
 20
206.19700299255254
 11
150.07519199102182
 21
206.19700299255254
  0
LINE
  8
_0-9_寸法線層１
  6
CONTINUOUS
 62
    7
 10
154.89995047900084
 20
175.76170132798794
 11
154.89995047900084
 21
181.76170132798794
  0
LINE
  8
_0-9_寸法線層１
  6
CONTINUOUS
 62
    7
 10
154.89995047900084
 20
175.76170132798794
 11
154.38231238879581
 21
177.69355298056607
  0
LINE
  8
_0-9_寸法線層１
  6
CONTINUOUS
 62
    7
 10
154.89995047900084
 20
175.76170132798794
 11
155.41758856920589
 21
177.69355298056607
  0
LINE
  8
_0-9_寸法線層１
  6
CONTINUOUS
 62
    7
 10
154.89995047900084
 20
181.76170132798794
 11
154.38231238879581
 21
179.8298496754098
  0
LINE
  8
_0-9_寸法線層１
  6
CONTINUOUS
 62
    7
 10
154.89995047900084
 20
181.76170132798794
 11
155.41758856920589
 21
179.8298496754098
  0
LINE
  8
_0-9_寸法線層１
  6
CONTINUOUS
 62
    7
 10
151.89995047900084
 20
175.76170132798794
 11
164.45756702580809
 21
175.76170132798794
  0
LINE
  8
_0-9_寸法線層１
  6
CONTINUOUS
 62
    7
 10
151.89995047900084
 20
181.76170132798794
 11
164.45756702580809
 21
181.76170132798794
  0
LINE
  8
_0-9_寸法線層１
  6
CONTINUOUS
 62
    7
 10
157.81308842076794
 20
169.11722272294782
 11
153.92240506948826
 21
169.11722272294782
  0
LINE
  8
_0-9_寸法線層１
  6
CONTINUOUS
 62
    7
 10
164.95756702580809
 20
176.26170132798794
 11
157.81308842076794
 21
169.11722272294782
  0
LINE
  8
_0-9_寸法線層１
  6
CONTINUOUS
 62
    7
 10
164.95756702580809
 20
176.26170132798794
 11
163.95756702580809
 21
174.52965052041907
  0
LINE
  8
_0-9_寸法線層１
  6
CONTINUOUS
 62
    7
 10
164.95756702580809
 20
176.26170132798794
 11
163.22551621823919
 21
175.26170132798794
  0
LINE
  8
_0-9_寸法線層１
  6
CONTINUOUS
 62
    7
 10
175.45756702580809
 20
200.45507715327756
 11
181.45756702580809
 21
200.45507715327756
  0
TEXT
  8
_0-9_寸法線層１
 62
    7
 10
171.33256702580809
 20
215.0562539861788
 40
3
 41
1
 50
0
  1
17
  0
LINE
  8
_0-9_寸法線層１
  6
CONTINUOUS
 62
    7
 10
164.45756702580809
 20
214.5562539861788
 11
181.45756702580809
 21
214.5562539861788
  0
LINE
  8
_0-9_寸法線層１
  6
CONTINUOUS
 62
    7
 10
181.45756702580809
 20
214.5562539861788
 11
179.52571537322996
 21
215.07389207638386
  0
LINE
  8
_0-9_寸法線層１
  6
CONTINUOUS
 62
    7
 10
181.45756702580809
 20
214.5562539861788
 11
179.52571537322996
 21
214.03861589597375
  0
LINE
  8
_0-9_寸法線層１
  6
CONTINUOUS
 62
    7
 10
181.45756702580809
 20
200.45507715327756
 11
179.52571537322996
 21
200.97271524348258
  0
LINE
  8
_0-9_寸法線層１
  6
CONTINUOUS
 62
    7
 10
181.45756702580809
 20
200.45507715327756
 11
179.52571537322996
 21
199.93743906307253
  0
LINE
  8
_0-1_作画層１
  6
CONTINUOUS
 62
    7
 10
165.45756702580809
 20
181.76170132798794
 11
182.45756702580809
 21
181.76170132798794
  0
LINE
  8
_0-1_作画層１
  6
CONTINUOUS
 62
    7
 10
165.45756702580809
 20
175.76170132798794
 11
182.45756702580809
 21
175.76170132798794
  0
LINE
  8
_0-9_寸法線層１
  6
CONTINUOUS
 62
    7
 10
181.45756702580809
 20
217.5562539861788
 11
181.45756702580809
 21
196.45476526561708
  0
TEXT
  8
_0-7_注記層１
 62
    7
 10
103.74946497279331
 20
234.96066980852854
 40
3
 41
1
 50
0
  1
SCD-15M1A,SCD-15MAB
  0
TEXT
  8
_0-7_注記層１
 62
    7
 10
103.74946497279331
 20
229.96066980852854
 40
3
 41
1
 50
0
  1
SCD-30M1A,SCD-30MAB
  0
TEXT
  8
_0-7_注記層１
 62
    7
 10
103.74946497279331
 20
224.96066980852856
 40
3
 41
1
 50
0
  1
SCD-1H1A ,SCD-1HAB
  0
TEXT
  8
_0-7_注記層１
 62
    7
 10
183.74946497279331
 20
224.96066980852856
 40
3
 41
1
 50
0
  1
SCD-2H1A ,SCD-2HAB
  0
CIRCLE
  8
_0-7_注記層１
  6
DASHED3
 62
    7
 10
32.257567025808058
 20
178.76170132798794
 40
27
  0
CIRCLE
  8
_0-7_注記層１
  6
DASHED3
 62
    7
 10
32.257567025808044
 20
178.76170132798794
 40
27.5
  0
ENDSEC
  0
EOF
