  0
SECTION
  2
HEADER
  9
$ACADVER
  1
AC1009
  9
$INSBASE
 10
0
 20
0
 30
0
  9
$EXTMIN
 10
0
 20
0
  9
$EXTMAX
 10
297
 20
210
  9
$LIMMIN
 10
0
 20
0
  9
$LIMMAX
 10
297
 20
210
  9
$LTSCALE
 40
1
  0
ENDSEC
  0
SECTION
  2
TABLES
  0
TABLE
  2
LTYPE
 70
     9
  0
LTYPE
  2
CONTINUOUS
 70
    64
  3
実線
 72
    65
 73
     0
 40
0.0
  0
LTYPE
  2
DASHED1
 70
    64
  3
--  --  --  --  --  --  --  --  
 72
    65
 73
     2
 40
2.5
 49
1.25
 49
-1.25
  0
LTYPE
  2
DASHED2
 70
    64
  3
----    ----    ----    ----    
 72
    65
 73
     2
 40
5.0
 49
2.5
 49
-2.5
  0
LTYPE
  2
DASHED3
 70
    64
  3
------  ------  ------  ------  
 72
    65
 73
     2
 40
5.0
 49
3.75
 49
-1.25
  0
LTYPE
  2
CENTER1
 70
    64
  3
----- - ----- - ----- - ----- - 
 72
    65
 73
     4
 40
10.0
 49
6.25
 49
-1.25
 49
1.25
 49
-1.25
  0
LTYPE
  2
CENTER2
 70
    64
  3
----------  --  ----------  --  
 72
    65
 73
     4
 40
20.0
 49
12.5
 49
-2.5
 49
2.5
 49
-2.5
  0
LTYPE
  2
PHANTOM1
 70
    64
  3
--- - - --- - - --- - - --- - - 
 72
    65
 73
     6
 40
10.0
 49
3.25
 49
-1.25
 49
1.25
 49
-1.25
 49
1.25
 49
-1.25
  0
LTYPE
  2
PHANTOM2
 70
    64
  3
--------  -  -  --------  -  -  
 72
    65
 73
     6
 40
20.0
 49
10.0
 49
-2.5
 49
1.25
 49
-2.5
 49
1.25
 49
-2.5
  0
LTYPE
  2
DOT
 70
    64
  3
-   -   -   -   -   -   -   -   
 72
    65
 73
     2
 40
2.5
 49
0.625
 49
-1.875
  0
LTYPE
  2
DUMMY
 70
    64
  3
ダミー
 72
    65
 73
     0
 40
0.0
  0
LTYPE
  2
RAND1
 70
    64
  3
ランダム線1
 72
    65
 73
     4
 40
10.0
 49
1.0
 49
-2.0
 49
3.0
 49
-4.0
  0
LTYPE
  2
RAND2
 70
    64
  3
ランダム線2
 72
    65
 73
     4
 40
14.0
 49
2.0
 49
-3.0
 49
4.0
 49
-5.0
  0
LTYPE
  2
RAND3
 70
    64
  3
ランダム線3
 72
    65
 73
     4
 40
18.0
 49
3.0
 49
-4.0
 49
5.0
 49
-6.0
  0
LTYPE
  2
RAND4
 70
    64
  3
ランダム線4
 72
    65
 73
     4
 40
22.0
 49
4.0
 49
-5.0
 49
6.0
 49
-7.0
  0
LTYPE
  2
RAND5
 70
    64
  3
ランダム線5
 72
    65
 73
     4
 40
26.0
 49
5.0
 49
-6.0
 49
7.0
 49
-8.0
  0
LTYPE
  2
LONG1
 70
    64
  3
----------  --  ----------  --  
 72
    65
 73
     4
 40
40.0
 49
32.5
 49
-2.5
 49
2.5
 49
-2.5
  0
LTYPE
  2
LONG2
 70
    64
  3
--------  -  -  --------  -  -  
 72
    65
 73
     6
 40
40.0
 49
30.0
 49
-2.5
 49
1.25
 49
-2.5
 49
1.25
 49
-2.5
  0
LTYPE
  2
LONG3
 70
    64
  3
+++++++++++++++..+++++++++++++++
 72
    65
 73
     2
 40
40.0
 49
37.5
 49
-2.5
  0
LTYPE
  2
LONG4
 70
    64
  3
+++++++++++++++..+++++++++++++++
 72
    65
 73
     2
 40
80.0
 49
75.0
 49
-5.0
  0
LTYPE
  2
LONG5
 70
    64
  3
----------  --  ----------  --  
 72
    65
 73
     4
 40
60.0
 49
37.5
 49
-7.5
 49
7.5
 49
-7.5
  0
LTYPE
  2
dashed
 70
   64
  3
-------   -------------   ------
 72
   65
 73
    2
 40
7.5
 49
6
 49
-1.5
  0
LTYPE
  2
dashed_spaced
 70
   64
  3
----        --------        ----
 72
   65
 73
    2
 40
12
 49
6
 49
-6
  0
LTYPE
  2
long_dashed_dotted
 70
   64
  3
------------- --- --------------
 72
   65
 73
    4
 40
15.25
 49
12
 49
-1.5
 49
0.25
 49
-1.5
  0
LTYPE
  2
long_dashed_double-dotted
 70
   64
  3
----------- --- --- ------------
 72
   65
 73
    6
 40
17
 49
12
 49
-1.5
 49
0.25
 49
-1.5
 49
0.25
 49
-1.5
  0
LTYPE
  2
long_dashed_triplicate-dotted
 70
   64
  3
--------- --- --- --- ----------
 72
   65
 73
    8
 40
18.75
 49
12
 49
-1.5
 49
0.25
 49
-1.5
 49
0.25
 49
-1.5
 49
0.25
 49
-1.5
  0
LTYPE
  2
dotted
 70
   64
  3
   -       -       -       -    
 72
   65
 73
    2
 40
1.75
 49
0.25
 49
-1.5
  0
LTYPE
  2
chain
 70
   64
  3
-------------- -- --------------
 72
   65
 73
    4
 40
18.5
 49
12
 49
-1.5
 49
3.5
 49
-1.5
  0
LTYPE
  2
chain_double_dash
 70
   64
  3
------------ -- -- -------------
 72
   65
 73
    6
 40
23.5
 49
12
 49
-1.5
 49
3.5
 49
-1.5
 49
3.5
 49
-1.5
  0
LTYPE
  2
dashed_dotted
 70
   64
  3
-----------     -     ----------
 72
   65
 73
    4
 40
9.25
 49
6
 49
-1.5
 49
0.25
 49
-1.5
  0
LTYPE
  2
double-dashed_dotted
 70
   64
  3
------   -----------   -   -----
 72
   65
 73
    6
 40
16.75
 49
6
 49
-1.5
 49
6
 49
-1.5
 49
0.25
 49
-1.5
  0
LTYPE
  2
dashed_double-dotted
 70
   64
  3
---------    -    -    ---------
 72
   65
 73
    6
 40
11
 49
6
 49
-1.5
 49
0.25
 49
-1.5
 49
0.25
 49
-1.5
  0
LTYPE
  2
double-dashed_double-dotted
 70
   64
  3
-----   ---------   -   -   ----
 72
   65
 73
    8
 40
18.5
 49
6
 49
-1.5
 49
6
 49
-1.5
 49
0.25
 49
-1.5
 49
0.25
 49
-1.5
  0
LTYPE
  2
dashed_triplicate-dotted
 70
   64
  3
-------    -    -    -    ------
 72
   65
 73
    8
 40
12.75
 49
6
 49
-1.5
 49
0.25
 49
-1.5
 49
0.25
 49
-1.5
 49
0.25
 49
-1.5
  0
LTYPE
  2
double-dashed_triplicate-dotted
 70
   64
  3
-----  ---------  -  -  -  -----
 72
   65
 73
   10
 40
20.25
 49
6
 49
-1.5
 49
6
 49
-1.5
 49
0.25
 49
-1.5
 49
0.25
 49
-1.5
 49
0.25
 49
-1.5
  0
LTYPE
  2
undefined
 70
   64
  3
--------------------------------
 72
   65
 73
    0
 40
0
  0
LTYPE
  2
DASHED
 70
   64
  3
----        --------        ----
 72
   65
 73
    2
 40
4
 49
2
 49
-2
  0
LTYPE
  2
DOT_18
 70
   64
  3
---           -----           --
 72
   65
 73
    2
 40
3
 49
1
 49
-2
  0
LTYPE
  2
DASHDOT
 70
   64
  3
---------    ------    ---------
 72
   65
 73
    4
 40
17
 49
10
 49
-2
 49
3
 49
-2
  0
LTYPE
  2
DIVIDE
 70
   64
  3
-----------  --  --  -----------
 72
   65
 73
    6
 40
30
 49
20
 49
-2
 49
2
 49
-2
 49
2
 49
-2
  0
LTYPE
  2
CENTER
 70
   64
  3
-------------  --  -------------
 72
   65
 73
    4
 40
13
 49
10
 49
-1
 49
1
 49
-1
  0
LTYPE
  2
_
 70
   64
  3
                                
 72
   65
 73
    0
 40
0
  0
LTYPE
  2
__23
 70
   64
  3
                                
 72
   65
 73
    0
 40
0
  0
LTYPE
  2
__24
 70
   64
  3
                                
 72
   65
 73
    0
 40
0
  0
LTYPE
  2
__25
 70
   64
  3
                                
 72
   65
 73
    0
 40
0
  0
LTYPE
  2
__26
 70
   64
  3
                                
 72
   65
 73
    0
 40
0
  0
LTYPE
  2
__27
 70
   64
  3
                                
 72
   65
 73
    0
 40
0
  0
LTYPE
  2
__28
 70
   64
  3
                                
 72
   65
 73
    0
 40
0
  0
LTYPE
  2
__29
 70
   64
  3
                                
 72
   65
 73
    0
 40
0
  0
LTYPE
  2
__30
 70
   64
  3
                                
 72
   65
 73
    0
 40
0
  0
LTYPE
  2
__31
 70
   64
  3
                                
 72
   65
 73
    0
 40
0
  0
LTYPE
  2
__32
 70
   64
  3
                                
 72
   65
 73
    0
 40
0
  0
ENDTAB
  0
TABLE
  2
STYLE
  5
3
100
AcDbSymbolTable
 70
     1
  0
STYLE
  5
10
100
AcDbSymbolTableRecord
100
AcDbTextStyleTableRecord
  2
STANDARD
 70
     0
 40
0.0
 41
1.0
 50
0.0
 71
     0
 42
0.2
  3
txt
  4
bigfont.shx
  0
STYLE
  5
26
100
AcDbSymbolTableRecord
100
AcDbTextStyleTableRecord
  2
TATEGAKI
 70
    68
 40
0.0
 41
1.0
 50
0.0
 71
     0
 42
1.0
  3
txt
  4
bigfont.shx
  0
ENDTAB
  0
TABLE
  2
LAYER
 70
    5
  0
LAYER
  2
_0-0_BaseLayer
 70
   64
 62
    7
  6
CONTINUOUS
  0
LAYER
  2
_0-1_作画層１
 70
   64
 62
    7
  6
CONTINUOUS
  0
LAYER
  2
_0-7_注記層１
 70
   64
 62
    7
  6
CONTINUOUS
  0
LAYER
  2
_0-9_寸法線層１
 70
   64
 62
    7
  6
CONTINUOUS
  0
LAYER
  2
ADD_LINE
 70
   64
 62
    7
  6
CONTINUOUS
  0
ENDTAB
  0
ENDSEC
  0
SECTION
  2
BLOCKS
  0
BLOCK
  2
-000-_D0
 70
   64
 10
0
 20
0
 30
0
  0
LINE
  8
_0-9_寸法線層１
  6
CONTINUOUS
 62
    7
 10
32.507567025808058
 20
252.64992989564172
 11
32.507567025808058
 21
239.81170132798795
  0
TEXT
  8
_0-9_寸法線層１
 62
    7
 10
31.507567025808072
 20
247.37347276033415
 40
3
 41
1
 50
90
  1
2.2
  0
LINE
  8
_0-9_寸法線層１
  6
CONTINUOUS
 62
    7
 10
65.499754525808044
 20
246.51170132798794
 11
30.507567025808058
 21
246.51170132798794
  0
LINE
  8
_0-9_寸法線層１
  6
CONTINUOUS
 62
    7
 10
53.007567025808044
 20
244.31170132798795
 11
30.507567025808058
 21
244.31170132798795
  0
ENDBLK
  0
BLOCK
  2
-001-_D1
 70
   64
 10
0
 20
0
 30
0
  0
LINE
  8
_0-9_寸法線層１
  6
CONTINUOUS
 62
    7
 10
32.507567025808058
 20
244.31170132798795
 11
32.507567025808058
 21
225.01170132798794
  0
TEXT
  8
_0-9_寸法線層１
 62
    7
 10
31.507567025808044
 20
231.27347276033416
 40
3
 41
1
 50
90
  1
19.3
  0
LINE
  8
_0-9_寸法線層１
  6
CONTINUOUS
 62
    7
 10
53.007567025808044
 20
244.31170132798795
 11
30.507567025808058
 21
244.31170132798795
  0
LINE
  8
_0-9_寸法線層１
  6
CONTINUOUS
 62
    7
 10
28.007567025808058
 20
225.01170132798794
 11
34.507567025808058
 21
225.01170132798794
  0
ENDBLK
  0
BLOCK
  2
-002-_D2
 70
   64
 10
0
 20
0
 30
0
  0
LINE
  8
_0-9_寸法線層１
  6
CONTINUOUS
 62
    7
 10
32.507567025808058
 20
225.01170132798794
 11
32.507567025808058
 21
205.01170132798794
  0
TEXT
  8
_0-9_寸法線層１
 62
    7
 10
31.507567025808072
 20
213.12347276033415
 40
3
 41
1
 50
90
  1
20
  0
LINE
  8
_0-9_寸法線層１
  6
CONTINUOUS
 62
    7
 10
28.007567025808058
 20
225.01170132798794
 11
34.507567025808058
 21
225.01170132798794
  0
LINE
  8
_0-9_寸法線層１
  6
CONTINUOUS
 62
    7
 10
52.007567025808058
 20
205.01170132798794
 11
30.507567025808058
 21
205.01170132798794
  0
ENDBLK
  0
BLOCK
  2
-003-_D3
 70
   64
 10
0
 20
0
 30
0
  0
LINE
  8
_0-9_寸法線層１
  6
CONTINUOUS
 62
    7
 10
32.507567025808058
 20
205.01170132798794
 11
32.507567025808058
 21
194.01170132798794
  0
TEXT
  8
_0-9_寸法線層１
 62
    7
 10
31.507567025808072
 20
197.62347276033415
 40
3
 41
1
 50
90
  1
11
  0
LINE
  8
_0-9_寸法線層１
  6
CONTINUOUS
 62
    7
 10
28.007567025808058
 20
205.01170132798794
 11
34.507567025808058
 21
205.01170132798794
  0
LINE
  8
_0-9_寸法線層１
  6
CONTINUOUS
 62
    7
 10
59.207567025808046
 20
194.01170132798794
 11
30.507567025808058
 21
194.01170132798794
  0
ENDBLK
  0
BLOCK
  2
-004-_D4
 70
   64
 10
0
 20
0
 30
0
  0
LINE
  8
_0-9_寸法線層１
  6
CONTINUOUS
 62
    7
 10
51.507567025808058
 20
255.01170132798794
 11
98.507567025808044
 21
255.01170132798794
  0
TEXT
  8
_0-9_寸法線層１
 62
    7
 10
73.11933845815426
 20
256.01170132798791
 40
3
 41
1
 50
0
  1
47
  0
LINE
  8
_0-9_寸法線層１
  6
CONTINUOUS
 62
    7
 10
51.507567025808058
 20
242.81170132798795
 11
51.507567025808058
 21
257.01170132798791
  0
LINE
  8
_0-9_寸法線層１
  6
CONTINUOUS
 62
    7
 10
98.507567025808044
 20
242.81170130864365
 11
98.507567025808044
 21
257.01170132798791
  0
ENDBLK
  0
BLOCK
  2
-005-_D5
 70
   64
 10
0
 20
0
 30
0
  0
LINE
  8
_0-9_寸法線層１
  6
CONTINUOUS
 62
    7
 10
42.007567025808072
 20
260.01170132798791
 11
108.00756702580804
 21
260.01170132798791
  0
TEXT
  8
_0-9_寸法線層１
 62
    7
 10
73.119338458154274
 20
261.01170132798791
 40
3
 41
1
 50
0
  1
66
  0
LINE
  8
_0-9_寸法線層１
  6
CONTINUOUS
 62
    7
 10
42.007567025808072
 20
225.51170132798791
 11
42.007567025808072
 21
262.01170132798791
  0
LINE
  8
_0-9_寸法線層１
  6
CONTINUOUS
 62
    7
 10
108.00756702580804
 20
225.51170132798791
 11
108.00756702580804
 21
262.01170132798791
  0
ENDBLK
  0
BLOCK
  2
-006-_D6
 70
   64
 10
0
 20
0
 30
0
  0
TEXT
  8
_0-9_寸法線層１
 62
    7
 10
116.88792273722905
 20
233.29658409352135
 40
3
 41
1
 50
38.290163192243405
  1
φ3.5
  0
LINE
  8
_0-9_寸法線層１
  6
CONTINUOUS
 62
    7
 10
109.38111186549153
 20
226.0960788330012
 11
126.35826388758736
 21
239.49909358728752
  0
ENDBLK
  0
BLOCK
  2
-007-_D7
 70
   64
 10
0
 20
0
 30
0
  0
LINE
  8
_0-9_寸法線層１
  6
CONTINUOUS
 62
    7
 10
139.80756702580803
 20
195.01170132798794
 11
156.40756702580802
 21
195.01170132798794
  0
TEXT
  8
_0-9_寸法線層１
 62
    7
 10
143.96933845815423
 20
196.01170132798794
 40
3
 41
1
 50
0
  1
(7.5)
  0
LINE
  8
_0-9_寸法線層１
  6
CONTINUOUS
 62
    7
 10
144.30756702580803
 20
231.17293911300419
 11
144.30756702580803
 21
193.01170132798794
  0
LINE
  8
_0-9_寸法線層１
  6
CONTINUOUS
 62
    7
 10
151.90756702580802
 20
210.1631671260335
 11
151.90756702580802
 21
193.01170132798794
  0
ENDBLK
  0
BLOCK
  2
-008-_D8
 70
   64
 10
0
 20
0
 30
0
  0
LINE
  8
_0-9_寸法線層１
  6
CONTINUOUS
 62
    7
 10
200.00756702580807
 20
244.31170132798795
 11
200.00756702580807
 21
205.71170132798792
  0
TEXT
  8
_0-9_寸法線層１
 62
    7
 10
199.00756702580804
 20
220.87347276033415
 40
3
 41
1
 50
90
  1
φ38
  0
LINE
  8
_0-9_寸法線層１
  6
CONTINUOUS
 62
    7
 10
183.50756702580804
 20
244.31170132798795
 11
202.00756702580807
 21
244.31170132798795
  0
LINE
  8
_0-9_寸法線層１
  6
CONTINUOUS
 62
    7
 10
183.50756702580804
 20
205.71170132798792
 11
202.00756702580807
 21
205.71170132798792
  0
ENDBLK
  0
BLOCK
  2
-009-_D9
 70
   64
 10
0
 20
0
 30
0
  0
LINE
  8
_0-9_寸法線層１
  6
CONTINUOUS
 62
    7
 10
189.00756702580804
 20
182.51170132798794
 11
151.90756702580802
 21
182.51170132798794
  0
TEXT
  8
_0-9_寸法線層１
 62
    7
 10
164.69757846079659
 20
184.11170132798793
 40
3
 41
1
 50
0
  1
34.5
  0
TEXT
  8
_0-9_寸法線層１
 62
    7
 10
171.47403559610416
 20
185.61170132798793
 40
2.0999999999999996
 41
1
 50
0
  1
+1.0
  0
TEXT
  8
_0-9_寸法線層１
 62
    7
 10
171.47403559610416
 20
183.51170132798794
 40
2.0999999999999996
 41
1
 50
0
  1
-0.5
  0
LINE
  8
_0-9_寸法線層１
  6
CONTINUOUS
 62
    7
 10
189.00756702580804
 20
211.21170132798792
 11
189.00756702580804
 21
180.51170132798794
  0
LINE
  8
_0-9_寸法線層１
  6
CONTINUOUS
 62
    7
 10
151.90756702580802
 20
206.51170132798794
 11
151.90756702580802
 21
180.51170132798794
  0
ENDBLK
  0
BLOCK
  2
-010-_D10
 70
   64
 10
0
 20
0
 30
0
  0
LINE
  8
_0-9_寸法線層１
  6
CONTINUOUS
 62
    7
 10
151.90756702580802
 20
182.51170132798794
 11
133.30756702580803
 21
182.51170132798794
  0
TEXT
  8
_0-9_寸法線層１
 62
    7
 10
139.21933845815423
 20
183.51170132798794
 40
3
 41
1
 50
0
  1
(18)
  0
LINE
  8
_0-9_寸法線層１
  6
CONTINUOUS
 62
    7
 10
151.90756702580802
 20
206.51170132798794
 11
151.90756702580802
 21
180.51170132798794
  0
LINE
  8
_0-9_寸法線層１
  6
CONTINUOUS
 62
    7
 10
133.30756702580803
 20
221.51170132798794
 11
133.30756702580803
 21
180.51170132798794
  0
ENDBLK
  0
BLOCK
  2
-011-_D11
 70
   64
 10
0
 20
0
 30
0
  0
LINE
  8
_0-9_寸法線層１
  6
CONTINUOUS
 62
    7
 10
147.50756702580807
 20
122.51170132798796
 11
147.50756702580807
 21
82.51170132798795
  0
TEXT
  8
_0-9_寸法線層１
 62
    7
 10
146.50756702580807
 20
98.373472760334167
 40
3
 41
1
 50
90
  1
φ40
  0
LINE
  8
_0-9_寸法線層１
  6
CONTINUOUS
 62
    7
 10
179.50756702580807
 20
122.51170132798796
 11
145.50756702580807
 21
122.51170132798796
  0
LINE
  8
_0-9_寸法線層１
  6
CONTINUOUS
 62
    7
 10
179.50756702580807
 20
82.51170132798795
 11
145.50756702580807
 21
82.51170132798795
  0
ENDBLK
  0
BLOCK
  2
-012-_D12
 70
   64
 10
0
 20
0
 30
0
  0
LINE
  8
_0-9_寸法線層１
  6
CONTINUOUS
 62
    7
 10
220.00756702580807
 20
132.51170132798796
 11
238.00756702580807
 21
132.51170132798796
  0
TEXT
  8
_0-9_寸法線層１
 62
    7
 10
227.11933845815429
 20
133.51170132798796
 40
3
 41
1
 50
0
  1
18
  0
LINE
  8
_0-9_寸法線層１
  6
CONTINUOUS
 62
    7
 10
220.00756702580807
 20
123.01170132798796
 11
220.00756702580807
 21
134.51170132798796
  0
LINE
  8
_0-9_寸法線層１
  6
CONTINUOUS
 62
    7
 10
238.00756702580807
 20
120.51170132798796
 11
238.00756702580807
 21
134.51170132798796
  0
ENDBLK
  0
ENDSEC
  0
SECTION
  2
ENTITIES
  0
LINE
  8
_0-1_作画層１
  6
CONTINUOUS
 62
    7
 10
207.25
 20
-8.75
 11
207.25
 21
-28.75
  0
TEXT
  8
_0-7_注記層１
 62
    7
 10
209.75
 20
219.5
 40
3.5
 41
1
 50
0
  1
型　　 　番
  0
TEXT
  8
_0-7_注記層１
 62
    7
 10
207.25
 20
228.75
 40
5
 41
1
 50
0
  1
規　格
  0
LINE
  8
_0-1_作画層１
  6
CONTINUOUS
 62
    7
 10
204.75
 20
228.75
 11
224.75
 21
228.75
  0
TEXT
  8
_0-7_注記層１
 62
    7
 10
239.625
 20
-15.5
 40
3.5
 41
1
 50
0
  1
1/1
  0
TEXT
  8
_0-7_注記層１
 62
    7
 10
273.75
 20
-13
 40
3.5
 41
1
 50
0
  1
承認
  0
LINE
  8
_0-1_作画層１
  6
CONTINUOUS
 62
    7
 10
232.25
 20
-8.75
 11
232.25
 21
-18.75
  0
LINE
  8
_0-1_作画層１
  6
CONTINUOUS
 62
    7
 10
252.25
 20
-8.75
 11
252.25
 21
-18.75
  0
LINE
  8
_0-1_作画層１
  6
CONTINUOUS
 62
    7
 10
272.25
 20
-8.75
 11
272.25
 21
-18.75
  0
LINE
  8
_0-1_作画層１
  6
CONTINUOUS
 62
    7
 10
297.25
 20
-28.75
 11
297.25
 21
-8.75
  0
LINE
  8
_0-1_作画層１
  6
CONTINUOUS
 62
    7
 10
352.25
 20
-8.75
 11
207.25
 21
-8.75
  0
LINE
  8
_0-1_作画層１
  6
CONTINUOUS
 62
    7
 10
352.25
 20
-18.75
 11
207.25
 21
-18.75
  0
LINE
  8
_0-1_作画層１
  6
CONTINUOUS
 62
    7
 10
319.75
 20
223.75
 11
207.25
 21
223.75
  0
LINE
  8
_0-1_作画層１
  6
CONTINUOUS
 62
    7
 10
319.75
 20
218.75
 11
207.25
 21
218.75
  0
TEXT
  8
_0-7_注記層１
 62
    7
 10
212.25
 20
-26.25
 40
5
 41
1
 50
0
  1
スナオ電気株式会社
  0
TEXT
  8
_0-7_注記層１
 62
    7
 10
-32.75
 20
233.75
 40
5
 41
1
 50
0
  1
外形寸法
  0
LINE
  8
_0-1_作画層１
  6
CONTINUOUS
 62
    7
 10
-35.25
 20
233.75
 11
-10.25
 21
233.75
  0
LINE
  8
_0-1_作画層１
  6
CONTINUOUS
 62
    7
 10
319.75
 20
213.75
 11
207.25
 21
213.75
  0
LINE
  8
_0-1_作画層１
  6
CONTINUOUS
 62
    7
 10
319.75
 20
208.75
 11
207.25
 21
208.75
  0
LINE
  8
_0-1_作画層１
  6
CONTINUOUS
 62
    7
 10
319.75
 20
203.75
 11
207.25
 21
203.75
  0
LINE
  8
_0-1_作画層１
  6
CONTINUOUS
 62
    7
 10
207.25
 20
198.75
 11
319.75
 21
198.75
  0
TEXT
  8
_0-7_注記層１
 62
    7
 10
209.75
 20
214.5
 40
3.5
 41
1
 50
0
  1
最　大　時　間
  0
TEXT
  8
_0-7_注記層１
 62
    7
 10
209.75
 20
209.5
 40
3.5
 41
1
 50
0
  1
最　大　角　度
  0
TEXT
  8
_0-7_注記層１
 62
    7
 10
209.75
 20
204.5
 40
3.5
 41
1
 50
0
  1
接　点　定　格
  0
TEXT
  8
_0-7_注記層１
 62
    7
 10
209.75
 20
199.5
 40
3.5
 41
1
 50
0
  1
ス　イ　ッ　チ
  0
TEXT
  8
_0-7_注記層１
 62
    7
 10
302.25
 20
-15.5
 40
3.5
 41
1
 50
0
  1
耐熱タイマー
  0
TEXT
  8
_0-7_注記層１
 62
    7
 10
244.75
 20
209.5
 40
3.5
 41
1
 50
0
  1
270度
  0
TEXT
  8
_0-7_注記層１
 62
    7
 10
244.75
 20
199.5
 40
3.5
 41
1
 50
0
  1
1a
  0
LINE
  8
_0-1_作画層１
  6
CONTINUOUS
 62
    7
 10
319.75
 20
143.75
 11
207.25
 21
143.75
  0
LINE
  8
_0-1_作画層１
  6
CONTINUOUS
 62
    7
 10
319.75
 20
168.75
 11
207.25
 21
168.75
  0
LINE
  8
_0-1_作画層１
  6
CONTINUOUS
 62
    7
 10
319.75
 20
163.75
 11
207.25
 21
163.75
  0
LINE
  8
_0-1_作画層１
  6
CONTINUOUS
 62
    7
 10
319.75
 20
158.75
 11
207.25
 21
158.75
  0
LINE
  8
_0-1_作画層１
  6
CONTINUOUS
 62
    7
 10
319.75
 20
143.75
 11
207.25
 21
143.75
  0
LINE
  8
_0-1_作画層１
  6
CONTINUOUS
 62
    7
 10
319.75
 20
143.75
 11
207.25
 21
143.75
  0
LINE
  8
_0-1_作画層１
  6
CONTINUOUS
 62
    7
 10
319.75
 20
138.75
 11
207.25
 21
138.75
  0
LINE
  8
_0-1_作画層１
  6
CONTINUOUS
 62
    7
 10
242.25
 20
148.75
 11
319.75
 21
148.75
  0
TEXT
  8
_0-7_注記層１
 62
    7
 10
209.75
 20
169.5
 40
3.5
 41
1
 50
0
  1
微 角 度 セット
  0
TEXT
  8
_0-7_注記層１
 62
    7
 10
209.75
 20
164.5
 40
3.5
 41
1
 50
0
  1
時間設定方向
  0
TEXT
  8
_0-7_注記層１
 62
    7
 10
209.75
 20
159.5
 40
3.5
 41
1
 50
0
  1
動　作　方　向
  0
LINE
  8
_0-1_作画層１
  6
CONTINUOUS
 62
    7
 10
207.25
 20
153.75
 11
319.75
 21
153.75
  0
TEXT
  8
_0-7_注記層１
 62
    7
 10
209.75
 20
154.5
 40
3.5
 41
1
 50
0
  1
設　定　トルク
  0
TEXT
  8
_0-7_注記層１
 62
    7
 10
209.75
 20
149.5
 40
3.5
 41
1
 50
0
  1
戻　し　トルク
  0
TEXT
  8
_0-7_注記層１
 62
    7
 10
209.75
 20
144.5
 40
3.5
 41
1
 50
0
  1
絶　縁　抵　抗
  0
TEXT
  8
_0-7_注記層１
 62
    7
 10
209.75
 20
139.5
 40
3.5
 41
1
 50
0
  1
絶　縁　耐　圧
  0
TEXT
  8
_0-7_注記層１
 62
    7
 10
209.75
 20
134.5
 40
3.5
 41
1
 50
0
  1
強制反復耐力
  0
TEXT
  8
_0-7_注記層１
 62
    7
 10
244.75
 20
164.5
 40
3.5
 41
1
 50
0
  1
時計方向
  0
TEXT
  8
_0-7_注記層１
 62
    7
 10
244.75
 20
159.5
 40
3.5
 41
1
 50
0
  1
反時計方向
  0
TEXT
  8
_0-7_注記層１
 62
    7
 10
244.75
 20
144.5
 40
3.5
 41
1
 50
0
  1
100MΩ以上（DC500Vメガ－）
  0
LINE
  8
_0-1_作画層１
  6
CONTINUOUS
 62
    7
 10
319.75
 20
173.75
 11
207.25
 21
173.75
  0
TEXT
  8
_0-7_注記層１
 62
    7
 10
209.75
 20
174.5
 40
3.5
 41
1
 50
0
  1
時　間　精　度
  0
LINE
  8
_0-1_作画層１
  6
CONTINUOUS
 62
    7
 10
319.75
 20
193.75
 11
207.25
 21
193.75
  0
LINE
  8
_0-1_作画層１
  6
CONTINUOUS
 62
    7
 10
319.75
 20
188.75
 11
207.25
 21
188.75
  0
LINE
  8
_0-1_作画層１
  6
CONTINUOUS
 62
    7
 10
319.75
 20
183.75
 11
207.25
 21
183.75
  0
LINE
  8
_0-1_作画層１
  6
CONTINUOUS
 62
    7
 10
207.25
 20
178.75
 11
319.75
 21
178.75
  0
TEXT
  8
_0-7_注記層１
 62
    7
 10
209.75
 20
194.5
 40
3.5
 41
1
 50
0
  1
連　続　スイッチ
  0
TEXT
  8
_0-7_注記層１
 62
    7
 10
209.75
 20
189.5
 40
3.5
 41
1
 50
0
  1
チャ　イ　ム
  0
TEXT
  8
_0-7_注記層１
 62
    7
 10
209.75
 20
184.5
 40
3.5
 41
1
 50
0
  1
OFF後の動き
  0
TEXT
  8
_0-7_注記層１
 62
    7
 10
209.75
 20
179.5
 40
3.5
 41
1
 50
0
  1
使用温度範囲
  0
TEXT
  8
_0-7_注記層１
 62
    7
 10
244.75
 20
194.5
 40
3.5
 41
1
 50
0
  1
なし（標準）
  0
TEXT
  8
_0-7_注記層１
 62
    7
 10
244.75
 20
189.5
 40
3.5
 41
1
 50
0
  1
あり
  0
TEXT
  8
_0-7_注記層１
 62
    7
 10
244.75
 20
184.5
 40
3.5
 41
1
 50
0
  1
15度
  0
TEXT
  8
_0-7_注記層１
 62
    7
 10
244.75
 20
179.5
 40
3.5
 41
1
 50
0
  1
-10～100℃
  0
TEXT
  8
_0-7_注記層１
 62
    7
 10
244.75
 20
174.5
 40
3.5
 41
1
 50
0
  1
最大時間±15％（最大角度にて）
  0
TEXT
  8
_0-7_注記層１
 62
    7
 10
244.75
 20
169.5
 40
3.5
 41
1
 50
0
  1
OFF位置から36度
  0
TEXT
  8
_0-7_注記層１
 62
    7
 10
244.75
 20
139.5
 40
3.5
 41
1
 50
0
  1
AC1000V、1分間（常温、常湿）
  0
TEXT
  8
_0-7_注記層１
 62
    7
 10
244.75
 20
134.5
 40
3.5
 41
1
 50
0
  1
毎分5回の速度にて機械的5000回
  0
TEXT
  8
_0-7_注記層１
 62
    7
 10
244.75
 20
131
 40
3.5
 41
1
 50
0
  1
電気的10000回に耐えること
  0
LINE
  8
_0-1_作画層１
  6
CONTINUOUS
 62
    7
 10
319.75
 20
128.75
 11
207.25
 21
128.75
  0
LINE
  8
_0-1_作画層１
  6
CONTINUOUS
 62
    7
 10
319.75
 20
128.75
 11
319.75
 21
223.75
  0
LINE
  8
_0-1_作画層１
  6
CONTINUOUS
 62
    7
 10
242.25
 20
128.75
 11
242.25
 21
223.75
  0
LINE
  8
_0-1_作画層１
  6
CONTINUOUS
 62
    7
 10
207.25
 20
128.75
 11
207.25
 21
223.75
  0
LINE
  8
_0-1_作画層１
  6
CONTINUOUS
 62
    7
 10
25.757567025808072
 20
159.76170132798794
 11
13.757567025808044
 21
159.76170132798794
  0
ARC
  8
_0-1_作画層１
  6
CONTINUOUS
 62
    7
 10
41.257567025808086
 20
168.26170132798791
 40
1.9999999999999574
 50
269.99999999999875
 51
0.0000000000008142
  0
ARC
  8
_0-1_作画層１
  6
CONTINUOUS
 62
    7
 10
41.257567025808086
 20
203.56170132798798
 40
1.9999999999999574
 50
359.9999999999992
 51
90.00000000000118
  0
ARC
  8
_0-1_作画層１
  6
CONTINUOUS
 62
    7
 10
-1.7424329741919848
 20
203.56170132798798
 40
1.9999999999999716
 50
89.999999999999389
 51
180.0000000000008
  0
LINE
  8
_0-1_作画層１
  6
CONTINUOUS
 62
    7
 10
-3.7424329741919564
 20
203.56170132798795
 11
-3.7424329741919564
 21
168.26170132798794
  0
LINE
  8
_0-1_作画層１
  6
CONTINUOUS
 62
    7
 10
41.257567025808044
 20
166.26170132798794
 11
-1.7424329741919564
 21
166.26170132798794
  0
ARC
  8
_0-1_作画層１
  6
CONTINUOUS
 62
    7
 10
-1.7424329741919564
 20
168.26170132798791
 40
1.9999999999999858
 50
179.99999999999918
 51
270.0000000000004
  0
LINE
  8
_0-1_作画層１
  6
CONTINUOUS
 62
    7
 10
13.757567025808044
 20
164.76170132798794
 11
0.2575670258080435
 21
164.76170132798794
  0
ARC
  8
_0-1_作画層１
  6
CONTINUOUS
 62
    7
 10
0.2575670258080435
 20
166.76170132798791
 40
1.9999999999999716
 50
179.99999999999918
 51
270.0000000000004
  0
LINE
  8
_0-1_作画層１
  6
CONTINUOUS
 62
    7
 10
25.757567025808072
 20
164.76170132798794
 11
39.257567025808044
 21
164.76170132798794
  0
ARC
  8
_0-1_作画層１
  6
CONTINUOUS
 62
    7
 10
39.257567025808086
 20
166.76170132798791
 40
1.9999999999999574
 50
269.99999999999875
 51
0.0000000000008142
  0
LINE
  8
_0-1_作画層１
  6
DOT_18
 62
    7
 10
41.257567025808044
 20
205.56170132798795
 11
41.257567025808044
 21
166.76170132798794
  0
LINE
  8
_0-1_作画層１
  6
DOT_18
 62
    7
 10
-1.7424329741919564
 20
205.56170132798795
 11
-1.7424329741919564
 21
166.76170132798794
  0
LINE
  8
_0-1_作画層１
  6
CONTINUOUS
 62
    7
 10
25.757567025808072
 20
164.76170132798794
 11
25.757567025808072
 21
159.76170132798794
  0
LINE
  8
_0-1_作画層１
  6
CONTINUOUS
 62
    7
 10
13.757567025808044
 20
164.76170132798794
 11
13.757567025808044
 21
159.76170132798794
  0
LINE
  8
_0-1_作画層１
  6
CONTINUOUS
 62
    7
 10
6.4575670258080322
 20
155.26170132798794
 11
6.4575670258080322
 21
164.76170132798794
  0
LINE
  8
_0-1_作画層１
  6
CONTINUOUS
 62
    7
 10
4.4575670258080322
 20
155.26170132798794
 11
4.4575670258080322
 21
164.76170132798794
  0
LINE
  8
_0-1_作画層１
  6
CONTINUOUS
 62
    7
 10
4.4575670258080322
 20
155.26170132798794
 11
6.4575670258080322
 21
155.26170132798794
  0
LINE
  8
_0-1_作画層１
  6
CONTINUOUS
 62
    7
 10
41.257567025808044
 20
205.56170132798795
 11
32.257567025808072
 21
205.56170132798795
  0
CIRCLE
  8
_0-1_作画層１
  6
CONTINUOUS
 62
    7
 10
19.757567025808044
 20
186.26170132798794
 40
3
  0
LINE
  8
_0-1_作画層１
  6
CONTINUOUS
 62
    7
 10
18.757567025808044
 20
191.76170132798794
 11
20.757567025808072
 21
191.76170132798794
  0
LINE
  8
_0-1_作画層１
  6
CONTINUOUS
 62
    7
 10
18.757567025808044
 20
180.76170132798794
 11
20.757567025808072
 21
180.76170132798794
  0
LINE
  8
_0-1_作画層１
  6
CONTINUOUS
 62
    7
 10
20.757567025808058
 20
183.43327420324175
 11
20.757567025808058
 21
180.76170132798794
  0
LINE
  8
_0-1_作画層１
  6
CONTINUOUS
 62
    7
 10
18.757567025808044
 20
183.43327420324175
 11
18.757567025808044
 21
180.76170132798794
  0
LINE
  8
_0-1_作画層１
  6
CONTINUOUS
 62
    7
 10
18.757567025808044
 20
189.09012845273412
 11
18.757567025808044
 21
191.76170132798794
  0
LINE
  8
_0-1_作画層１
  6
CONTINUOUS
 62
    7
 10
20.757567025808058
 20
189.09012845273412
 11
20.757567025808058
 21
191.76170132798794
  0
CIRCLE
  8
_0-1_作画層１
  6
DOT_18
 62
    7
 10
19.757567025808044
 20
186.26170132798794
 40
19
  0
ARC
  8
_0-1_作画層１
  6
CONTINUOUS
 62
    7
 10
38.057567025808098
 20
198.91170132798797
 40
3.0000000000000426
 50
180.00000000000057
 51
269.9999999999992
  0
LINE
  8
_0-1_作画層１
  6
CONTINUOUS
 62
    7
 10
35.057567025808055
 20
198.91170132798794
 11
35.057567025808055
 21
202.56170132798795
  0
ARC
  8
_0-1_作画層１
  6
CONTINUOUS
 62
    7
 10
32.057567025808012
 20
202.56170132798789
 40
3.0000000000000426
 50
0.0000000000010856
 51
89.999999999999204
  0
LINE
  8
_0-1_作画層１
  6
CONTINUOUS
 62
    7
 10
32.057567003663905
 20
205.56170132798795
 11
-1.7424329741919564
 21
205.56170132798795
  0
LINE
  8
_0-1_作画層１
  6
CONTINUOUS
 62
    7
 10
38.057567025808083
 20
195.91170132798794
 11
40.257567025808044
 21
195.91170132798794
  0
ARC
  8
_0-1_作画層１
  6
CONTINUOUS
 62
    7
 10
40.257567025808001
 20
192.91170132798791
 40
3.0000000000000284
 50
0.0000000000005428
 51
89.999999999999204
  0
LINE
  8
_0-1_作画層１
  6
CONTINUOUS
 62
    7
 10
43.257567025808044
 20
203.56170130864365
 11
43.257567025808044
 21
168.26170132798794
  0
ARC
  8
_0-1_作画層１
  6
CONTINUOUS
 62
    7
 10
38.057567025808098
 20
173.1117013279879
 40
3.0000000000000426
 50
90.00000000000081
 51
179.99999999999946
  0
LINE
  8
_0-1_作画層１
  6
CONTINUOUS
 62
    7
 10
35.057567025808055
 20
173.11170132798793
 11
35.057567025808055
 21
169.46170132798792
  0
ARC
  8
_0-1_作画層１
  6
CONTINUOUS
 62
    7
 10
32.057567025808012
 20
169.46170132798798
 40
3.0000000000000426
 50
270.0000000000008
 51
359.99999999999892
  0
LINE
  8
_0-1_作画層１
  6
CONTINUOUS
 62
    7
 10
38.057567025808083
 20
176.11170132798793
 11
40.257567025808044
 21
176.11170132798793
  0
ARC
  8
_0-1_作画層１
  6
CONTINUOUS
 62
    7
 10
40.257567025808001
 20
179.11170132798796
 40
3.0000000000000284
 50
270.0000000000008
 51
359.99999999999943
  0
ARC
  8
_0-1_作画層１
  6
CONTINUOUS
 62
    7
 10
1.4575670258080322
 20
198.91170132798797
 40
3.0000000000000355
 50
270.00000000000068
 51
359.99999999999943
  0
LINE
  8
_0-1_作画層１
  6
CONTINUOUS
 62
    7
 10
4.4575670258080606
 20
198.91170132798794
 11
4.4575670258080606
 21
202.56170132798795
  0
ARC
  8
_0-1_作画層１
  6
CONTINUOUS
 62
    7
 10
7.4575670258080891
 20
202.56170132798789
 40
3.0000000000000355
 50
90.000000000000696
 51
179.99999999999892
  0
LINE
  8
_0-1_作画層１
  6
CONTINUOUS
 62
    7
 10
1.4575670258080322
 20
195.91170132798794
 11
-0.742432974191928
 21
195.91170132798794
  0
ARC
  8
_0-1_作画層１
  6
CONTINUOUS
 62
    7
 10
-0.7424329741918995
 20
192.91170132798791
 40
3.0000000000000284
 50
90.000000000000696
 51
179.99999999999946
  0
ARC
  8
_0-1_作画層１
  6
CONTINUOUS
 62
    7
 10
-0.7424329741918995
 20
179.11170132798796
 40
3.0000000000000284
 50
180.00000000000057
 51
269.99999999999932
  0
ARC
  8
_0-1_作画層１
  6
CONTINUOUS
 62
    7
 10
1.4575670258080322
 20
173.1117013279879
 40
3.0000000000000355
 50
0.0000000000005428
 51
89.999999999999332
  0
LINE
  8
_0-1_作画層１
  6
CONTINUOUS
 62
    7
 10
4.4575670258080606
 20
173.11170132798793
 11
4.4575670258080606
 21
169.46170132798792
  0
ARC
  8
_0-1_作画層１
  6
CONTINUOUS
 62
    7
 10
7.4575670258080891
 20
169.46170132798798
 40
3.0000000000000355
 50
180.00000000000105
 51
269.99999999999932
  0
LINE
  8
_0-1_作画層１
  6
CONTINUOUS
 62
    7
 10
1.4575670258080322
 20
176.11170132798793
 11
-0.742432974191928
 21
176.11170132798793
  0
LINE
  8
_0-1_作画層１
  6
CONTINUOUS
 62
    7
 10
-2.7424329741919564
 20
184.26170132798794
 11
-2.7424329741919564
 21
188.26170132798794
  0
LINE
  8
_0-1_作画層１
  6
CONTINUOUS
 62
    7
 10
-2.7424329741919564
 20
188.26170132798794
 11
-0.1236770789523689
 21
186.69044779084422
  0
LINE
  8
_0-1_作画層１
  6
CONTINUOUS
 62
    7
 10
-2.7424329741919564
 20
184.26170132798794
 11
-0.1236770789524257
 21
185.83295486513165
  0
ARC
  8
_0-1_作画層１
  6
CONTINUOUS
 62
    7
 10
-0.3809249566661776
 20
186.26170132798794
 40
0.5000000000000276
 50
300.96375653207394
 51
59.036243467923356
  0
ARC
  8
_0-1_作画層１
  6
CONTINUOUS
 62
    7
 10
-1.3604669629418709
 20
201.26170132798791
 40
0.5000000000000307
 50
296.56505117708019
 51
63.434948822922692
  0
LINE
  8
_0-1_作画層１
  6
CONTINUOUS
 62
    7
 10
-2.7424329741919564
 20
201.99290763009469
 11
-1.1368601651918766
 21
201.7089149234879
  0
LINE
  8
_0-1_作画層１
  6
CONTINUOUS
 62
    7
 10
-2.7424329741919564
 20
200.53049502588118
 11
-1.1368601651918766
 21
200.81448773248798
  0
LINE
  8
_0-1_作画層１
  6
CONTINUOUS
 62
    7
 10
-2.7424329741919564
 20
200.53049502588118
 11
-2.7424329741919564
 21
201.99290763009469
  0
ARC
  8
_0-1_作画層１
  6
CONTINUOUS
 62
    7
 10
-1.3604669629418709
 20
171.26170132798796
 40
0.5000000000000307
 50
296.56505117707724
 51
63.434948822919843
  0
LINE
  8
_0-1_作画層１
  6
CONTINUOUS
 62
    7
 10
-2.7424329741919564
 20
170.53049502588118
 11
-1.1368601651918766
 21
170.81448773248798
  0
LINE
  8
_0-1_作画層１
  6
CONTINUOUS
 62
    7
 10
-2.7424329741919564
 20
171.99290763009469
 11
-1.1368601651918766
 21
171.7089149234879
  0
LINE
  8
_0-1_作画層１
  6
CONTINUOUS
 62
    7
 10
-2.7424329741919564
 20
171.99290763009469
 11
-2.7424329741919564
 21
170.53049502588118
  0
LINE
  8
_0-1_作画層１
  6
CONTINUOUS
 62
    7
 10
42.257567025808044
 20
184.26170132798791
 11
42.257567025808044
 21
188.26170132798791
  0
LINE
  8
_0-1_作画層１
  6
CONTINUOUS
 62
    7
 10
42.257567025808044
 20
188.26170132798791
 11
39.638811130568513
 21
186.69044779084419
  0
LINE
  8
_0-1_作画層１
  6
CONTINUOUS
 62
    7
 10
42.257567025808044
 20
184.26170132798791
 11
39.638811130568513
 21
185.83295486513163
  0
ARC
  8
_0-1_作画層１
  6
CONTINUOUS
 62
    7
 10
39.896059008282322
 20
186.26170132798791
 40
0.5000000000000315
 50
120.96375653207744
 51
239.03624346792262
  0
ARC
  8
_0-1_作画層１
  6
CONTINUOUS
 62
    7
 10
40.875601014557958
 20
201.26170132798791
 40
0.4999999999999961
 50
116.56505117707654
 51
243.43494882292347
  0
LINE
  8
_0-1_作画層１
  6
CONTINUOUS
 62
    7
 10
42.257567025808044
 20
201.99290763009466
 11
40.651994216807992
 21
201.70891492348787
  0
LINE
  8
_0-1_作画層１
  6
CONTINUOUS
 62
    7
 10
42.257567025808044
 20
200.53049502588115
 11
40.651994216807992
 21
200.81448773248795
  0
LINE
  8
_0-1_作画層１
  6
CONTINUOUS
 62
    7
 10
42.257567025808044
 20
200.53049502588115
 11
42.257567025808044
 21
201.99290763009466
  0
ARC
  8
_0-1_作画層１
  6
CONTINUOUS
 62
    7
 10
40.875601014557958
 20
171.26170132798791
 40
0.4999999999999961
 50
116.56505117707654
 51
243.43494882292347
  0
LINE
  8
_0-1_作画層１
  6
CONTINUOUS
 62
    7
 10
42.257567025808044
 20
170.53049502588115
 11
40.651994216807992
 21
170.81448773248795
  0
LINE
  8
_0-1_作画層１
  6
CONTINUOUS
 62
    7
 10
42.257567025808044
 20
171.99290763009466
 11
40.651994216807992
 21
171.70891492348787
  0
LINE
  8
_0-1_作画層１
  6
CONTINUOUS
 62
    7
 10
42.257567025808044
 20
171.99290763009466
 11
42.257567025808044
 21
170.53049502588115
  0
LINE
  8
_0-1_作画層１
  6
CONTINUOUS
 62
    7
 10
10.749754525808044
 20
207.76170132798794
 11
7.4325670258081118
 21
205.56170132798795
  0
LINE
  8
_0-1_作画層１
  6
CONTINUOUS
 62
    7
 10
28.765379525808015
 20
207.76170132798794
 11
32.082567025807975
 21
205.56170132798792
  0
LINE
  8
_0-1_作画層１
  6
CONTINUOUS
 62
    7
 10
28.765379525807987
 20
207.76170132798794
 11
10.749754525808044
 21
207.76170132798794
  0
LINE
  8
_0-1_作画層１
  6
CONTINUOUS
 62
    7
 10
17.757567025808044
 20
206.26170132798791
 11
21.757567025808058
 21
206.26170132798791
  0
LINE
  8
_0-1_作画層１
  6
CONTINUOUS
 62
    7
 10
21.757567025808058
 20
206.26170132798791
 11
20.186313488664325
 21
203.64294543274835
  0
LINE
  8
_0-1_作画層１
  6
CONTINUOUS
 62
    7
 10
17.757567025808044
 20
206.26170132798791
 11
19.328820562951762
 21
203.64294543274838
  0
ARC
  8
_0-1_作画層１
  6
CONTINUOUS
 62
    7
 10
19.757567025808072
 20
203.90019331046216
 40
0.5000000000000193
 50
210.9637565320738
 51
329.03624346792179
  0
CIRCLE
  8
_0-1_作画層１
  6
CONTINUOUS
 62
    7
 10
-13.242432974191928
 20
186.26170132798791
 40
1.75
  0
LINE
  8
_0-1_作画層１
  6
CONTINUOUS
 62
    7
 10
-3.742432974191928
 20
192.10775122213946
 11
-13.242432974191928
 21
192.10775122213946
  0
ARC
  8
_0-1_作画層１
  6
CONTINUOUS
 62
    7
 10
-13.242432974191956
 20
186.10775122213946
 40
6
 50
89.999999999999801
 51
180
  0
LINE
  8
_0-1_作画層１
  6
CONTINUOUS
 62
    7
 10
-3.7424329741919564
 20
180.10775122213946
 11
-13.242432974191928
 21
180.10775122213946
  0
ARC
  8
_0-1_作画層１
  6
CONTINUOUS
 62
    7
 10
-13.242432974191956
 20
186.10775122213946
 40
5.9999999999999787
 50
180
 51
270.00000000000023
  0
TEXT
  8
_0-7_注記層１
 62
    7
 10
16.257567025808044
 20
194.51170132798794
 40
3.5
 41
1
 50
0
  1
SH-1
  0
LINE
  8
_0-1_作画層１
  6
CENTER
 62
    7
 10
19.757567025808044
 20
213.76170132798791
 11
19.757567025808044
 21
128.76170132798794
  0
INSERT
  2
-000-_D0
  8
_0-9_寸法線層１
 10
-55.25
 20
-38.75
 41
1
 42
1
 50
0
  0
INSERT
  2
-001-_D1
  8
_0-9_寸法線層１
 10
-55.25
 20
-38.75
 41
1
 42
1
 50
0
  0
INSERT
  2
-002-_D2
  8
_0-9_寸法線層１
 10
-55.25
 20
-38.75
 41
1
 42
1
 50
0
  0
INSERT
  2
-003-_D3
  8
_0-9_寸法線層１
 10
-55.25
 20
-38.75
 41
1
 42
1
 50
0
  0
LINE
  8
_0-1_作画層１
  6
CENTER
 62
    7
 10
5.4575670258080322
 20
158.76170132798794
 11
5.4575670258080322
 21
151.26170132798794
  0
LINE
  8
_0-1_作画層１
  6
CENTER
 62
    7
 10
32.973162564303976
 20
158.76170132798794
 11
32.973162564303976
 21
151.26170132798794
  0
INSERT
  2
-004-_D4
  8
_0-9_寸法線層１
 10
-55.25
 20
-38.75
 41
1
 42
1
 50
0
  0
LINE
  8
_0-7_注記層１
  6
CONTINUOUS
 62
    7
 10
4.7575670258080436
 20
153.76170132798794
 11
-5.2424329741919564
 21
138.76170132798794
  0
LINE
  8
_0-7_注記層１
  6
CONTINUOUS
 62
    7
 10
-5.2424329741919564
 20
138.76170132798794
 11
14.757567025808044
 21
138.76170132798794
  0
LINE
  8
_0-7_注記層１
  6
CONTINUOUS
 62
    7
 10
4.7575670258080436
 20
153.76170132798794
 11
3.767427175546004
 21
150.81624328603198
  0
LINE
  8
_0-7_注記層１
  6
CONTINUOUS
 62
    7
 10
4.7575670258080436
 20
153.76170132798794
 11
2.4195056987186945
 21
151.71485760391684
  0
LINE
  8
_0-7_注記層１
  6
CONTINUOUS
 62
    7
 10
32.257567025808072
 20
153.76170132798794
 11
22.257567025808072
 21
138.76170132798794
  0
LINE
  8
_0-7_注記層１
  6
CONTINUOUS
 62
    7
 10
22.257567025808072
 20
138.76170132798794
 11
42.257567025808072
 21
138.76170132798794
  0
LINE
  8
_0-7_注記層１
  6
CONTINUOUS
 62
    7
 10
32.257567025808072
 20
153.76170132798794
 11
31.267427175546032
 21
150.81624328603198
  0
LINE
  8
_0-7_注記層１
  6
CONTINUOUS
 62
    7
 10
32.257567025808072
 20
153.76170132798794
 11
29.919505698718723
 21
151.71485760391684
  0
TEXT
  8
_0-7_注記層１
 62
    7
 10
0.5075670258080435
 20
139.76170132798794
 40
3
 41
1
 50
0
  1
♯205 ﾀﾌﾞ
  0
TEXT
  8
_0-7_注記層１
 62
    7
 10
28.007567025808072
 20
139.76170132798794
 40
3
 41
1
 50
0
  1
♯187 ﾀﾌﾞ
  0
CIRCLE
  8
_0-1_作画層１
  6
CONTINUOUS
 62
    7
 10
52.757567025808044
 20
186.26170132798791
 40
1.75
  0
ARC
  8
_0-1_作画層１
  6
CONTINUOUS
 62
    7
 10
52.757567025808058
 20
186.10775122213946
 40
6
 50
0
 51
90.000000000000142
  0
ARC
  8
_0-1_作画層１
  6
CONTINUOUS
 62
    7
 10
52.757567025808058
 20
186.10775122213946
 40
5.9999999999999858
 50
269.99999999999983
 51
0.0000000000000254
  0
LINE
  8
_0-1_作画層１
  6
CONTINUOUS
 62
    7
 10
43.257567025808044
 20
192.10775122213946
 11
52.757567025808044
 21
192.10775122213946
  0
LINE
  8
_0-1_作画層１
  6
CONTINUOUS
 62
    7
 10
43.257567025808072
 20
180.10775122213946
 11
52.757567025808044
 21
180.10775122213946
  0
INSERT
  2
-005-_D5
  8
_0-9_寸法線層１
 10
-55.25
 20
-38.75
 41
1
 42
1
 50
0
  0
INSERT
  2
-006-_D6
  8
_0-9_寸法線層１
 10
-55.25
 20
-38.75
 41
1
 42
1
 50
0
  0
TEXT
  8
_0-7_注記層１
 62
    7
 10
53.257567025808072
 20
149.76170132798794
 40
3
 41
1
 50
0
  1
ｽﾘｯﾄ位置自由
  0
LINE
  8
_0-7_注記層１
  6
CONTINUOUS
 62
    7
 10
22.257567025808058
 20
183.76170132798794
 11
52.257567025808072
 21
148.76170132798794
  0
LINE
  8
_0-7_注記層１
  6
CONTINUOUS
 62
    7
 10
52.257567025808072
 20
148.76170132798794
 11
74.757567025808072
 21
148.76170132798794
  0
LINE
  8
_0-7_注記層１
  6
CONTINUOUS
 62
    7
 10
22.257567025808058
 20
183.76170132798796
 11
24.824938994091852
 21
182.01107253339143
  0
LINE
  8
_0-7_注記層１
  6
CONTINUOUS
 62
    7
 10
22.257567025808058
 20
183.76170132798796
 11
23.594943298260063
 21
180.95679050839274
  0
LINE
  8
_0-1_作画層１
  6
CENTER
 62
    7
 10
74.757567025808072
 20
186.26170132798794
 11
134.75756702580807
 21
186.26170132798794
  0
LINE
  8
_0-7_注記層１
  6
CONTINUOUS
 62
    7
 10
109.75756702580807
 20
201.26170132798794
 11
117.25756702580807
 21
213.76170132798791
  0
LINE
  8
_0-7_注記層１
  6
CONTINUOUS
 62
    7
 10
117.25756702580807
 20
213.76170132798791
 11
139.75756702580807
 21
213.76170132798791
  0
LINE
  8
_0-7_注記層１
  6
CONTINUOUS
 62
    7
 10
109.75756702580807
 20
201.26170132798794
 11
110.60648502226346
 21
204.25092166702188
  0
LINE
  8
_0-7_注記層１
  6
CONTINUOUS
 62
    7
 10
109.75756702580807
 20
201.26170132798794
 11
111.99562356191782
 21
203.41743854322928
  0
TEXT
  8
_0-7_注記層１
 62
    7
 10
124.75756702580807
 20
214.76170132798791
 40
3
 41
1
 50
0
  1
製造年月日
  0
LINE
  8
_0-1_作画層１
  6
CONTINUOUS
 62
    7
 10
120.25756702580804
 20
205.56170132798795
 11
98.257567025808044
 21
205.56170132798795
  0
LINE
  8
_0-1_作画層１
  6
CONTINUOUS
 62
    7
 10
97.457567025808032
 20
207.76170132798794
 11
97.457567025808032
 21
168.26170132798794
  0
LINE
  8
_0-1_作画層１
  6
CONTINUOUS
 62
    7
 10
96.657567025808021
 20
207.76170132798794
 11
96.657567025808021
 21
168.26170132798794
  0
LINE
  8
_0-1_作画層１
  6
CONTINUOUS
 62
    7
 10
96.657567025808021
 20
207.76170132798794
 11
97.457567025808032
 21
207.76170132798794
  0
LINE
  8
_0-1_作画層１
  6
CONTINUOUS
 62
    7
 10
96.057567025808027
 20
205.56170132798795
 11
96.657567025808021
 21
205.56170132798795
  0
LINE
  8
_0-1_作画層１
  6
CONTINUOUS
 62
    7
 10
121.25756702580804
 20
205.56170132798795
 11
127.75756702580804
 21
205.56170132798795
  0
ARC
  8
_0-1_作画層１
  6
CONTINUOUS
 62
    7
 10
127.75756702580807
 20
199.56170132798795
 40
6
 50
0
 51
90.000000000000284
  0
LINE
  8
_0-1_作画層１
  6
CONTINUOUS
 62
    7
 10
133.75756702580804
 20
199.56170132798795
 11
133.75756702580804
 21
172.96170132798792
  0
LINE
  8
_0-1_作画層１
  6
CONTINUOUS
 62
    7
 10
121.25756702580804
 20
166.96170132798792
 11
127.75756702580804
 21
166.96170132798792
  0
ARC
  8
_0-1_作画層１
  6
CONTINUOUS
 62
    7
 10
127.75756702580807
 20
172.96170132798792
 40
5.9999999999999716
 50
269.99999999999977
 51
359.99999999999994
  0
LINE
  8
_0-1_作画層１
  6
CONTINUOUS
 62
    7
 10
121.25756702580804
 20
166.96170132798792
 11
121.25756702580804
 21
205.56170132798795
  0
LINE
  8
_0-1_作画層１
  6
CONTINUOUS
 62
    7
 10
98.257567025808044
 20
166.96170132798792
 11
120.25756702580804
 21
166.96170132798792
  0
ARC
  8
_0-1_作画層１
  6
CONTINUOUS
 62
    7
 10
118.25756702580807
 20
166.76170132798791
 40
1.9999999999999716
 50
269.9999999999992
 51
0.0000000000007887
  0
ARC
  8
_0-1_作画層１
  6
CONTINUOUS
 62
    7
 10
100.25756702580802
 20
166.76170132798791
 40
1.9999999999999716
 50
179.99999999999918
 51
270.0000000000008
  0
LINE
  8
_0-1_作画層１
  6
CONTINUOUS
 62
    7
 10
120.25756702580804
 20
205.56170132798795
 11
120.25756702580804
 21
161.76170132798794
  0
ARC
  8
_0-1_作画層１
  6
CONTINUOUS
 62
    7
 10
118.25756702580807
 20
161.76170132798791
 40
1.9999999999999716
 50
269.9999999999992
 51
0.0000000000007887
  0
LINE
  8
_0-1_作画層１
  6
CONTINUOUS
 62
    7
 10
98.257567025808044
 20
205.56170132798795
 11
98.257567025808044
 21
161.76170132798794
  0
ARC
  8
_0-1_作画層１
  6
CONTINUOUS
 62
    7
 10
100.25756702580802
 20
161.76170132798791
 40
1.9999999999999716
 50
179.99999999999918
 51
270.0000000000008
  0
LINE
  8
_0-1_作画層１
  6
CONTINUOUS
 62
    7
 10
111.95756702580803
 20
155.26170132798794
 11
111.95756702580803
 21
168.76170132798794
  0
LINE
  8
_0-1_作画層１
  6
CONTINUOUS
 62
    7
 10
109.60756702580804
 20
163.76170132798794
 11
109.60756702580804
 21
155.26170132798794
  0
LINE
  8
_0-1_作画層１
  6
CONTINUOUS
 62
    7
 10
114.30756702580805
 20
163.76170132798794
 11
114.30756702580805
 21
155.26170132798794
  0
LINE
  8
_0-1_作画層１
  6
CONTINUOUS
 62
    7
 10
100.25756702580802
 20
164.76170132798794
 11
118.25756702580804
 21
164.76170132798794
  0
LINE
  8
_0-1_作画層１
  6
CONTINUOUS
 62
    7
 10
108.60756702580804
 20
163.76170132798794
 11
108.60756702580804
 21
164.76170132798794
  0
LINE
  8
_0-1_作画層１
  6
CONTINUOUS
 62
    7
 10
115.30756702580805
 20
163.76170132798794
 11
115.30756702580805
 21
164.76170132798794
  0
LINE
  8
_0-1_作画層１
  6
CONTINUOUS
 62
    7
 10
109.60756702580804
 20
163.76170132798794
 11
108.60756702580804
 21
163.76170132798794
  0
LINE
  8
_0-1_作画層１
  6
CONTINUOUS
 62
    7
 10
114.30756702580805
 20
163.76170132798794
 11
115.30756702580805
 21
163.76170132798794
  0
LINE
  8
_0-1_作画層１
  6
CONTINUOUS
 62
    7
 10
114.30756702580805
 20
155.26170132798794
 11
109.60756702580804
 21
155.26170132798794
  0
ARC
  8
_0-1_作画層１
  6
CONTINUOUS
 62
    7
 10
111.95707842645947
 20
158.44655474818336
 40
0.9999999999999713
 50
179.99999999999838
 51
270.00000000000159
  0
LINE
  8
_0-1_作画層１
  6
CONTINUOUS
 62
    7
 10
111.9570784264595
 20
157.44655474818339
 11
112.04584064144322
 21
157.44655474818339
  0
ARC
  8
_0-1_作画層１
  6
CONTINUOUS
 62
    7
 10
112.04584064144325
 20
158.44655474818336
 40
0.9999999999999713
 50
269.99999999999835
 51
0.0000000000016666
  0
LINE
  8
_0-1_作画層１
  6
CONTINUOUS
 62
    7
 10
113.04584064144322
 20
158.44655474818339
 11
113.04584064144322
 21
161.17375344525178
  0
ARC
  8
_0-1_作画層１
  6
CONTINUOUS
 62
    7
 10
112.04584064144325
 20
161.1737534452518
 40
0.9999999999999713
 50
359.99999999999835
 51
90.000000000001663
  0
LINE
  8
_0-1_作画層１
  6
CONTINUOUS
 62
    7
 10
112.04584064144322
 20
162.17375344525178
 11
111.9570784264595
 21
162.17375344525178
  0
LINE
  8
_0-1_作画層１
  6
CONTINUOUS
 62
    7
 10
110.9570784264595
 20
158.44655474818339
 11
110.9570784264595
 21
161.17375344525178
  0
ARC
  8
_0-1_作画層１
  6
CONTINUOUS
 62
    7
 10
111.95707842645947
 20
161.1737534452518
 40
0.9999999999999713
 50
89.99999999999838
 51
180.00000000000162
  0
LINE
  8
_0-1_作画層１
  6
CONTINUOUS
 62
    7
 10
114.30756702580805
 20
159.76170132798794
 11
118.25756702580804
 21
159.76170132798794
  0
LINE
  8
_0-1_作画層１
  6
CONTINUOUS
 62
    7
 10
109.60756702580804
 20
159.76170132798794
 11
100.25756702580804
 21
159.76170132798794
  0
LINE
  8
_0-1_作画層１
  6
CONTINUOUS
 62
    7
 10
96.657567025808021
 20
192.10775122213946
 11
96.057567025808027
 21
192.10775122213946
  0
LINE
  8
_0-1_作画層１
  6
CONTINUOUS
 62
    7
 10
96.657567025808021
 20
180.10775122213946
 11
96.057567025808027
 21
180.10775122213946
  0
LINE
  8
_0-1_作画層１
  6
CONTINUOUS
 62
    7
 10
78.057567025808027
 20
183.26170132798794
 11
78.057567025808027
 21
189.26170132798794
  0
LINE
  8
_0-1_作画層１
  6
CONTINUOUS
 62
    7
 10
96.057567025808027
 20
189.26170132798794
 11
78.057567025808027
 21
189.26170132798794
  0
LINE
  8
_0-1_作画層１
  6
CONTINUOUS
 62
    7
 10
96.057567025808027
 20
183.26170132798794
 11
78.057567025808027
 21
183.26170132798794
  0
LINE
  8
_0-1_作画層１
  6
CONTINUOUS
 62
    7
 10
107.25756702580807
 20
200.26170132798794
 11
107.25756702580807
 21
172.26170132798794
  0
LINE
  8
_0-1_作画層１
  6
CONTINUOUS
 62
    7
 10
112.25756702580807
 20
200.26170132798794
 11
112.25756702580807
 21
172.26170132798794
  0
LINE
  8
_0-1_作画層１
  6
CONTINUOUS
 62
    7
 10
112.25756702580807
 20
189.76170132798794
 11
107.25756702580807
 21
189.76170132798794
  0
LINE
  8
_0-1_作画層１
  6
CONTINUOUS
 62
    7
 10
112.25756702580807
 20
193.26170132798794
 11
107.25756702580807
 21
193.26170132798794
  0
LINE
  8
_0-1_作画層１
  6
CONTINUOUS
 62
    7
 10
112.25756702580807
 20
196.76170132798794
 11
107.25756702580807
 21
196.76170132798794
  0
LINE
  8
_0-1_作画層１
  6
CONTINUOUS
 62
    7
 10
112.25756702580807
 20
200.26170132798794
 11
107.25756702580807
 21
200.26170132798794
  0
LINE
  8
_0-1_作画層１
  6
CONTINUOUS
 62
    7
 10
112.25756702580807
 20
172.26170132798794
 11
107.25756702580807
 21
172.26170132798794
  0
LINE
  8
_0-1_作画層１
  6
CONTINUOUS
 62
    7
 10
112.25756702580807
 20
175.76170132798794
 11
107.25756702580807
 21
175.76170132798794
  0
LINE
  8
_0-1_作画層１
  6
CONTINUOUS
 62
    7
 10
112.25756702580807
 20
179.26170132798794
 11
107.25756702580807
 21
179.26170132798794
  0
LINE
  8
_0-1_作画層１
  6
CONTINUOUS
 62
    7
 10
112.25756702580807
 20
182.76170132798794
 11
107.25756702580807
 21
182.76170132798794
  0
LINE
  8
_0-1_作画層１
  6
CONTINUOUS
 62
    7
 10
112.25756702580807
 20
186.26170132798794
 11
107.25756702580807
 21
186.26170132798794
  0
LINE
  8
_0-1_作画層１
  6
CONTINUOUS
 62
    7
 10
96.057567025808027
 20
180.10775122213946
 11
96.057567025808027
 21
192.10775122213946
  0
LINE
  8
_0-1_作画層１
  6
CONTINUOUS
 62
    7
 10
88.057567025808027
 20
191.76170132798794
 11
90.057567025808027
 21
191.76170132798794
  0
LINE
  8
_0-1_作画層１
  6
CONTINUOUS
 62
    7
 10
90.057567025808027
 20
180.76170132798794
 11
88.057567025808027
 21
180.76170132798794
  0
LINE
  8
_0-1_作画層１
  6
CONTINUOUS
 62
    7
 10
88.057567025808027
 20
189.26170132798794
 11
88.057567025808027
 21
191.76170132798794
  0
LINE
  8
_0-1_作画層１
  6
CONTINUOUS
 62
    7
 10
90.057567025808027
 20
189.26170132798794
 11
90.057567025808027
 21
191.76170132798794
  0
LINE
  8
_0-1_作画層１
  6
CONTINUOUS
 62
    7
 10
88.057567025808027
 20
183.26170132798794
 11
88.057567025808027
 21
180.76170132798794
  0
LINE
  8
_0-1_作画層１
  6
CONTINUOUS
 62
    7
 10
90.057567025808027
 20
183.26170132798794
 11
90.057567025808027
 21
180.76170132798794
  0
LINE
  8
_0-1_作画層１
  6
CONTINUOUS
 62
    7
 10
89.057567025808027
 20
176.26170132798794
 11
89.057567025808027
 21
196.26170132798794
  0
INSERT
  2
-007-_D7
  8
_0-9_寸法線層１
 10
-55.25
 20
-38.75
 41
1
 42
1
 50
0
  0
LINE
  8
_0-1_作画層１
  6
CONTINUOUS
 62
    7
 10
79.057567025808027
 20
183.26170132798794
 11
79.057567025808027
 21
189.26170132798794
  0
INSERT
  2
-008-_D8
  8
_0-9_寸法線層１
 10
-55.25
 20
-38.75
 41
1
 42
1
 50
0
  0
INSERT
  2
-009-_D9
  8
_0-9_寸法線層１
 10
-55.25
 20
-38.75
 41
1
 42
1
 50
0
  0
INSERT
  2
-010-_D10
  8
_0-9_寸法線層１
 10
-55.25
 20
-38.75
 41
1
 42
1
 50
0
  0
LINE
  8
_0-1_作画層１
  6
CENTER
 62
    7
 10
-22.742432974191956
 20
186.26170132798794
 11
59.757567025808044
 21
186.26170132798794
  0
LINE
  8
_0-1_作画層１
  6
CONTINUOUS
 62
    7
 10
32.273162564303988
 20
155.26170132798794
 11
32.273162564303988
 21
164.76170132798794
  0
LINE
  8
_0-1_作画層１
  6
CONTINUOUS
 62
    7
 10
33.673162564303965
 20
155.26170132798794
 11
33.673162564303965
 21
164.76170132798794
  0
LINE
  8
_0-1_作画層１
  6
CONTINUOUS
 62
    7
 10
33.673162564303965
 20
155.26170132798794
 11
32.273162564303988
 21
155.26170132798794
  0
LINE
  8
_0-1_作画層１
  6
CONTINUOUS
 62
    7
 10
43.257567025808044
 20
74.26170132798795
 11
-3.7424329741919564
 21
74.26170132798795
  0
LINE
  8
_0-1_作画層１
  6
CONTINUOUS
 62
    7
 10
-3.7424329741919564
 20
74.26170132798795
 11
-3.7424329741919564
 21
96.261701327987964
  0
LINE
  8
_0-1_作画層１
  6
CONTINUOUS
 62
    7
 10
43.257567025808044
 20
74.26170132798795
 11
43.257567025808044
 21
96.261701327987964
  0
LINE
  8
_0-1_作画層１
  6
CONTINUOUS
 62
    7
 10
39.057567025808055
 20
72.261701327987936
 11
39.057567025808055
 21
65.761701327987936
  0
ARC
  8
_0-1_作画層１
  6
CONTINUOUS
 62
    7
 10
33.057567025808027
 20
65.761701327987964
 40
6.0000000000000284
 50
270.00000000000023
 51
359.99999999999977
  0
LINE
  8
_0-1_作画層１
  6
CONTINUOUS
 62
    7
 10
33.057567025808055
 20
59.761701327987936
 11
6.4575670258080322
 21
59.761701327987936
  0
LINE
  8
_0-1_作画層１
  6
CONTINUOUS
 62
    7
 10
0.4575670258080322
 20
72.261701327987936
 11
0.4575670258080322
 21
65.761701327987936
  0
ARC
  8
_0-1_作画層１
  6
CONTINUOUS
 62
    7
 10
6.4575670258080322
 20
65.761701327987922
 40
5.9999999999999858
 50
179.99999999999986
 51
270.00000000000023
  0
LINE
  8
_0-1_作画層１
  6
CONTINUOUS
 62
    7
 10
0.4575670258080322
 20
72.261701327987936
 11
39.057567025808055
 21
72.261701327987936
  0
LINE
  8
_0-1_作画層１
  6
CONTINUOUS
 62
    7
 10
59.257567025808044
 20
95.261701327987964
 11
59.257567025808044
 21
96.261701327987964
  0
LINE
  8
_0-1_作画層１
  6
CONTINUOUS
 62
    7
 10
-19.742432974191928
 20
95.261701327987964
 11
-19.742432974191928
 21
96.261701327987964
  0
LINE
  8
_0-1_作画層１
  6
CONTINUOUS
 62
    7
 10
-19.742432974191956
 20
96.261701327987964
 11
59.257567025808044
 21
96.261701327987964
  0
LINE
  8
_0-1_作画層１
  6
CONTINUOUS
 62
    7
 10
-19.742432974191956
 20
95.261701327987964
 11
59.257567025808044
 21
95.261701327987964
  0
LINE
  8
_0-1_作画層１
  6
CONTINUOUS
 62
    7
 10
35.057567025808055
 20
97.156128518987884
 11
4.4575670258080606
 21
97.156128518987884
  0
LINE
  8
_0-1_作画層１
  6
CONTINUOUS
 62
    7
 10
4.4575670258080606
 20
96.261701327987964
 11
4.4575670258080606
 21
97.156128518987884
  0
LINE
  8
_0-1_作画層１
  6
CONTINUOUS
 62
    7
 10
35.057567025808055
 20
96.261701327987964
 11
35.057567025808055
 21
97.156128518987884
  0
LINE
  8
_0-1_作画層１
  6
CONTINUOUS
 62
    7
 10
42.257567025808044
 20
75.26170132798795
 11
42.257567025808044
 21
96.261701327987964
  0
LINE
  8
_0-1_作画層１
  6
CONTINUOUS
 62
    7
 10
-2.7424329741919564
 20
75.26170132798795
 11
-2.7424329741919564
 21
96.261701327987964
  0
LINE
  8
_0-1_作画層１
  6
CONTINUOUS
 62
    7
 10
-2.7424329741919564
 20
75.26170132798795
 11
42.257567025808044
 21
75.26170132798795
  0
LINE
  8
_0-1_作画層１
  6
CONTINUOUS
 62
    7
 10
13.757567025808044
 20
75.26170132798795
 11
13.757567025808044
 21
95.261701327987964
  0
LINE
  8
_0-1_作画層１
  6
CONTINUOUS
 62
    7
 10
25.757567025808072
 20
75.26170132798795
 11
25.757567025808072
 21
95.261701327987964
  0
LINE
  8
_0-1_作画層１
  6
CONTINUOUS
 62
    7
 10
34.773162564303988
 20
85.761701327987964
 11
36.173162564303965
 21
85.761701327987964
  0
LINE
  8
_0-1_作画層１
  6
CONTINUOUS
 62
    7
 10
34.773162564303988
 20
80.76170132798795
 11
36.173162564303965
 21
80.76170132798795
  0
LINE
  8
_0-1_作画層１
  6
CONTINUOUS
 62
    7
 10
34.773162564303988
 20
80.76170132798795
 11
34.773162564303988
 21
85.761701327987964
  0
LINE
  8
_0-1_作画層１
  6
CONTINUOUS
 62
    7
 10
36.173162564303965
 20
80.76170132798795
 11
36.173162564303965
 21
85.761701327987964
  0
LINE
  8
_0-1_作画層１
  6
CONTINUOUS
 62
    7
 10
6.4575670258080322
 20
86.261701327987964
 11
6.4575670258080322
 21
80.26170132798795
  0
LINE
  8
_0-1_作画層１
  6
CONTINUOUS
 62
    7
 10
4.7575670258080436
 20
86.261701327987964
 11
4.7575670258080436
 21
80.26170132798795
  0
LINE
  8
_0-1_作画層１
  6
CONTINUOUS
 62
    7
 10
4.7575670258080436
 20
86.261701327987964
 11
6.4575670258080322
 21
86.261701327987964
  0
LINE
  8
_0-1_作画層１
  6
CONTINUOUS
 62
    7
 10
4.7575670258080436
 20
80.26170132798795
 11
6.4575670258080322
 21
80.26170132798795
  0
LINE
  8
_0-1_作画層１
  6
CONTINUOUS
 62
    7
 10
6.3736835493248805
 20
87.877817851504773
 11
4.7575670258080436
 21
86.261701327987964
  0
LINE
  8
_0-1_作画層１
  6
CONTINUOUS
 62
    7
 10
8.0736835493248691
 20
87.877817851504773
 11
6.4575670258080322
 21
86.261701327987964
  0
LINE
  8
_0-1_作画層１
  6
CONTINUOUS
 62
    7
 10
8.0736835493248691
 20
87.877817851504773
 11
6.3736835493248805
 21
87.877817851504773
  0
LINE
  8
_0-1_作画層１
  6
CONTINUOUS
 62
    7
 10
6.3736835493248805
 20
78.645584804471127
 11
4.7575670258080436
 21
80.26170132798795
  0
LINE
  8
_0-1_作画層１
  6
CONTINUOUS
 62
    7
 10
8.0736835493248691
 20
78.645584804471127
 11
6.4575670258080322
 21
80.26170132798795
  0
LINE
  8
_0-1_作画層１
  6
CONTINUOUS
 62
    7
 10
8.0736835493248691
 20
78.645584804471127
 11
6.3736835493248805
 21
78.645584804471127
  0
LINE
  8
_0-1_作画層１
  6
CONTINUOUS
 62
    7
 10
13.60361691995962
 20
96.861701327987987
 11
13.60361691995962
 21
97.461701327987981
  0
LINE
  8
_0-1_作画層１
  6
CONTINUOUS
 62
    7
 10
22.7575670258081
 20
97.461701327987981
 11
22.7575670258081
 21
115.46170132798798
  0
LINE
  8
_0-1_作画層１
  6
CONTINUOUS
 62
    7
 10
16.7575670258081
 20
97.461701327987981
 11
16.7575670258081
 21
115.46170132798798
  0
LINE
  8
_0-1_作画層１
  6
CENTER
 62
    7
 10
19.757567025808044
 20
53.76170132798795
 11
19.757567025808044
 21
121.26170132798794
  0
LINE
  8
_0-1_作画層１
  6
CONTINUOUS
 62
    7
 10
20.2575670258081
 20
106.26170132798796
 11
20.2575670258081
 21
115.46170132798798
  0
LINE
  8
_0-1_作画層１
  6
CONTINUOUS
 62
    7
 10
19.2575670258081
 20
106.26170132798796
 11
19.2575670258081
 21
115.46170132798798
  0
LINE
  8
_0-1_作画層１
  6
CONTINUOUS
 62
    7
 10
20.2575670258081
 20
106.26170132798796
 11
19.2575670258081
 21
106.26170132798796
  0
LINE
  8
_0-1_作画層１
  6
CONTINUOUS
 62
    7
 10
19.2575670258081
 20
114.46170132798798
 11
16.7575670258081
 21
114.46170132798798
  0
LINE
  8
_0-1_作画層１
  6
CONTINUOUS
 62
    7
 10
20.2575670258081
 20
114.46170132798798
 11
22.7575670258081
 21
114.46170132798798
  0
LINE
  8
_0-1_作画層１
  6
CONTINUOUS
 62
    7
 10
19.2575670258081
 20
115.46170132798798
 11
16.7575670258081
 21
115.46170132798798
  0
LINE
  8
_0-1_作画層１
  6
CONTINUOUS
 62
    7
 10
20.2575670258081
 20
115.46170132798798
 11
22.7575670258081
 21
115.46170132798798
  0
TEXT
  8
_0-7_注記層１
 62
    7
 10
244.75
 20
214.5
 40
3.5
 41
1
 50
0
  1
15,30,60分
  0
TEXT
  8
_0-7_注記層１
 62
    7
 10
244.75
 20
149.5
 40
3.5
 41
1
 50
0
  1
0.1N・m～0.5N・m
  0
TEXT
  8
_0-7_注記層１
 62
    7
 10
244.75
 20
154.5
 40
3.5
 41
1
 50
0
  1
0.1N・m～0.5N・m
  0
TEXT
  8
_0-7_注記層１
 62
    7
 10
284.75756702580804
 20
-16.238298672012064
 40
4
 41
1
 50
0
  1
平野
  0
TEXT
  8
_0-7_注記層１
 62
    7
 10
244.75
 20
204.5
 40
3.5
 41
1
 50
0
  1
AC125V 10A
  0
CIRCLE
  8
_0-0_BaseLayer
  6
CONTINUOUS
 62
    7
 10
19.757567025808044
 20
104.46170132798798
 40
1
  0
TEXT
  8
_0-7_注記層１
 62
    7
 10
211
 20
-15.5
 40
3.5
 41
1
 50
0
  1
2013.03.27
  0
LINE
  8
_0-0_BaseLayer
  6
CONTINUOUS
 62
    7
 10
24.933555573823384
 20
23.078753568575863
 11
24.933947927858469
 21
23.080217853769312
  0
ARC
  8
_0-0_BaseLayer
  6
CONTINUOUS
 62
    3
 10
19.757174616278775
 20
3.7602370576641277
 40
20
 50
164.99565715299326
 51
74.999999835412552
  0
LINE
  8
_0-0_BaseLayer
  6
CONTINUOUS
 62
    3
 10
24.933555573823384
 20
23.078753567139572
 11
25.933555573823384
 21
23.078753567139572
  0
LINE
  8
_0-0_BaseLayer
  6
CONTINUOUS
 62
    3
 10
24.933555573823384
 20
23.078753568575863
 11
25.799580976171512
 21
22.578753566088125
  0
ARC
  8
_0-0_BaseLayer
  6
CONTINUOUS
 62
    3
 10
19.75170977620806
 20
3.7617021856723056
 40
20
 50
74.983791337039463
 51
89.983220215678486
  0
LINE
  8
_0-0_BaseLayer
  6
CONTINUOUS
 62
    3
 10
19.757567025808044
 20
23.760185388405873
 11
18.791714456662845
 21
24.019277678286642
  0
LINE
  8
_0-0_BaseLayer
  6
CONTINUOUS
 62
    3
 10
19.757567025808044
 20
23.760185388405873
 11
18.79156801967747
 21
23.501639608794704
  0
ARC
  8
_0-0_BaseLayer
  6
CONTINUOUS
 62
    3
 10
19.751909135163345
 20
3.760186188699052
 40
20
 50
89.983791337039406
 51
104.98322021567844
  0
LINE
  8
_0-0_BaseLayer
  6
CONTINUOUS
 62
    3
 10
0.4390505000266671
 20
8.9380822300383613
 11
0.4390505000266671
 21
7.9380822300383613
  0
LINE
  8
_0-0_BaseLayer
  6
CONTINUOUS
 62
    3
 10
0.4390505000266671
 20
8.9380822300383613
 11
-0.0609494999733328
 21
8.0720568262539274
  0
POINT
  8
_0-0_BaseLayer
 62
    7
 10
19.757567025808044
 20
3.7617013279879501
  0
LINE
  8
_0-0_BaseLayer
  6
CONTINUOUS
 62
    4
 10
19.757567025808044
 20
3.7617013279879501
 11
27.522138378883682
 21
32.739476116660001
  0
LINE
  8
_0-0_BaseLayer
  6
CONTINUOUS
 62
    4
 10
19.757567025808044
 20
3.7617013279879501
 11
19.757567025808044
 21
33.761701327987964
  0
LINE
  8
_0-0_BaseLayer
  6
CONTINUOUS
 62
    4
 10
19.757567025808044
 20
3.7617013279879501
 11
-9.2202077628640211
 21
11.526272681063574
  0
CIRCLE
  8
_0-0_BaseLayer
  6
CONTINUOUS
 62
    7
 10
19.757567025808044
 20
3.7617013279879501
 40
3
  0
LINE
  8
_0-0_BaseLayer
  6
CONTINUOUS
 62
    7
 10
20.757567025808044
 20
8.7617013279879643
 11
18.757567025808044
 21
8.7617013279879643
  0
LINE
  8
_0-0_BaseLayer
  6
CONTINUOUS
 62
    7
 10
18.757567025808044
 20
-1.2382986720120641
 11
20.757567025808044
 21
-1.2382986720120641
  0
LINE
  8
_0-0_BaseLayer
  6
CONTINUOUS
 62
    7
 10
20.757567025808044
 20
-1.2382986720120499
 11
20.757567025808044
 21
0.9332742032417655
  0
LINE
  8
_0-0_BaseLayer
  6
CONTINUOUS
 62
    7
 10
20.757567025808044
 20
6.5901284527341488
 11
20.757567025808044
 21
8.7617013279879643
  0
LINE
  8
_0-0_BaseLayer
  6
CONTINUOUS
 62
    7
 10
18.757567025808044
 20
8.7617013279879501
 11
18.757567025808044
 21
6.5901284527341346
  0
LINE
  8
_0-0_BaseLayer
  6
CONTINUOUS
 62
    7
 10
18.757567025808044
 20
0.9332742032417513
 11
18.757567025808044
 21
-1.2382986720120641
  0
TEXT
  8
_0-0_BaseLayer
 62
    7
 10
19.968632710668061
 20
24.554554490355798
 40
3
 41
1
 50
-15.000000000000025
  1
15°±4°
  0
TEXT
  8
_0-0_BaseLayer
 62
    7
 10
-21.220207762864021
 20
10.026272681063574
 40
3
 41
1
 50
0
  1
最大時間
  0
TEXT
  8
_0-0_BaseLayer
 62
    7
 10
13.660426834779685
 20
-13.511153219233236
 40
3
 41
1
 50
0
  1
270°±4°
  0
TEXT
  8
_0-0_BaseLayer
 62
    7
 10
1.7575670258080436
 20
33.761701327987964
 40
3
 41
1
 50
0
  1
主軸停止位置
  0
TEXT
  8
_0-0_BaseLayer
 62
    7
 10
27.522138378883682
 20
32.739476116660001
 40
3
 41
1
 50
0
  1
ＯＦＦ
  0
LINE
  8
_0-0_BaseLayer
  6
CONTINUOUS
 62
    7
 10
5.4315073318119573
 20
41.680377037443364
 11
30.94964953764358
 21
41.680377037443364
  0
TEXT
  8
_0-0_BaseLayer
 62
    7
 10
8.5324463632162235
 20
42.180377037443378
 40
4
 41
1
 50
0
  1
セット角度
  0
TEXT
  8
_0-0_BaseLayer
 62
    7
 10
235.27229399333623
 20
112.01577091067207
 40
4
 41
1
 50
0
  1
ツマミ　Ｋ－５（アイボリー）
  0
LINE
  8
_0-0_BaseLayer
  6
CONTINUOUS
 62
    7
 10
234.86563605843719
 20
111.51577091067202
 11
290.31148021428135
 21
111.51577091067202
  0
ARC
  8
_0-0_BaseLayer
  6
CONTINUOUS
 62
    7
 10
277.65910396021025
 20
89.825756291351411
 40
4
 50
270
 51
0
  0
ARC
  8
_0-0_BaseLayer
  6
CONTINUOUS
 62
    7
 10
277.65910396021025
 20
89.825756291351411
 40
4
 50
0
 51
90
  0
LINE
  8
_0-0_BaseLayer
  6
CONTINUOUS
 62
    7
 10
257.65910396021025
 20
93.825756291351411
 11
277.65910396021025
 21
93.825756291351411
  0
ARC
  8
_0-0_BaseLayer
  6
CONTINUOUS
 62
    7
 10
257.65910396021025
 20
89.825756291351411
 40
4
 50
90
 51
180.00000000000003
  0
LINE
  8
_0-0_BaseLayer
  6
CONTINUOUS
 62
    7
 10
257.65910396021025
 20
85.825756291351411
 11
277.65910396021025
 21
85.825756291351411
  0
ARC
  8
_0-0_BaseLayer
  6
CONTINUOUS
 62
    7
 10
257.65910396021025
 20
89.825756291351411
 40
4
 50
180
 51
270
  0
ARC
  8
_0-0_BaseLayer
  6
CONTINUOUS
 62
    7
 10
277.65910396021025
 20
89.825756291351411
 40
5
 50
270
 51
0
  0
ARC
  8
_0-0_BaseLayer
  6
CONTINUOUS
 62
    7
 10
277.65910396021025
 20
89.825756291351411
 40
5
 50
0
 51
90
  0
LINE
  8
_0-0_BaseLayer
  6
CONTINUOUS
 62
    7
 10
257.65910396021025
 20
94.825756291351411
 11
277.65910396021025
 21
94.825756291351411
  0
ARC
  8
_0-0_BaseLayer
  6
CONTINUOUS
 62
    7
 10
257.65910396021025
 20
89.825756291351411
 40
5
 50
90
 51
180.00000000000003
  0
LINE
  8
_0-0_BaseLayer
  6
CONTINUOUS
 62
    7
 10
257.65910396021025
 20
84.825756291351411
 11
277.65910396021025
 21
84.825756291351411
  0
ARC
  8
_0-0_BaseLayer
  6
CONTINUOUS
 62
    7
 10
257.65910396021025
 20
89.825756291351411
 40
5
 50
180
 51
270
  0
CIRCLE
  8
_0-0_BaseLayer
  6
CONTINUOUS
 62
    7
 10
257.65910396021025
 20
89.825756291351411
 40
1.6000000000000001
  0
CIRCLE
  8
_0-0_BaseLayer
  6
CONTINUOUS
 62
    7
 10
267.65910396021025
 20
89.825756291351411
 40
15
  0
TEXT
  8
_0-0_BaseLayer
 62
    7
 10
284.33817993012769
 20
96.504832261268888
 40
3
 41
1
 50
44.999999999999936
  1
R5.0
  0
LINE
  8
_0-0_BaseLayer
  6
CONTINUOUS
 62
    4
 10
289.32155821690208
 20
85.825756291351411
 11
289.32155821690208
 21
93.825756291351411
  0
LINE
  8
_0-0_BaseLayer
  6
CONTINUOUS
 62
    4
 10
289.32155821690208
 20
85.825756291351411
 11
289.06273917179959
 21
86.791682117640477
  0
LINE
  8
_0-0_BaseLayer
  6
CONTINUOUS
 62
    4
 10
289.32155821690208
 20
85.825756291351411
 11
289.58037726200462
 21
86.791682117640477
  0
LINE
  8
_0-0_BaseLayer
  6
CONTINUOUS
 62
    4
 10
289.32155821690208
 20
93.825756291351411
 11
289.06273917179959
 21
92.859830465062345
  0
LINE
  8
_0-0_BaseLayer
  6
CONTINUOUS
 62
    4
 10
289.32155821690208
 20
93.825756291351411
 11
289.58037726200462
 21
92.859830465062345
  0
TEXT
  8
_0-0_BaseLayer
 62
    7
 10
288.82155821690208
 20
87.325756291351411
 40
3
 41
1
 50
90
  1
8.0
  0
LINE
  8
_0-0_BaseLayer
  6
CONTINUOUS
 62
    4
 10
295.70825923289294
 20
84.825756291351411
 11
295.70825923289294
 21
94.825756291351411
  0
LINE
  8
_0-0_BaseLayer
  6
CONTINUOUS
 62
    4
 10
295.70825923289294
 20
84.825756291351411
 11
295.4494401877904
 21
85.791682117640477
  0
LINE
  8
_0-0_BaseLayer
  6
CONTINUOUS
 62
    4
 10
295.70825923289294
 20
84.825756291351411
 11
295.96707827799548
 21
85.791682117640477
  0
LINE
  8
_0-0_BaseLayer
  6
CONTINUOUS
 62
    4
 10
295.70825923289294
 20
94.825756291351411
 11
295.4494401877904
 21
93.859830465062345
  0
LINE
  8
_0-0_BaseLayer
  6
CONTINUOUS
 62
    4
 10
295.70825923289294
 20
94.825756291351411
 11
295.96707827799548
 21
93.859830465062345
  0
TEXT
  8
_0-0_BaseLayer
 62
    7
 10
295.20825923289294
 20
86.450756291351411
 40
3
 41
1
 50
90
  1
10.0
  0
LINE
  8
_0-0_BaseLayer
  6
CONTINUOUS
 62
    4
 10
280.4875310849564
 20
86.997329166605226
 11
288.43691810000246
 21
79.04794215155917
  0
LINE
  8
_0-0_BaseLayer
  6
CONTINUOUS
 62
    4
 10
281.19463786614295
 20
93.361290197284148
 11
289.1111507031369
 21
101.27780303427807
  0
LINE
  8
_0-0_BaseLayer
  6
CONTINUOUS
 62
    4
 10
277.65910396021025
 20
89.825756291351411
 11
280.4875310849564
 21
86.997329166605226
  0
LINE
  8
_0-0_BaseLayer
  6
CONTINUOUS
 62
    4
 10
280.4875310849564
 20
86.997329166605226
 11
279.62150568117198
 21
87.497329166605226
  0
LINE
  8
_0-0_BaseLayer
  6
CONTINUOUS
 62
    4
 10
280.4875310849564
 20
86.997329166605226
 11
279.9875310849564
 21
87.863354570389646
  0
LINE
  8
_0-0_BaseLayer
  6
CONTINUOUS
 62
    4
 10
277.65910396021025
 20
89.825756291351411
 11
281.19463786614295
 21
93.361290197284148
  0
LINE
  8
_0-0_BaseLayer
  6
CONTINUOUS
 62
    4
 10
281.19463786614295
 20
93.361290197284148
 11
280.69463786614295
 21
92.4952647934997
  0
LINE
  8
_0-0_BaseLayer
  6
CONTINUOUS
 62
    4
 10
281.19463786614295
 20
93.361290197284148
 11
280.32861246235854
 21
92.861290197284148
  0
LINE
  8
_0-0_BaseLayer
  6
CONTINUOUS
 62
    4
 10
267.65910396021025
 20
66.301565888919953
 11
257.65910396021025
 21
66.301565888919953
  0
LINE
  8
_0-0_BaseLayer
  6
CONTINUOUS
 62
    4
 10
267.65910396021025
 20
66.301565888919953
 11
266.69317813392115
 21
66.04274684381744
  0
LINE
  8
_0-0_BaseLayer
  6
CONTINUOUS
 62
    4
 10
267.65910396021025
 20
66.301565888919953
 11
266.69317813392115
 21
66.560384934022466
  0
LINE
  8
_0-0_BaseLayer
  6
CONTINUOUS
 62
    4
 10
257.65910396021025
 20
66.301565888919953
 11
258.62502978649928
 21
66.04274684381744
  0
LINE
  8
_0-0_BaseLayer
  6
CONTINUOUS
 62
    4
 10
257.65910396021025
 20
66.301565888919953
 11
258.62502978649928
 21
66.560384934022466
  0
LINE
  8
_0-0_BaseLayer
  6
CONTINUOUS
 62
    4
 10
267.65910396021025
 20
63.301565888919953
 11
267.65910396021025
 21
71.398838616192677
  0
TEXT
  8
_0-0_BaseLayer
 62
    7
 10
249.4566652984463
 20
73.123317629587461
 40
3
 41
1
 50
90
  1
φ3.2
  0
LINE
  8
_0-0_BaseLayer
  6
CONTINUOUS
 62
    4
 10
249.4566652984463
 20
81.623317629587461
 11
249.4566652984463
 21
72.543124330478406
  0
LINE
  8
_0-0_BaseLayer
  6
CONTINUOUS
 62
    4
 10
256.52773311031171
 20
88.694385441452937
 11
249.4566652984463
 21
81.623317629587461
  0
LINE
  8
_0-0_BaseLayer
  6
CONTINUOUS
 62
    4
 10
256.52773311031171
 20
88.694385441452937
 11
256.02773311031171
 21
87.828360037668489
  0
LINE
  8
_0-0_BaseLayer
  6
CONTINUOUS
 62
    4
 10
256.52773311031171
 20
88.694385441452937
 11
255.6617077065273
 21
88.194385441452937
  0
LINE
  8
_0-0_BaseLayer
  6
CONTINUOUS
 62
    4
 10
257.65910396021025
 20
63.301565888919953
 11
257.65910396021025
 21
71.398838616192677
  0
LINE
  8
_0-0_BaseLayer
  6
CENTER1
 62
    7
 10
257.65910396021025
 20
89.825756291351411
 11
257.65910396021025
 21
92.825756291351411
  0
LINE
  8
_0-0_BaseLayer
  6
CENTER1
 62
    7
 10
257.65910396021025
 20
89.825756291351411
 11
257.65910396021025
 21
86.825756291351411
  0
LINE
  8
_0-0_BaseLayer
  6
CENTER1
 62
    7
 10
250.15910396021025
 20
89.825756291351411
 11
285.15910396021025
 21
89.825756291351411
  0
LINE
  8
_0-0_BaseLayer
  6
CENTER1
 62
    7
 10
267.65910396021025
 20
72.325756291351411
 11
267.65910396021025
 21
107.32575629135135
  0
LINE
  8
_0-0_BaseLayer
  6
CONTINUOUS
 62
    4
 10
298.70825923289294
 20
84.825756291351411
 11
285.15910396021025
 21
84.825756291351411
  0
LINE
  8
_0-0_BaseLayer
  6
CONTINUOUS
 62
    4
 10
292.32155821690208
 20
85.825756291351411
 11
285.15910396021025
 21
85.825756291351411
  0
LINE
  8
_0-0_BaseLayer
  6
CONTINUOUS
 62
    4
 10
292.32155821690208
 20
93.825756291351411
 11
285.15910396021025
 21
93.825756291351411
  0
LINE
  8
_0-0_BaseLayer
  6
CONTINUOUS
 62
    4
 10
298.70825923289294
 20
94.825756291351411
 11
285.15910396021025
 21
94.825756291351411
  0
TEXT
  8
_0-0_BaseLayer
 62
    7
 10
259.64619885164581
 20
67.02365058623441
 40
3
 41
1
 50
0
  1
10.0
  0
TEXT
  8
_0-0_BaseLayer
 62
    7
 10
281.69552061038769
 20
80.804476685448066
 40
3
 41
1
 50
-49.999999999999872
  1
R4.0
  0
ARC
  8
_0-0_BaseLayer
  6
CONTINUOUS
 62
    7
 10
330.65910396021025
 20
76.325756291351411
 40
1.5
 50
180
 51
270
  0
LINE
  8
_0-0_BaseLayer
  6
CONTINUOUS
 62
    7
 10
330.65910396021025
 20
74.825756291351411
 11
332.15910396021025
 21
74.825756291351411
  0
LINE
  8
_0-0_BaseLayer
  6
CENTER
 62
    7
 10
345.15910396021025
 20
89.825756291351411
 11
310.15910396021025
 21
89.825756291351411
  0
ARC
  8
_0-0_BaseLayer
  6
CONTINUOUS
 62
    7
 10
315.9591039602102
 20
86.570659931213271
 40
0.8000000000000111
 50
180.00000000000105
 51
265.91501825900934
  0
LINE
  8
_0-0_BaseLayer
  6
CONTINUOUS
 62
    7
 10
315.15910396021025
 20
86.570659931213271
 11
315.15910396021025
 21
93.080860928630358
  0
ARC
  8
_0-0_BaseLayer
  6
CONTINUOUS
 62
    7
 10
315.9591039602102
 20
93.080860928630386
 40
0.7999999999999829
 50
94.085616779975041
 51
180.00000000000102
  0
LINE
  8
_0-0_BaseLayer
  6
CONTINUOUS
 62
    7
 10
332.15910396021025
 20
74.825756291351411
 11
332.15910396021025
 21
104.82575629135141
  0
LINE
  8
_0-0_BaseLayer
  6
CONTINUOUS
 62
    7
 10
329.15910396021025
 20
103.32575629135141
 11
329.15910396021025
 21
76.325756291351411
  0
LINE
  8
_0-0_BaseLayer
  6
CONTINUOUS
 62
    7
 10
330.65910396021025
 20
104.82575629135141
 11
332.15910396021025
 21
104.82575629135141
  0
ARC
  8
_0-0_BaseLayer
  6
CONTINUOUS
 62
    7
 10
330.65910396021025
 20
103.32575629135141
 40
1.5
 50
90
 51
180
  0
LINE
  8
_0-0_BaseLayer
  6
CONTINUOUS
 62
    7
 10
332.15910396021025
 20
83.325756291351411
 11
332.15910396021025
 21
96.325756291351411
  0
LINE
  8
_0-0_BaseLayer
  6
CONTINUOUS
 62
    7
 10
332.15910396021025
 20
96.325756291351411
 11
340.65910396021025
 21
96.325756291351411
  0
LINE
  8
_0-0_BaseLayer
  6
CONTINUOUS
 62
    7
 10
340.65910396021025
 20
96.325756291351411
 11
340.65910396021025
 21
83.325756291351411
  0
LINE
  8
_0-0_BaseLayer
  6
CONTINUOUS
 62
    7
 10
340.65910396021025
 20
83.325756291351411
 11
332.15910396021025
 21
83.325756291351411
  0
ARC
  8
_0-0_BaseLayer
  6
CONTINUOUS
 62
    7
 10
327.65910396021025
 20
83.325756291351411
 40
1.5
 50
0
 51
90
  0
ARC
  8
_0-0_BaseLayer
  6
CONTINUOUS
 62
    7
 10
327.65910396021025
 20
96.325756291351411
 40
1.5
 50
270
 51
0
  0
LINE
  8
_0-0_BaseLayer
  6
CONTINUOUS
 62
    7
 10
315.90211516450711
 20
85.772692339663166
 11
327.65910396021025
 21
84.825756291351411
  0
LINE
  8
_0-0_BaseLayer
  6
CONTINUOUS
 62
    7
 10
315.9021063202199
 20
93.878827888494953
 11
327.65910396021025
 21
94.825756291351411
  0
TEXT
  8
_0-0_BaseLayer
 62
    7
 10
321.81136982357225
 20
77.478022154713386
 40
3
 41
1
 50
44.999999999999929
  1
R1.5
  0
TEXT
  8
_0-0_BaseLayer
 62
    7
 10
323.41125945304816
 20
69.785018565375822
 40
3
 41
1
 50
45.000000000000341
  1
R1.5
  0
LINE
  8
_0-0_BaseLayer
  6
CONTINUOUS
 62
    4
 10
329.59844378843042
 20
75.265096119571581
 11
323.76481284364138
 21
69.431465174782545
  0
LINE
  8
_0-0_BaseLayer
  6
CONTINUOUS
 62
    4
 10
329.59844378843042
 20
75.265096119571581
 11
329.09844378843042
 21
74.399070715787133
  0
LINE
  8
_0-0_BaseLayer
  6
CONTINUOUS
 62
    4
 10
329.59844378843042
 20
75.265096119571581
 11
328.73241838464594
 21
74.765096119571581
  0
LINE
  8
_0-0_BaseLayer
  6
CONTINUOUS
 62
    4
 10
321.81136982357225
 20
77.478022154713386
 11
328.71976413199002
 21
84.386416463131241
  0
LINE
  8
_0-0_BaseLayer
  6
CONTINUOUS
 62
    4
 10
328.71976413199002
 20
84.386416463131241
 11
328.21976413199002
 21
83.520391059346792
  0
LINE
  8
_0-0_BaseLayer
  6
CONTINUOUS
 62
    4
 10
328.71976413199002
 20
84.386416463131241
 11
327.8537387282056
 21
83.886416463131241
  0
LINE
  8
_0-0_BaseLayer
  6
CONTINUOUS
 62
    4
 10
315.39341853526099
 20
86.004974506264034
 11
309.55978759047196
 21
80.171343561475055
  0
TEXT
  8
_0-0_BaseLayer
 62
    7
 10
309.20623419987862
 20
80.524896952068332
 40
3
 41
1
 50
44.999999999999567
  1
R0.8
  0
LINE
  8
_0-0_BaseLayer
  6
CONTINUOUS
 62
    4
 10
315.39341853526099
 20
86.004974506264034
 11
314.89341853526099
 21
85.138949102479614
  0
LINE
  8
_0-0_BaseLayer
  6
CONTINUOUS
 62
    4
 10
315.39341853526099
 20
86.004974506264034
 11
314.52739313147652
 21
85.504974506264062
  0
LINE
  8
_0-0_BaseLayer
  6
CONTINUOUS
 62
    7
 10
283.27229399333623
 20
32.015770910672046
 11
253.27229399333623
 21
32.015770910672046
  0
LINE
  8
_0-0_BaseLayer
  6
CONTINUOUS
 62
    7
 10
281.77229399333623
 20
35.015770910672046
 11
254.77229399333623
 21
35.015770910672046
  0
LINE
  8
_0-0_BaseLayer
  6
CONTINUOUS
 62
    7
 10
281.52224369310352
 20
49.015770910672046
 11
268.27229399333623
 21
49.015770910672046
  0
LINE
  8
_0-0_BaseLayer
  6
CONTINUOUS
 62
    7
 10
255.02234429356895
 20
49.015770910672046
 11
268.27229399333623
 21
49.015770910672046
  0
LINE
  8
_0-0_BaseLayer
  6
CONTINUOUS
 62
    7
 10
274.77229399333623
 20
23.515770910672046
 11
274.77229399333623
 21
32.015770910672046
  0
LINE
  8
_0-0_BaseLayer
  6
CONTINUOUS
 62
    7
 10
261.77229399333623
 20
23.515770910672046
 11
261.77229399333623
 21
32.015770910672046
  0
LINE
  8
_0-0_BaseLayer
  6
CONTINUOUS
 62
    7
 10
269.27229399333623
 20
23.515770910672046
 11
269.27229399333623
 21
26.515770910672046
  0
ARC
  8
_0-0_BaseLayer
  6
CONTINUOUS
 62
    7
 10
268.27229399333623
 20
26.515770910672103
 40
0.9999999999999853
 50
359.9999999999992
 51
89.999999999999986
  0
LINE
  8
_0-0_BaseLayer
  6
CONTINUOUS
 62
    7
 10
267.27229399333623
 20
23.515770910672046
 11
267.27229399333623
 21
26.515770910672046
  0
ARC
  8
_0-0_BaseLayer
  6
CONTINUOUS
 62
    7
 10
268.27229399333623
 20
26.515770910672103
 40
0.9999999999999853
 50
90
 51
180.00000000000082
  0
LINE
  8
_0-0_BaseLayer
  6
CONTINUOUS
 62
    7
 10
269.27229399333623
 20
23.515770910672046
 11
274.77229399333623
 21
23.515770910672046
  0
LINE
  8
_0-0_BaseLayer
  6
CONTINUOUS
 62
    7
 10
267.27229399333623
 20
23.515770910672046
 11
261.77229399333623
 21
23.515770910672046
  0
LINE
  8
_0-0_BaseLayer
  6
CONTINUOUS
 62
    7
 10
253.27229399333623
 20
33.515770910672046
 11
253.27229399333623
 21
32.015770910672046
  0
ARC
  8
_0-0_BaseLayer
  6
CONTINUOUS
 62
    7
 10
254.77229399333623
 20
33.515770910672046
 40
1.5
 50
90
 51
180
  0
LINE
  8
_0-0_BaseLayer
  6
CONTINUOUS
 62
    7
 10
283.27229399333623
 20
33.515770910672046
 11
283.27229399333623
 21
32.015770910672046
  0
ARC
  8
_0-0_BaseLayer
  6
CONTINUOUS
 62
    7
 10
281.77229399333623
 20
33.515770910672046
 40
1.5
 50
0
 51
90
  0
LINE
  8
_0-0_BaseLayer
  6
CONTINUOUS
 62
    7
 10
282.3205839402782
 20
48.267276733070418
 11
283.27229399333623
 21
33.515770910672046
  0
ARC
  8
_0-0_BaseLayer
  6
CONTINUOUS
 62
    7
 10
281.52224369310352
 20
48.215770910672035
 40
0.8
 50
3.6913859864513041
 51
90.000000000000028
  0
LINE
  8
_0-0_BaseLayer
  6
CONTINUOUS
 62
    7
 10
254.22400404639416
 20
48.267276733070418
 11
253.27229399333623
 21
33.515770910672046
  0
ARC
  8
_0-0_BaseLayer
  6
CONTINUOUS
 62
    7
 10
255.02234429356895
 20
48.215770910672035
 40
0.8
 50
90
 51
176.30861401354875
  0
LINE
  8
_0-0_BaseLayer
  6
DASHED1
 62
    7
 10
256.67229399333621
 20
48.315770910672057
 11
259.87229399333626
 21
48.315770910672057
  0
LINE
  8
_0-0_BaseLayer
  6
DASHED1
 62
    7
 10
256.67229399333621
 20
48.315770910672057
 11
256.67229399333621
 21
49.015770910672046
  0
LINE
  8
_0-0_BaseLayer
  6
DASHED1
 62
    7
 10
259.87229399333626
 20
48.315770910672057
 11
259.87229399333626
 21
49.015770910672046
  0
LINE
  8
_0-0_BaseLayer
  6
DASHED1
 62
    7
 10
265.27229399333623
 20
28.015770910672046
 11
265.22229399333622
 21
23.515770910672046
  0
LINE
  8
_0-0_BaseLayer
  6
DASHED1
 62
    7
 10
271.27229399333623
 20
28.015770910672046
 11
271.32229399333619
 21
23.515770910672046
  0
LINE
  8
_0-0_BaseLayer
  6
DASHED1
 62
    7
 10
265.27229399333623
 20
28.015770910672046
 11
265.27229399333623
 21
37.515770910672046
  0
LINE
  8
_0-0_BaseLayer
  6
DASHED1
 62
    7
 10
271.27229399333623
 20
28.015770910672046
 11
271.27229399333623
 21
37.515770910672046
  0
LINE
  8
_0-0_BaseLayer
  6
DASHED1
 62
    7
 10
265.27229399333623
 20
37.515770910672046
 11
271.27229399333623
 21
37.515770910672046
  0
LINE
  8
_0-0_BaseLayer
  6
DASHED1
 62
    7
 10
270.27229399333623
 20
47.015770910672046
 11
266.27229399333623
 21
47.015770910672046
  0
LINE
  8
_0-0_BaseLayer
  6
DASHED1
 62
    7
 10
270.27229399333623
 20
47.015770910672046
 11
270.27229399333623
 21
37.515770910672046
  0
LINE
  8
_0-0_BaseLayer
  6
CONTINUOUS
 62
    4
 10
269.27229564481047
 20
20.407686223730849
 11
267.27229399333623
 21
20.407686223730849
  0
LINE
  8
_0-0_BaseLayer
  6
CONTINUOUS
 62
    4
 10
269.27229564481047
 20
20.407686223730849
 11
268.30636981852143
 21
20.66650526883339
  0
LINE
  8
_0-0_BaseLayer
  6
CONTINUOUS
 62
    4
 10
269.27229564481047
 20
20.407686223730849
 11
268.30636981852143
 21
20.148867178628365
  0
LINE
  8
_0-0_BaseLayer
  6
CONTINUOUS
 62
    4
 10
267.27229399333623
 20
20.407686223730849
 11
268.23821981962527
 21
20.66650526883339
  0
LINE
  8
_0-0_BaseLayer
  6
CONTINUOUS
 62
    4
 10
267.27229399333623
 20
20.407686223730849
 11
268.23821981962527
 21
20.148867178628365
  0
TEXT
  8
_0-0_BaseLayer
 62
    7
 10
266.77229481907335
 20
17.907686223730906
 40
2
 41
1
 50
0
  1
2.0
  0
LINE
  8
_0-0_BaseLayer
  6
CONTINUOUS
 62
    4
 10
271.32229399333619
 20
14.476530720309512
 11
265.22229399333622
 21
14.476530720309512
  0
LINE
  8
_0-0_BaseLayer
  6
CONTINUOUS
 62
    4
 10
271.32229399333619
 20
14.476530720309512
 11
270.35636816704715
 21
14.735349765412053
  0
LINE
  8
_0-0_BaseLayer
  6
CONTINUOUS
 62
    4
 10
271.32229399333619
 20
14.476530720309512
 11
270.35636816704715
 21
14.217711675207028
  0
LINE
  8
_0-0_BaseLayer
  6
CONTINUOUS
 62
    4
 10
265.22229399333622
 20
14.476530720309512
 11
266.18821981962526
 21
14.735349765412053
  0
LINE
  8
_0-0_BaseLayer
  6
CONTINUOUS
 62
    4
 10
265.22229399333622
 20
14.476530720309512
 11
266.18821981962526
 21
14.217711675207028
  0
TEXT
  8
_0-0_BaseLayer
 62
    7
 10
265.77229399333623
 20
14.976530720309512
 40
2
 41
1
 50
0
  1
φ6.1
  0
LINE
  8
_0-0_BaseLayer
  6
CONTINUOUS
 62
    4
 10
274.77229399333623
 20
9.3000208770132815
 11
261.77229399333623
 21
9.3000208770132815
  0
LINE
  8
_0-0_BaseLayer
  6
CONTINUOUS
 62
    4
 10
274.77229399333623
 20
9.3000208770132815
 11
273.80636816704714
 21
9.5588399221158227
  0
LINE
  8
_0-0_BaseLayer
  6
CONTINUOUS
 62
    4
 10
274.77229399333623
 20
9.3000208770132815
 11
273.80636816704714
 21
9.0412018319107403
  0
LINE
  8
_0-0_BaseLayer
  6
CONTINUOUS
 62
    4
 10
261.77229399333623
 20
9.3000208770132815
 11
262.73821981962527
 21
9.5588399221158227
  0
LINE
  8
_0-0_BaseLayer
  6
CONTINUOUS
 62
    4
 10
261.77229399333623
 20
9.3000208770132815
 11
262.73821981962527
 21
9.0412018319107403
  0
TEXT
  8
_0-0_BaseLayer
 62
    7
 10
264.39729399333623
 20
9.8000208770132815
 40
3
 41
1
 50
0
  1
φ13.0
  0
LINE
  8
_0-0_BaseLayer
  6
CONTINUOUS
 62
    4
 10
283.27229399333623
 20
1.2929043127779494
 11
253.27229399333623
 21
1.2929043127779494
  0
LINE
  8
_0-0_BaseLayer
  6
CONTINUOUS
 62
    4
 10
283.27229399333623
 20
1.2929043127779494
 11
282.30636816704714
 21
1.5517233578804905
  0
LINE
  8
_0-0_BaseLayer
  6
CONTINUOUS
 62
    4
 10
283.27229399333623
 20
1.2929043127779494
 11
282.30636816704714
 21
1.0340852676754082
  0
LINE
  8
_0-0_BaseLayer
  6
CONTINUOUS
 62
    4
 10
253.27229399333623
 20
1.2929043127779494
 11
254.23821981962527
 21
1.5517233578804905
  0
LINE
  8
_0-0_BaseLayer
  6
CONTINUOUS
 62
    4
 10
253.27229399333623
 20
1.2929043127779494
 11
254.23821981962527
 21
1.0340852676754082
  0
TEXT
  8
_0-0_BaseLayer
 62
    7
 10
264.39729399333623
 20
1.7929043127779494
 40
3
 41
1
 50
0
  1
φ30.0
  0
LINE
  8
_0-0_BaseLayer
  6
CONTINUOUS
 62
    4
 10
249.79482834904468
 20
49.015770910672046
 11
249.79482834904468
 21
48.315770910672057
  0
LINE
  8
_0-0_BaseLayer
  6
CONTINUOUS
 62
    4
 10
249.79482834904468
 20
49.015770910672046
 11
249.53600930394214
 21
48.049845084383008
  0
LINE
  8
_0-0_BaseLayer
  6
CONTINUOUS
 62
    4
 10
249.79482834904468
 20
49.015770910672046
 11
250.05364739414722
 21
48.049845084383008
  0
LINE
  8
_0-0_BaseLayer
  6
CONTINUOUS
 62
    4
 10
249.79482834904468
 20
48.315770910672057
 11
249.53600930394214
 21
49.281696736961152
  0
LINE
  8
_0-0_BaseLayer
  6
CONTINUOUS
 62
    4
 10
249.79482834904468
 20
48.315770910672057
 11
250.05364739414722
 21
49.281696736961152
  0
LINE
  8
_0-0_BaseLayer
  6
CONTINUOUS
 62
    4
 10
254.45665886861968
 20
48.7814563356213
 11
245.59773237333002
 21
57.640382830910966
  0
LINE
  8
_0-0_BaseLayer
  6
CONTINUOUS
 62
    4
 10
246.79482834904468
 20
49.015770910672046
 11
253.27229399333623
 21
49.015770910672046
  0
LINE
  8
_0-0_BaseLayer
  6
CONTINUOUS
 62
    4
 10
246.79482834904468
 20
48.315770910672057
 11
253.27229399333623
 21
48.315770910672057
  0
LINE
  8
_0-0_BaseLayer
  6
CONTINUOUS
 62
    4
 10
253.7116338215564
 20
34.576431082451876
 11
247.87800287676737
 21
40.410062027240912
  0
LINE
  8
_0-0_BaseLayer
  6
CONTINUOUS
 62
    4
 10
254.27229399333623
 20
54.015770910672046
 11
255.23821981962527
 21
54.274589955774587
  0
LINE
  8
_0-0_BaseLayer
  6
CONTINUOUS
 62
    4
 10
254.27229399333623
 20
54.015770910672046
 11
255.23821981962527
 21
53.756951865569562
  0
LINE
  8
_0-0_BaseLayer
  6
CONTINUOUS
 62
    4
 10
282.27229399333623
 20
54.015770910672046
 11
254.27229399333623
 21
54.015770910672046
  0
LINE
  8
_0-0_BaseLayer
  6
CONTINUOUS
 62
    4
 10
254.45665886861968
 20
48.7814563356213
 11
255.3226842724041
 21
48.2814563356213
  0
LINE
  8
_0-0_BaseLayer
  6
CONTINUOUS
 62
    4
 10
254.45665886861968
 20
48.7814563356213
 11
254.95665886861968
 21
47.91543093183688
  0
LINE
  8
_0-0_BaseLayer
  6
CONTINUOUS
 62
    4
 10
255.02234429356895
 20
48.215770910672035
 11
254.45665886861968
 21
48.7814563356213
  0
LINE
  8
_0-0_BaseLayer
  6
CONTINUOUS
 62
    4
 10
254.77229399333623
 20
33.515770910672046
 11
253.7116338215564
 21
34.576431082451876
  0
LINE
  8
_0-0_BaseLayer
  6
CONTINUOUS
 62
    4
 10
253.7116338215564
 20
34.576431082451876
 11
254.2116338215564
 21
33.710405678667456
  0
LINE
  8
_0-0_BaseLayer
  6
CONTINUOUS
 62
    4
 10
253.7116338215564
 20
34.576431082451876
 11
254.57765922534082
 21
34.076431082451876
  0
TEXT
  8
_0-0_BaseLayer
 62
    7
 10
265.64729399333623
 20
54.515770910672046
 40
3
 41
1
 50
0
  1
28.0
  0
TEXT
  8
_0-0_BaseLayer
 62
    7
 10
265.24032936820709
 20
51.431219183453635
 40
2
 41
1
 50
0
  1
φ4.0
  0
LINE
  8
_0-0_BaseLayer
  6
CONTINUOUS
 62
    4
 10
266.27229399333623
 20
50.569124948533243
 11
267.23821981962527
 21
50.827943993635785
  0
LINE
  8
_0-0_BaseLayer
  6
CONTINUOUS
 62
    4
 10
266.27229399333623
 20
50.569124948533243
 11
267.23821981962527
 21
50.310305903430759
  0
LINE
  8
_0-0_BaseLayer
  6
CONTINUOUS
 62
    4
 10
270.27229399333623
 20
50.569124948533243
 11
266.27229399333623
 21
50.569124948533243
  0
LINE
  8
_0-0_BaseLayer
  6
CONTINUOUS
 62
    4
 10
270.27229399333623
 20
50.569124948533243
 11
269.30636816704714
 21
50.827943993635785
  0
LINE
  8
_0-0_BaseLayer
  6
CONTINUOUS
 62
    4
 10
270.27229399333623
 20
50.569124948533243
 11
269.30636816704714
 21
50.310305903430759
  0
LINE
  8
_0-0_BaseLayer
  6
CONTINUOUS
 62
    4
 10
262.06668704641817
 20
38.221377857590113
 11
265.27229399333623
 21
35.015770910672046
  0
TEXT
  8
_0-0_BaseLayer
 62
    7
 10
263.26638933990773
 20
36.904628343206326
 40
2
 41
1
 50
0
  1
φ6.0
  0
LINE
  8
_0-0_BaseLayer
  6
CONTINUOUS
 62
    4
 10
263.7388811733673
 20
36.549183730640976
 11
264.7048069996564
 21
36.808002775743518
  0
LINE
  8
_0-0_BaseLayer
  6
CONTINUOUS
 62
    4
 10
263.7388811733673
 20
36.549183730640976
 11
264.7048069996564
 21
36.290364685538492
  0
LINE
  8
_0-0_BaseLayer
  6
CONTINUOUS
 62
    4
 10
269.7388811733673
 20
36.549183730640976
 11
263.7388811733673
 21
36.549183730640976
  0
LINE
  8
_0-0_BaseLayer
  6
CONTINUOUS
 62
    4
 10
268.06668704641817
 20
38.221377857590113
 11
271.27229399333623
 21
35.015770910672046
  0
LINE
  8
_0-0_BaseLayer
  6
CONTINUOUS
 62
    4
 10
269.7388811733673
 20
36.549183730640976
 11
268.77295534707821
 21
36.808002775743518
  0
LINE
  8
_0-0_BaseLayer
  6
CONTINUOUS
 62
    4
 10
269.7388811733673
 20
36.549183730640976
 11
268.77295534707821
 21
36.290364685538492
  0
LINE
  8
_0-0_BaseLayer
  6
CONTINUOUS
 62
    4
 10
262.06668704641817
 20
31.221377857590113
 11
265.27229399333623
 21
28.015770910672046
  0
LINE
  8
_0-0_BaseLayer
  6
CONTINUOUS
 62
    4
 10
263.7388811733673
 20
29.549183730640976
 11
264.7048069996564
 21
29.808002775743518
  0
LINE
  8
_0-0_BaseLayer
  6
CONTINUOUS
 62
    4
 10
263.7388811733673
 20
29.549183730640976
 11
264.7048069996564
 21
29.290364685538492
  0
LINE
  8
_0-0_BaseLayer
  6
CONTINUOUS
 62
    4
 10
269.7388811733673
 20
29.549183730640976
 11
263.7388811733673
 21
29.549183730640976
  0
LINE
  8
_0-0_BaseLayer
  6
CONTINUOUS
 62
    4
 10
268.06668704641817
 20
31.221377857590113
 11
271.27229399333623
 21
28.015770910672046
  0
TEXT
  8
_0-0_BaseLayer
 62
    7
 10
263.26638933990773
 20
29.904628343206326
 40
2
 41
1
 50
0
  1
φ6.0
  0
LINE
  8
_0-0_BaseLayer
  6
CONTINUOUS
 62
    4
 10
269.7388811733673
 20
29.549183730640976
 11
268.77295534707821
 21
29.808002775743518
  0
LINE
  8
_0-0_BaseLayer
  6
CONTINUOUS
 62
    4
 10
269.7388811733673
 20
29.549183730640976
 11
268.77295534707821
 21
29.290364685538492
  0
LINE
  8
_0-0_BaseLayer
  6
CONTINUOUS
 62
    4
 10
268.27229399333623
 20
28.015770910672046
 11
265.27229399333623
 21
28.015770910672046
  0
LINE
  8
_0-0_BaseLayer
  6
CONTINUOUS
 62
    4
 10
268.97940077452279
 20
27.222877691858599
 11
274.81303171931177
 21
33.056508636647635
  0
LINE
  8
_0-0_BaseLayer
  6
CONTINUOUS
 62
    4
 10
268.27229399333623
 20
28.015770910672046
 11
271.27229399333623
 21
28.015770910672046
  0
LINE
  8
_0-0_BaseLayer
  6
CONTINUOUS
 62
    4
 10
268.97940077452279
 20
27.222877691858599
 11
268.47940077452279
 21
26.35685228807418
  0
LINE
  8
_0-0_BaseLayer
  6
CONTINUOUS
 62
    4
 10
268.97940077452279
 20
27.222877691858599
 11
268.11337537073831
 21
26.722877691858599
  0
LINE
  8
_0-0_BaseLayer
  6
CONTINUOUS
 62
    4
 10
268.27229399333623
 20
26.515770910672103
 11
268.97940077452279
 21
27.222877691858599
  0
LINE
  8
_0-0_BaseLayer
  6
CONTINUOUS
 62
    4
 10
259.91984791359323
 20
27.515770910672046
 11
259.66102886849069
 21
26.549845084383008
  0
LINE
  8
_0-0_BaseLayer
  6
CONTINUOUS
 62
    4
 10
259.91984791359323
 20
27.515770910672046
 11
259.91984791359323
 21
23.515770910672046
  0
LINE
  8
_0-0_BaseLayer
  6
CONTINUOUS
 62
    4
 10
259.91984791359323
 20
27.515770910672046
 11
260.17866695869577
 21
26.549845084383008
  0
LINE
  8
_0-0_BaseLayer
  6
CONTINUOUS
 62
    4
 10
259.91984791359323
 20
23.515770910672046
 11
259.66102886849069
 21
24.48169673696114
  0
LINE
  8
_0-0_BaseLayer
  6
CONTINUOUS
 62
    4
 10
259.91984791359323
 20
23.515770910672046
 11
260.17866695869577
 21
24.48169673696114
  0
LINE
  8
_0-0_BaseLayer
  6
CONTINUOUS
 62
    4
 10
277.71181273751722
 20
47.015770910672046
 11
277.71181273751722
 21
37.515770910672046
  0
LINE
  8
_0-0_BaseLayer
  6
CONTINUOUS
 62
    4
 10
277.71181273751722
 20
47.015770910672046
 11
277.45299369241468
 21
46.049845084383008
  0
LINE
  8
_0-0_BaseLayer
  6
CONTINUOUS
 62
    4
 10
277.71181273751722
 20
47.015770910672046
 11
277.97063178261976
 21
46.049845084383008
  0
LINE
  8
_0-0_BaseLayer
  6
CONTINUOUS
 62
    4
 10
277.71181273751722
 20
37.515770910672046
 11
277.45299369241468
 21
38.48169673696114
  0
LINE
  8
_0-0_BaseLayer
  6
CONTINUOUS
 62
    4
 10
277.71181273751722
 20
37.515770910672046
 11
277.97063178261976
 21
38.48169673696114
  0
LINE
  8
_0-0_BaseLayer
  6
CONTINUOUS
 62
    4
 10
277.71181273751722
 20
37.515770910672046
 11
277.71181273751722
 21
35.015770910672046
  0
LINE
  8
_0-0_BaseLayer
  6
CONTINUOUS
 62
    4
 10
277.71181273751722
 20
37.515770910672046
 11
277.45299369241468
 21
36.549845084383008
  0
LINE
  8
_0-0_BaseLayer
  6
CONTINUOUS
 62
    4
 10
277.71181273751722
 20
37.515770910672046
 11
277.97063178261976
 21
36.549845084383008
  0
LINE
  8
_0-0_BaseLayer
  6
CONTINUOUS
 62
    4
 10
277.71181273751722
 20
35.015770910672046
 11
277.45299369241468
 21
35.98169673696114
  0
LINE
  8
_0-0_BaseLayer
  6
CONTINUOUS
 62
    4
 10
277.71181273751722
 20
35.015770910672046
 11
277.97063178261976
 21
35.98169673696114
  0
LINE
  8
_0-0_BaseLayer
  6
CONTINUOUS
 62
    4
 10
277.71181273751722
 20
35.015770910672046
 11
277.71181273751722
 21
28.015770910672046
  0
LINE
  8
_0-0_BaseLayer
  6
CONTINUOUS
 62
    4
 10
277.71181273751722
 20
35.015770910672046
 11
277.45299369241468
 21
34.049845084383008
  0
LINE
  8
_0-0_BaseLayer
  6
CONTINUOUS
 62
    4
 10
277.71181273751722
 20
35.015770910672046
 11
277.97063178261976
 21
34.049845084383008
  0
LINE
  8
_0-0_BaseLayer
  6
CONTINUOUS
 62
    4
 10
277.71181273751722
 20
28.015770910672046
 11
277.45299369241468
 21
28.98169673696114
  0
LINE
  8
_0-0_BaseLayer
  6
CONTINUOUS
 62
    4
 10
277.71181273751722
 20
28.015770910672046
 11
277.97063178261976
 21
28.98169673696114
  0
LINE
  8
_0-0_BaseLayer
  6
CONTINUOUS
 62
    4
 10
277.71181273751722
 20
28.015770910672046
 11
277.71181273751722
 21
23.515770910672046
  0
LINE
  8
_0-0_BaseLayer
  6
CONTINUOUS
 62
    4
 10
277.71181273751722
 20
28.015770910672046
 11
277.45299369241468
 21
27.049845084383008
  0
LINE
  8
_0-0_BaseLayer
  6
CONTINUOUS
 62
    4
 10
277.71181273751722
 20
28.015770910672046
 11
277.97063178261976
 21
27.049845084383008
  0
LINE
  8
_0-0_BaseLayer
  6
CONTINUOUS
 62
    4
 10
277.71181273751722
 20
23.515770910672046
 11
277.45299369241468
 21
24.48169673696114
  0
LINE
  8
_0-0_BaseLayer
  6
CONTINUOUS
 62
    4
 10
277.71181273751722
 20
23.515770910672046
 11
277.97063178261976
 21
24.48169673696114
  0
LINE
  8
_0-0_BaseLayer
  6
CONTINUOUS
 62
    4
 10
277.71181273751722
 20
49.015770910672046
 11
277.71181273751722
 21
47.015770910672046
  0
LINE
  8
_0-0_BaseLayer
  6
CONTINUOUS
 62
    4
 10
277.71181273751722
 20
49.015770910672046
 11
277.45299369241468
 21
48.049845084383008
  0
LINE
  8
_0-0_BaseLayer
  6
CONTINUOUS
 62
    4
 10
277.71181273751722
 20
49.015770910672046
 11
277.97063178261976
 21
48.049845084383008
  0
LINE
  8
_0-0_BaseLayer
  6
CONTINUOUS
 62
    4
 10
277.71181273751722
 20
47.015770910672046
 11
277.45299369241468
 21
47.98169673696114
  0
LINE
  8
_0-0_BaseLayer
  6
CONTINUOUS
 62
    4
 10
277.71181273751722
 20
47.015770910672046
 11
277.97063178261976
 21
47.98169673696114
  0
LINE
  8
_0-0_BaseLayer
  6
CONTINUOUS
 62
    4
 10
280.71181273751722
 20
47.015770910672046
 11
275.34105359148612
 21
47.015770910672046
  0
LINE
  8
_0-0_BaseLayer
  6
CONTINUOUS
 62
    4
 10
280.71181273751722
 20
37.515770910672046
 11
275.34105359148612
 21
37.515770910672046
  0
LINE
  8
_0-0_BaseLayer
  6
CONTINUOUS
 62
    4
 10
280.71181273751722
 20
28.015770910672046
 11
275.34105359148612
 21
28.015770910672046
  0
LINE
  8
_0-0_BaseLayer
  6
CONTINUOUS
 62
    4
 10
280.71181273751722
 20
23.515770910672046
 11
275.34105359148612
 21
23.515770910672046
  0
LINE
  8
_0-0_BaseLayer
  6
CONTINUOUS
 62
    4
 10
282.27229399333623
 20
54.015770910672046
 11
281.30636816704714
 21
54.274589955774587
  0
LINE
  8
_0-0_BaseLayer
  6
CONTINUOUS
 62
    4
 10
282.27229399333623
 20
54.015770910672046
 11
281.30636816704714
 21
53.756951865569562
  0
LINE
  8
_0-0_BaseLayer
  6
CONTINUOUS
 62
    4
 10
292.93474825002806
 20
49.015770910672046
 11
284.17148428561791
 21
49.015770910672046
  0
LINE
  8
_0-0_BaseLayer
  6
CONTINUOUS
 62
    4
 10
289.93474825002806
 20
49.015770910672046
 11
289.67592920492552
 21
48.049845084383008
  0
LINE
  8
_0-0_BaseLayer
  6
CONTINUOUS
 62
    4
 10
289.93474825002806
 20
49.015770910672046
 11
290.19356729513061
 21
48.049845084383008
  0
LINE
  8
_0-0_BaseLayer
  6
CONTINUOUS
 62
    4
 10
289.93474825002806
 20
49.015770910672046
 11
289.93474825002806
 21
35.015770910672046
  0
LINE
  8
_0-0_BaseLayer
  6
CONTINUOUS
 62
    4
 10
289.93474825002806
 20
35.015770910672046
 11
289.67592920492552
 21
35.98169673696114
  0
LINE
  8
_0-0_BaseLayer
  6
CONTINUOUS
 62
    4
 10
289.93474825002806
 20
35.015770910672046
 11
290.19356729513061
 21
35.98169673696114
  0
LINE
  8
_0-0_BaseLayer
  6
CONTINUOUS
 62
    4
 10
292.93474825002806
 20
35.015770910672046
 11
284.17148428561791
 21
35.015770910672046
  0
LINE
  8
_0-0_BaseLayer
  6
CONTINUOUS
 62
    4
 10
289.93474825002806
 20
35.015770910672046
 11
289.67592920492552
 21
34.049845084383008
  0
LINE
  8
_0-0_BaseLayer
  6
CONTINUOUS
 62
    4
 10
289.93474825002806
 20
35.015770910672046
 11
290.19356729513061
 21
34.049845084383008
  0
LINE
  8
_0-0_BaseLayer
  6
CONTINUOUS
 62
    4
 10
289.93474825002806
 20
35.015770910672046
 11
289.93474825002806
 21
32.015770910672046
  0
LINE
  8
_0-0_BaseLayer
  6
CONTINUOUS
 62
    4
 10
289.93474825002806
 20
32.015770910672046
 11
289.67592920492552
 21
32.98169673696114
  0
LINE
  8
_0-0_BaseLayer
  6
CONTINUOUS
 62
    4
 10
289.93474825002806
 20
32.015770910672046
 11
290.19356729513061
 21
32.98169673696114
  0
LINE
  8
_0-0_BaseLayer
  6
CONTINUOUS
 62
    4
 10
292.93474825002806
 20
32.015770910672046
 11
284.17148428561791
 21
32.015770910672046
  0
LINE
  8
_0-0_BaseLayer
  6
CONTINUOUS
 62
    4
 10
289.93474825002806
 20
32.015770910672046
 11
289.67592920492552
 21
31.049845084383008
  0
LINE
  8
_0-0_BaseLayer
  6
CONTINUOUS
 62
    4
 10
289.93474825002806
 20
32.015770910672046
 11
290.19356729513061
 21
31.049845084383008
  0
LINE
  8
_0-0_BaseLayer
  6
CONTINUOUS
 62
    4
 10
289.93474825002806
 20
32.015770910672046
 11
289.93474825002806
 21
23.515770910672046
  0
LINE
  8
_0-0_BaseLayer
  6
CONTINUOUS
 62
    4
 10
289.93474825002806
 20
23.515770910672046
 11
289.67592920492552
 21
24.48169673696114
  0
LINE
  8
_0-0_BaseLayer
  6
CONTINUOUS
 62
    4
 10
289.93474825002806
 20
23.515770910672046
 11
290.19356729513061
 21
24.48169673696114
  0
LINE
  8
_0-0_BaseLayer
  6
CONTINUOUS
 62
    4
 10
292.93474825002806
 20
23.515770910672046
 11
284.17148428561791
 21
23.515770910672046
  0
LINE
  8
_0-0_BaseLayer
  6
CENTER1
 62
    7
 10
268.27229399333623
 20
21.515770910672046
 11
268.27229399333623
 21
51.515770910672046
  0
LINE
  8
_0-0_BaseLayer
  6
CONTINUOUS
 62
    4
 10
283.27229399333623
 20
-1.7070956872220506
 11
283.27229399333623
 21
31.337178870454039
  0
LINE
  8
_0-0_BaseLayer
  6
CONTINUOUS
 62
    4
 10
253.27229399333623
 20
-1.7070956872220506
 11
253.27229399333623
 21
31.337178870454039
  0
LINE
  8
_0-0_BaseLayer
  6
CONTINUOUS
 62
    4
 10
261.77229399333623
 20
7.3000208770132815
 11
261.77229399333623
 21
22.839870147669757
  0
LINE
  8
_0-0_BaseLayer
  6
CONTINUOUS
 62
    4
 10
265.22229399333622
 20
13.476530720309512
 11
265.22229399333622
 21
22.839870147669757
  0
LINE
  8
_0-0_BaseLayer
  6
CONTINUOUS
 62
    4
 10
267.27229399333623
 20
20.148867178628365
 11
267.27229399333623
 21
22.839870147669757
  0
LINE
  8
_0-0_BaseLayer
  6
CONTINUOUS
 62
    4
 10
269.27229564481047
 20
20.148867178628365
 11
269.27229564481047
 21
22.839870147669757
  0
LINE
  8
_0-0_BaseLayer
  6
CONTINUOUS
 62
    4
 10
271.32229399333619
 20
13.476530720309512
 11
271.32229399333619
 21
22.839870147669757
  0
LINE
  8
_0-0_BaseLayer
  6
CONTINUOUS
 62
    4
 10
274.77229399333623
 20
7.3000208770132815
 11
274.77229399333623
 21
22.839870147669757
  0
LINE
  8
_0-0_BaseLayer
  6
CONTINUOUS
 62
    4
 10
256.91984791359323
 20
27.515770910672046
 11
261.25141679828243
 21
27.515770910672046
  0
LINE
  8
_0-0_BaseLayer
  6
CONTINUOUS
 62
    4
 10
256.91984791359323
 20
23.515770910672046
 11
261.25141679828243
 21
23.515770910672046
  0
LINE
  8
_0-0_BaseLayer
  6
CONTINUOUS
 62
    4
 10
254.27229399333623
 20
57.015770910672046
 11
254.27229399333623
 21
49.771981951098127
  0
LINE
  8
_0-0_BaseLayer
  6
CONTINUOUS
 62
    4
 10
282.27229399333623
 20
57.015770910672046
 11
282.27229399333623
 21
49.771981951098127
  0
LINE
  8
_0-0_BaseLayer
  6
CONTINUOUS
 62
    4
 10
266.27229399333623
 20
53.569124948533243
 11
266.27229399333623
 21
47.525539043571627
  0
LINE
  8
_0-0_BaseLayer
  6
CONTINUOUS
 62
    4
 10
270.27229399333623
 20
53.569124948533243
 11
270.27229399333623
 21
47.525539043571627
  0
LINE
  8
_0-0_BaseLayer
  6
DASHED1
 62
    7
 10
266.27229399333623
 20
47.015770910672046
 11
266.27229399333623
 21
37.515770910672046
  0
TEXT
  8
_0-0_BaseLayer
 62
    7
 10
246.29482834904468
 20
47.16577091067208
 40
2
 41
1
 50
90
  1
0.7
  0
TEXT
  8
_0-0_BaseLayer
 62
    7
 10
275.37284352463621
 20
45.881981772893511
 40
2
 41
1
 50
90
  1
2.0
  0
TEXT
  8
_0-0_BaseLayer
 62
    7
 10
277.21181273751722
 20
40.765770910672046
 40
2
 41
1
 50
90
  1
9.5
  0
TEXT
  8
_0-0_BaseLayer
 62
    7
 10
275.31171180720605
 20
35.183931222625546
 40
2
 41
1
 50
90
  1
2.5
  0
TEXT
  8
_0-0_BaseLayer
 62
    7
 10
289.43474825002806
 20
39.390770910672046
 40
3
 41
1
 50
90
  1
14.0
  0
TEXT
  8
_0-0_BaseLayer
 62
    7
 10
296.47568110496343
 20
31.548327246521382
 40
3
 41
1
 50
90
  1
3.0
  0
TEXT
  8
_0-0_BaseLayer
 62
    7
 10
289.43474825002806
 20
25.765770910672046
 40
3
 41
1
 50
90
  1
8.5
  0
TEXT
  8
_0-0_BaseLayer
 62
    7
 10
277.20679504753934
 20
28.887364327324946
 40
2
 41
1
 50
90
  1
7.0
  0
TEXT
  8
_0-0_BaseLayer
 62
    7
 10
277.21181273751722
 20
24.265770910672046
 40
2
 41
1
 50
90
  1
4.5
  0
TEXT
  8
_0-0_BaseLayer
 62
    7
 10
259.41984791359323
 20
24.015770910672046
 40
2
 41
1
 50
90
  1
4.0
  0
TEXT
  8
_0-0_BaseLayer
 62
    7
 10
270.65877937984078
 20
29.609363078363231
 40
2
 41
1
 50
45
  1
R1.0
  0
TEXT
  8
_0-0_BaseLayer
 62
    7
 10
245.59773237333002
 20
57.640382830910966
 40
3
 41
1
 50
-44.999999999999957
  1
R0.8
  0
TEXT
  8
_0-0_BaseLayer
 62
    7
 10
247.87800287676737
 20
40.410062027240912
 40
3
 41
1
 50
-45
  1
R1.5
  0
LINE
  8
_0-1_作画層１
  6
CENTER
 62
    7
 10
164.77565679615657
 20
56.953691285175893
 11
164.77565679615657
 21
109.45369128517592
  0
LINE
  8
_0-1_作画層１
  6
CENTER
 62
    7
 10
139.77565679615657
 20
81.953691285175893
 11
192.27565679615657
 21
81.953691285175893
  0
CIRCLE
  8
_0-1_作画層１
  6
CONTINUOUS
 62
    7
 10
164.77565679615657
 20
81.953691285175893
 40
20
  0
LINE
  8
_0-1_作画層１
  6
CONTINUOUS
 62
    7
 10
184.61879162914099
 20
84.453691285175893
 11
144.93252196317215
 21
84.453691285175893
  0
LINE
  8
_0-1_作画層１
  6
CONTINUOUS
 62
    7
 10
184.61879162914099
 20
79.453691285175893
 11
144.93252196317215
 21
79.453691285175893
  0
ARC
  8
_0-1_作画層１
  6
CONTINUOUS
 62
    7
 10
164.77565679615645
 20
81.953691285175893
 40
17.499999999999879
 50
188.13010235415592
 51
351.86989764584405
  0
ARC
  8
_0-1_作画層１
  6
CONTINUOUS
 62
    7
 10
164.77565679615645
 20
81.953691285175893
 40
17.499999999999879
 50
8.1301023541559339
 51
171.86989764584388
  0
ARC
  8
_0-1_作画層１
  6
CONTINUOUS
 62
    7
 10
164.77565679615634
 20
81.953691285175978
 40
6.7499999999998037
 50
21.73846079152041
 51
158.26153920847969
  0
ARC
  8
_0-1_作画層１
  6
CONTINUOUS
 62
    7
 10
164.77565679615634
 20
81.95369128517595
 40
6.7499999999998304
 50
201.73846079152159
 51
338.26153920847844
  0
LINE
  8
_0-1_作画層１
  6
CONTINUOUS
 62
    7
 10
144.77565679615654
 20
82.453691285175893
 11
152.27565679615657
 21
82.453691285175893
  0
LINE
  8
_0-1_作画層１
  6
CONTINUOUS
 62
    7
 10
144.77565679615654
 20
81.453691285175893
 11
152.27565679615657
 21
81.453691285175893
  0
LINE
  8
_0-1_作画層１
  6
CONTINUOUS
 62
    7
 10
152.27565679615657
 20
82.453691285175893
 11
152.27565679615657
 21
81.453691285175893
  0
LINE
  8
_0-1_作画層１
  6
CONTINUOUS
 62
    7
 10
144.77565679615654
 20
81.453691285175893
 11
144.77565679615654
 21
82.453691285175893
  0
LINE
  8
_0-1_作画層１
  6
CONTINUOUS
 62
    7
 10
144.77565679615654
 20
82.423539766159507
 11
144.80580831517298
 21
82.453691285175893
  0
LINE
  8
_0-1_作画層１
  6
CONTINUOUS
 62
    7
 10
144.94722967141027
 20
82.453691285175893
 11
144.77565679615654
 21
82.282118409922163
  0
LINE
  8
_0-1_作画層１
  6
CONTINUOUS
 62
    7
 10
145.08865102764756
 20
82.453691285175893
 11
144.77565679615654
 21
82.140697053684875
  0
LINE
  8
_0-1_作画層１
  6
CONTINUOUS
 62
    7
 10
144.77565679615654
 20
81.999275697447587
 11
145.2300723838849
 21
82.453691285175893
  0
LINE
  8
_0-1_作画層１
  6
CONTINUOUS
 62
    7
 10
145.37149374012219
 20
82.453691285175893
 11
144.77565679615654
 21
81.857854341210242
  0
LINE
  8
_0-1_作画層１
  6
CONTINUOUS
 62
    7
 10
144.77565679615654
 20
81.716432984972954
 11
145.51291509635954
 21
82.453691285175893
  0
LINE
  8
_0-1_作画層１
  6
CONTINUOUS
 62
    7
 10
144.77565679615654
 20
81.575011628735666
 11
145.65433645259682
 21
82.453691285175893
  0
LINE
  8
_0-1_作画層１
  6
CONTINUOUS
 62
    7
 10
145.79575780883405
 20
82.453691285175893
 11
144.79575780883405
 21
81.453691285175893
  0
LINE
  8
_0-1_作画層１
  6
CONTINUOUS
 62
    7
 10
144.9371791650714
 20
81.453691285175893
 11
145.9371791650714
 21
82.453691285175893
  0
LINE
  8
_0-1_作画層１
  6
CONTINUOUS
 62
    7
 10
145.07860052130869
 20
81.453691285175893
 11
146.07860052130869
 21
82.453691285175893
  0
LINE
  8
_0-1_作画層１
  6
CONTINUOUS
 62
    7
 10
146.22002187754597
 20
82.453691285175893
 11
145.22002187754597
 21
81.453691285175893
  0
LINE
  8
_0-1_作画層１
  6
CONTINUOUS
 62
    7
 10
146.36144323378326
 20
82.453691285175893
 11
145.36144323378326
 21
81.453691285175893
  0
LINE
  8
_0-1_作画層１
  6
CONTINUOUS
 62
    7
 10
146.50286459002055
 20
82.453691285175893
 11
145.50286459002055
 21
81.453691285175893
  0
LINE
  8
_0-1_作画層１
  6
CONTINUOUS
 62
    7
 10
146.6442859462579
 20
82.453691285175893
 11
145.6442859462579
 21
81.453691285175893
  0
LINE
  8
_0-1_作画層１
  6
CONTINUOUS
 62
    7
 10
146.78570730249518
 20
82.453691285175893
 11
145.78570730249518
 21
81.453691285175893
  0
LINE
  8
_0-1_作画層１
  6
CONTINUOUS
 62
    7
 10
146.9271286587325
 20
82.453691285175893
 11
145.92712865873247
 21
81.453691285175893
  0
LINE
  8
_0-1_作画層１
  6
CONTINUOUS
 62
    7
 10
147.06855001496984
 20
82.453691285175893
 11
146.06855001496982
 21
81.453691285175893
  0
LINE
  8
_0-1_作画層１
  6
CONTINUOUS
 62
    7
 10
147.20997137120713
 20
82.453691285175893
 11
146.2099713712071
 21
81.453691285175893
  0
LINE
  8
_0-1_作画層１
  6
CONTINUOUS
 62
    7
 10
147.35139272744442
 20
82.453691285175893
 11
146.35139272744439
 21
81.453691285175893
  0
LINE
  8
_0-1_作画層１
  6
CONTINUOUS
 62
    7
 10
147.49281408368171
 20
82.453691285175893
 11
146.49281408368168
 21
81.453691285175893
  0
LINE
  8
_0-1_作画層１
  6
CONTINUOUS
 62
    7
 10
146.63423543991902
 20
81.453691285175893
 11
147.63423543991902
 21
82.453691285175893
  0
LINE
  8
_0-1_作画層１
  6
CONTINUOUS
 62
    7
 10
147.77565679615631
 20
82.453691285175893
 11
146.77565679615631
 21
81.453691285175893
  0
LINE
  8
_0-1_作画層１
  6
CONTINUOUS
 62
    7
 10
146.91707815239366
 20
81.453691285175893
 11
147.91707815239366
 21
82.453691285175893
  0
LINE
  8
_0-1_作画層１
  6
CONTINUOUS
 62
    7
 10
148.05849950863092
 20
82.453691285175893
 11
147.05849950863092
 21
81.453691285175893
  0
LINE
  8
_0-1_作画層１
  6
CONTINUOUS
 62
    7
 10
148.19992086486826
 20
82.453691285175893
 11
147.19992086486826
 21
81.453691285175893
  0
LINE
  8
_0-1_作画層１
  6
CONTINUOUS
 62
    7
 10
147.34134222110552
 20
81.453691285175893
 11
148.34134222110552
 21
82.453691285175893
  0
LINE
  8
_0-1_作画層１
  6
CONTINUOUS
 62
    7
 10
147.48276357734287
 20
81.453691285175893
 11
148.48276357734287
 21
82.453691285175893
  0
LINE
  8
_0-1_作画層１
  6
CONTINUOUS
 62
    7
 10
148.62418493358012
 20
82.453691285175893
 11
147.62418493358012
 21
81.453691285175893
  0
LINE
  8
_0-1_作画層１
  6
CONTINUOUS
 62
    7
 10
147.76560628981744
 20
81.453691285175893
 11
148.76560628981744
 21
82.453691285175893
  0
LINE
  8
_0-1_作画層１
  6
CONTINUOUS
 62
    7
 10
147.90702764605473
 20
81.453691285175893
 11
148.90702764605473
 21
82.453691285175893
  0
LINE
  8
_0-1_作画層１
  6
CONTINUOUS
 62
    7
 10
149.04844900229207
 20
82.453691285175893
 11
148.04844900229207
 21
81.453691285175893
  0
LINE
  8
_0-1_作画層１
  6
CONTINUOUS
 62
    7
 10
149.18987035852936
 20
82.453691285175893
 11
148.18987035852936
 21
81.453691285175893
  0
LINE
  8
_0-1_作画層１
  6
CONTINUOUS
 62
    7
 10
148.33129171476665
 20
81.453691285175893
 11
149.33129171476665
 21
82.453691285175893
  0
LINE
  8
_0-1_作画層１
  6
CONTINUOUS
 62
    7
 10
148.47271307100394
 20
81.453691285175893
 11
149.47271307100394
 21
82.453691285175893
  0
LINE
  8
_0-1_作画層１
  6
CONTINUOUS
 62
    7
 10
148.61413442724128
 20
81.453691285175893
 11
149.61413442724128
 21
82.453691285175893
  0
LINE
  8
_0-1_作画層１
  6
CONTINUOUS
 62
    7
 10
149.75555578347857
 20
82.453691285175893
 11
148.75555578347857
 21
81.453691285175893
  0
LINE
  8
_0-1_作画層１
  6
CONTINUOUS
 62
    7
 10
149.89697713971586
 20
82.453691285175893
 11
148.89697713971586
 21
81.453691285175893
  0
LINE
  8
_0-1_作画層１
  6
CONTINUOUS
 62
    7
 10
149.03839849595315
 20
81.453691285175893
 11
150.03839849595315
 21
82.453691285175893
  0
LINE
  8
_0-1_作画層１
  6
CONTINUOUS
 62
    7
 10
149.17981985219049
 20
81.453691285175893
 11
150.17981985219049
 21
82.453691285175893
  0
LINE
  8
_0-1_作画層１
  6
CONTINUOUS
 62
    7
 10
150.32124120842775
 20
82.453691285175893
 11
149.32124120842775
 21
81.453691285175893
  0
LINE
  8
_0-1_作画層１
  6
CONTINUOUS
 62
    7
 10
150.46266256466507
 20
82.453691285175893
 11
149.46266256466507
 21
81.453691285175893
  0
LINE
  8
_0-1_作画層１
  6
CONTINUOUS
 62
    7
 10
149.60408392090235
 20
81.453691285175893
 11
150.60408392090235
 21
82.453691285175893
  0
LINE
  8
_0-1_作画層１
  6
CONTINUOUS
 62
    7
 10
150.74550527713964
 20
82.453691285175893
 11
149.74550527713964
 21
81.453691285175893
  0
LINE
  8
_0-1_作画層１
  6
CONTINUOUS
 62
    7
 10
150.88692663337699
 20
82.453691285175893
 11
149.88692663337699
 21
81.453691285175893
  0
LINE
  8
_0-1_作画層１
  6
CONTINUOUS
 62
    7
 10
150.02834798961428
 20
81.453691285175893
 11
151.02834798961428
 21
82.453691285175893
  0
LINE
  8
_0-1_作画層１
  6
CONTINUOUS
 62
    7
 10
151.16976934585156
 20
82.453691285175893
 11
150.16976934585156
 21
81.453691285175893
  0
LINE
  8
_0-1_作画層１
  6
CONTINUOUS
 62
    7
 10
151.31119070208891
 20
82.453691285175893
 11
150.31119070208891
 21
81.453691285175893
  0
LINE
  8
_0-1_作画層１
  6
CONTINUOUS
 62
    7
 10
151.45261205832617
 20
82.453691285175893
 11
150.45261205832617
 21
81.453691285175893
  0
LINE
  8
_0-1_作画層１
  6
CONTINUOUS
 62
    7
 10
151.59403341456348
 20
82.453691285175893
 11
150.59403341456348
 21
81.453691285175893
  0
LINE
  8
_0-1_作画層１
  6
CONTINUOUS
 62
    7
 10
151.73545477080083
 20
82.453691285175893
 11
150.73545477080083
 21
81.453691285175893
  0
LINE
  8
_0-1_作画層１
  6
CONTINUOUS
 62
    7
 10
151.87687612703814
 20
82.453691285175893
 11
150.87687612703814
 21
81.453691285175893
  0
LINE
  8
_0-1_作画層１
  6
CONTINUOUS
 62
    7
 10
152.01829748327538
 20
82.453691285175893
 11
151.01829748327538
 21
81.453691285175893
  0
LINE
  8
_0-1_作画層１
  6
CONTINUOUS
 62
    7
 10
151.15971883951269
 20
81.453691285175893
 11
152.15971883951269
 21
82.453691285175893
  0
LINE
  8
_0-1_作画層１
  6
CONTINUOUS
 62
    7
 10
152.27565679615657
 20
82.428207885582452
 11
151.30114019575001
 21
81.453691285175893
  0
LINE
  8
_0-1_作画層１
  6
CONTINUOUS
 62
    7
 10
152.27565679615657
 20
82.286786529345164
 11
151.44256155198727
 21
81.453691285175893
  0
LINE
  8
_0-1_作画層１
  6
CONTINUOUS
 62
    7
 10
152.27565679615657
 20
82.145365173107876
 11
151.58398290822461
 21
81.453691285175893
  0
LINE
  8
_0-1_作画層１
  6
CONTINUOUS
 62
    7
 10
151.7254042644619
 20
81.453691285175893
 11
152.27565679615657
 21
82.003943816870589
  0
LINE
  8
_0-1_作画層１
  6
CONTINUOUS
 62
    7
 10
152.27565679615657
 20
81.862522460633301
 11
151.86682562069919
 21
81.453691285175893
  0
LINE
  8
_0-1_作画層１
  6
CONTINUOUS
 62
    7
 10
152.27565679615657
 20
81.721101104395956
 11
152.00824697693653
 21
81.453691285175893
  0
LINE
  8
_0-1_作画層１
  6
CONTINUOUS
 62
    7
 10
152.27565679615657
 20
81.579679748158668
 11
152.14966833317379
 21
81.453691285175893
  0
LINE
  8
_0-1_作画層１
  6
CONTINUOUS
 62
    7
 10
219.77565679615657
 20
61.953691285175893
 11
219.77565679615657
 21
101.95369128517589
  0
LINE
  8
_0-1_作画層１
  6
CONTINUOUS
 62
    7
 10
215.77565679615657
 20
61.953691285175893
 11
219.77565679615657
 21
61.953691285175893
  0
LINE
  8
_0-1_作画層１
  6
CONTINUOUS
 62
    7
 10
215.77565679615657
 20
101.95369128517589
 11
219.77565679615657
 21
101.95369128517589
  0
LINE
  8
_0-1_作画層１
  6
CONTINUOUS
 62
    7
 10
201.27565679615657
 20
79.070712561771671
 11
215.77565679615657
 21
78.453691285175893
  0
LINE
  8
_0-1_作画層１
  6
CONTINUOUS
 62
    7
 10
201.27565679615645
 20
84.895998977483572
 11
215.77565679615657
 21
85.453691285175893
  0
LINE
  8
_0-1_作画層１
  6
CONTINUOUS
 62
    7
 10
215.77565679615657
 20
85.453691285175893
 11
215.77565679615657
 21
101.95369128517589
  0
LINE
  8
_0-1_作画層１
  6
CONTINUOUS
 62
    7
 10
215.77565679615657
 20
78.453691285175893
 11
215.77565679615657
 21
61.953691285175893
  0
LINE
  8
_0-1_作画層１
  6
CONTINUOUS
 62
    7
 10
201.27565679615657
 20
82.453691285175893
 11
201.27565679615657
 21
81.453691285175893
  0
LINE
  8
_0-1_作画層１
  6
CONTINUOUS
 62
    7
 10
209.77565679615657
 20
85.222922054406666
 11
209.77565679615657
 21
78.709010434112059
  0
LINE
  8
_0-1_作画層１
  6
CONTINUOUS
 62
    7
 10
201.27565679615657
 20
84.895998977483629
 11
201.27565679615657
 21
79.070712561771671
  0
LINE
  8
_0-1_作画層１
  6
CONTINUOUS
 62
    7
 10
203.77565679615657
 20
84.99215282363744
 11
203.77565679615657
 21
88.703691285175722
  0
LINE
  8
_0-1_作画層１
  6
CONTINUOUS
 62
    7
 10
203.77565679615657
 20
78.964329583048226
 11
203.77565679615657
 21
75.20369128517612
  0
LINE
  8
_0-1_作画層１
  6
CONTINUOUS
 62
    7
 10
215.77565679615657
 20
74.64119128517595
 11
203.77565679615657
 21
75.20369128517612
  0
LINE
  8
_0-1_作画層１
  6
CONTINUOUS
 62
    7
 10
215.77565679615645
 20
89.266191285175836
 11
203.77565679615657
 21
88.703691285175722
  0
LINE
  8
_0-1_作画層１
  6
CENTER
 62
    7
 10
229.77565679615657
 20
81.953691285175893
 11
197.27565679615657
 21
81.953691285175893
  0
CIRCLE
  8
_0-0_BaseLayer
  6
CONTINUOUS
 62
    7
 10
99.775656796156568
 20
81.953691285175893
 40
20
  0
CIRCLE
  8
_0-0_BaseLayer
  6
CONTINUOUS
 62
    7
 10
99.775656796156568
 20
81.953691285175893
 40
18
  0
CIRCLE
  8
_0-0_BaseLayer
  6
CONTINUOUS
 62
    7
 10
99.775656796156568
 20
81.953691285175893
 40
3
  0
ARC
  8
_0-0_BaseLayer
  6
CONTINUOUS
 62
    7
 10
99.775656796156568
 20
81.953691285175893
 40
7
 50
64.62306647484769
 51
115.37693352515231
  0
ARC
  8
_0-0_BaseLayer
  6
CONTINUOUS
 62
    7
 10
99.775656796156568
 20
81.953691285175893
 40
7
 50
244.62306647484772
 51
295.37693352515225
  0
LINE
  8
_0-0_BaseLayer
  6
CONTINUOUS
 62
    7
 10
96.775656796156568
 20
76.757538862469261
 11
96.775656796156568
 21
75.629135964839122
  0
LINE
  8
_0-0_BaseLayer
  6
CONTINUOUS
 62
    7
 10
102.77565679615657
 20
75.629135964839122
 11
102.77565679615657
 21
76.757538862469261
  0
LINE
  8
_0-0_BaseLayer
  6
CONTINUOUS
 62
    7
 10
102.77565679615657
 20
87.149843707882525
 11
102.77565679615657
 21
88.278246605512663
  0
LINE
  8
_0-0_BaseLayer
  6
CONTINUOUS
 62
    7
 10
96.775656796156568
 20
88.278246605512663
 11
96.775656796156568
 21
87.149843707882525
  0
ARC
  8
_0-0_BaseLayer
  6
CONTINUOUS
 62
    7
 10
99.775656796156568
 20
81.953691285175893
 40
6
 50
300
 51
60.000000000000007
  0
ARC
  8
_0-0_BaseLayer
  6
CONTINUOUS
 62
    7
 10
99.775656796156568
 20
81.953691285175893
 40
6
 50
119.99999999999999
 51
240.00000000000003
  0
LINE
  8
_0-0_BaseLayer
  6
CONTINUOUS
 62
    7
 10
100.82565679615658
 20
87.953691285175893
 11
98.725656796156557
 21
87.953691285175893
  0
LINE
  8
_0-0_BaseLayer
  6
CONTINUOUS
 62
    7
 10
98.725656796156557
 20
75.953691285175893
 11
100.82565679615655
 21
75.953691285175893
  0
LINE
  8
_0-0_BaseLayer
  6
CONTINUOUS
 62
    7
 10
98.725656796156557
 20
87.953691285175893
 11
98.725656796156557
 21
84.763940384455168
  0
LINE
  8
_0-0_BaseLayer
  6
CONTINUOUS
 62
    7
 10
98.725656796156557
 20
79.143442185896618
 11
98.725656796156557
 21
75.953691285175893
  0
LINE
  8
_0-0_BaseLayer
  6
CONTINUOUS
 62
    7
 10
100.82565679615655
 20
75.953691285175893
 11
100.82565679615655
 21
79.143442185896618
  0
LINE
  8
_0-0_BaseLayer
  6
CONTINUOUS
 62
    7
 10
100.82565679615658
 20
84.763940384455168
 11
100.82565679615658
 21
87.953691285175893
  0
LINE
  8
_0-0_BaseLayer
  6
CONTINUOUS
 62
    7
 10
93.859577013056935
 20
82.953691285175893
 11
81.803456040545143
 21
82.953691285175893
  0
LINE
  8
_0-0_BaseLayer
  6
CONTINUOUS
 62
    7
 10
81.803456040545143
 20
80.953691285175893
 11
93.859577013056935
 21
80.953691285175893
  0
LINE
  8
_0-0_BaseLayer
  6
CONTINUOUS
 62
    7
 10
117.74785755176799
 20
82.953691285175893
 11
105.69173657925617
 21
82.953691285175893
  0
LINE
  8
_0-0_BaseLayer
  6
CONTINUOUS
 62
    7
 10
105.69173657925617
 20
80.953691285175893
 11
117.74785755176799
 21
80.953691285175893
  0
LINE
  8
_0-1_作画層１
  6
CONTINUOUS
 62
    7
 10
144.77565679615657
 20
34.453691285175921
 11
184.77565679615657
 21
34.453691285175921
  0
LINE
  8
_0-1_作画層１
  6
CONTINUOUS
 62
    7
 10
184.77565679615657
 20
38.45369128517595
 11
184.77565679615657
 21
34.45369128517595
  0
LINE
  8
_0-1_作画層１
  6
CONTINUOUS
 62
    7
 10
157.46315679615662
 20
38.453691285175893
 11
158.02565679615677
 21
50.453691285175893
  0
LINE
  8
_0-1_作画層１
  6
CONTINUOUS
 62
    7
 10
172.08815679615651
 20
38.453691285176006
 11
171.52565679615637
 21
50.45369128517595
  0
LINE
  8
_0-1_作画層１
  6
CONTINUOUS
 62
    7
 10
158.02565679615677
 20
50.453691285175921
 11
171.52565679615637
 21
50.453691285175921
  0
LINE
  8
_0-1_作画層１
  6
CONTINUOUS
 62
    7
 10
144.77565679615657
 20
38.453691285175921
 11
184.77565679615657
 21
38.453691285175921
  0
LINE
  8
_0-1_作画層１
  6
CONTINUOUS
 62
    7
 10
144.77565679615657
 20
43.953691285175893
 11
144.77565679615657
 21
34.453691285175893
  0
LINE
  8
_0-1_作画層１
  6
CONTINUOUS
 62
    7
 10
147.27565679615657
 20
52.453691285175893
 11
144.77565679615657
 21
43.953691285175893
  0
LINE
  8
_0-1_作画層１
  6
CONTINUOUS
 62
    7
 10
158.02565679615677
 20
51.453691285175921
 11
171.52565679615637
 21
51.453691285175921
  0
LINE
  8
_0-1_作画層１
  6
CONTINUOUS
 62
    7
 10
147.27565679615657
 20
52.453691285175893
 11
158.02565679615677
 21
51.453691285175893
  0
LINE
  8
_0-1_作画層１
  6
CONTINUOUS
 62
    7
 10
184.77565679615657
 20
43.953691285175893
 11
184.77565679615657
 21
34.453691285175893
  0
LINE
  8
_0-1_作画層１
  6
CONTINUOUS
 62
    7
 10
182.27565679615657
 20
52.453691285175893
 11
184.77565679615657
 21
43.953691285175893
  0
LINE
  8
_0-1_作画層１
  6
CONTINUOUS
 62
    7
 10
182.27565679615657
 20
52.453691285175893
 11
171.5256567961564
 21
51.453691285175893
  0
LINE
  8
_0-1_作画層１
  6
CENTER
 62
    7
 10
164.77565679615657
 20
26.953691285175893
 11
164.77565679615657
 21
56.953691285175893
  0
LINE
  8
_0-0_BaseLayer
  6
CONTINUOUS
 62
    7
 10
170.77565679615657
 20
34.453691285175921
 11
170.77565679615657
 21
31.953691285175921
  0
LINE
  8
_0-0_BaseLayer
  6
CONTINUOUS
 62
    7
 10
170.77565679615657
 20
31.953691285175921
 11
158.77565679615657
 21
31.953691285175921
  0
LINE
  8
_0-0_BaseLayer
  6
CONTINUOUS
 62
    7
 10
158.77565679615657
 20
31.953691285175921
 11
158.77565679615657
 21
34.453691285175921
  0
LINE
  8
_0-0_BaseLayer
  6
CONTINUOUS
 62
    7
 10
161.77565679615657
 20
34.453691285175921
 11
167.77565679615657
 21
34.453691285175921
  0
LINE
  8
_0-0_BaseLayer
  6
CONTINUOUS
 62
    7
 10
167.77565679615657
 20
34.453691285175921
 11
167.77565679615657
 21
31.953691285175921
  0
LINE
  8
_0-0_BaseLayer
  6
CONTINUOUS
 62
    7
 10
167.77565679615657
 20
31.953691285175921
 11
161.77565679615657
 21
31.953691285175921
  0
LINE
  8
_0-0_BaseLayer
  6
CONTINUOUS
 62
    7
 10
161.77565679615657
 20
31.953691285175921
 11
161.77565679615657
 21
34.453691285175921
  0
TEXT
  8
_0-7_注記層１
 62
    7
 10
79.822765865826
 20
102.98882043484255
 40
4
 41
1
 50
0
  1
Ｋ－１－３（９０度）
  0
LINE
  8
_0-0_BaseLayer
  6
CONTINUOUS
 62
    7
 10
95.690438271813207
 20
103.12517257034102
 11
99.690438271813207
 21
103.12517257034102
  0
LINE
  8
_0-0_BaseLayer
  6
CONTINUOUS
 62
    7
 10
99.690438271813207
 20
103.12517257034102
 11
99.690438271813207
 21
107.12517257034102
  0
LINE
  8
_0-0_BaseLayer
  6
CONTINUOUS
 62
    7
 10
99.690438271813207
 20
107.12517257034102
 11
95.690438271813207
 21
107.12517257034102
  0
LINE
  8
_0-0_BaseLayer
  6
CONTINUOUS
 62
    7
 10
95.690438271813207
 20
107.12517257034102
 11
95.690438271813207
 21
103.12517257034102
  0
LINE
  8
_0-0_BaseLayer
  6
CONTINUOUS
 62
    7
 10
219.77565679615657
 20
74.953691285175893
 11
222.27565679615657
 21
74.953691285175893
  0
LINE
  8
_0-0_BaseLayer
  6
CONTINUOUS
 62
    7
 10
222.27565679615657
 20
74.953691285175893
 11
222.27565679615657
 21
88.953691285175893
  0
LINE
  8
_0-0_BaseLayer
  6
CONTINUOUS
 62
    7
 10
222.27565679615657
 20
88.953691285175893
 11
219.77565679615657
 21
88.953691285175893
  0
LINE
  8
_0-0_BaseLayer
  6
CONTINUOUS
 62
    7
 10
219.77565679615657
 20
88.953691285175893
 11
219.77565679615657
 21
74.953691285175893
  0
LINE
  8
_0-0_BaseLayer
  6
CONTINUOUS
 62
    7
 10
219.77565679615657
 20
75.953691285175893
 11
222.27565679615657
 21
75.953691285175893
  0
LINE
  8
_0-0_BaseLayer
  6
CONTINUOUS
 62
    7
 10
222.27565679615657
 20
75.953691285175893
 11
222.27565679615657
 21
87.953691285175893
  0
LINE
  8
_0-0_BaseLayer
  6
CONTINUOUS
 62
    7
 10
222.27565679615657
 20
87.953691285175893
 11
219.77565679615657
 21
87.953691285175893
  0
LINE
  8
_0-0_BaseLayer
  6
CONTINUOUS
 62
    7
 10
219.77565679615657
 20
87.953691285175893
 11
219.77565679615657
 21
75.953691285175893
  0
INSERT
  2
-011-_D11
  8
_0-9_寸法線層１
 10
-15.231910229651504
 20
-20.558010042812043
 41
1
 42
1
 50
0
  0
INSERT
  2
-012-_D12
  8
_0-9_寸法線層１
 10
267.28735812414453
 20
-185.55387574063218
 41
1
 42
1
 50
90
  0
LINE
  8
_0-1_作画層１
  6
CONTINUOUS
 62
    7
 10
144.77565679615657
 20
-6.5463087148240788
 11
184.77565679615657
 21
-6.5463087148240788
  0
LINE
  8
_0-1_作画層１
  6
CONTINUOUS
 62
    7
 10
184.77565679615657
 20
-2.5463087148240504
 11
184.77565679615657
 21
-6.5463087148240504
  0
LINE
  8
_0-1_作画層１
  6
CONTINUOUS
 62
    7
 10
157.46315679615662
 20
-2.5463087148241073
 11
158.02565679615677
 21
9.4536912851758927
  0
LINE
  8
_0-1_作画層１
  6
CONTINUOUS
 62
    7
 10
172.08815679615651
 20
-2.5463087148239936
 11
171.52565679615637
 21
9.4536912851759496
  0
LINE
  8
_0-1_作画層１
  6
CONTINUOUS
 62
    7
 10
158.02565679615677
 20
9.4536912851759212
 11
171.52565679615637
 21
9.4536912851759212
  0
LINE
  8
_0-1_作画層１
  6
CONTINUOUS
 62
    7
 10
144.77565679615657
 20
-2.5463087148240788
 11
184.77565679615657
 21
-2.5463087148240788
  0
LINE
  8
_0-1_作画層１
  6
CONTINUOUS
 62
    7
 10
144.77565679615657
 20
2.9536912851758927
 11
144.77565679615657
 21
-6.5463087148241073
  0
LINE
  8
_0-1_作画層１
  6
CONTINUOUS
 62
    7
 10
147.27565679615657
 20
11.453691285175893
 11
144.77565679615657
 21
2.9536912851758927
  0
LINE
  8
_0-1_作画層１
  6
CONTINUOUS
 62
    7
 10
158.02565679615677
 20
10.453691285175921
 11
171.52565679615637
 21
10.453691285175921
  0
LINE
  8
_0-1_作画層１
  6
CONTINUOUS
 62
    7
 10
147.27565679615657
 20
11.453691285175893
 11
158.02565679615677
 21
10.453691285175893
  0
LINE
  8
_0-1_作画層１
  6
CONTINUOUS
 62
    7
 10
184.77565679615657
 20
2.9536912851758927
 11
184.77565679615657
 21
-6.5463087148241073
  0
LINE
  8
_0-1_作画層１
  6
CONTINUOUS
 62
    7
 10
182.27565679615657
 20
11.453691285175893
 11
184.77565679615657
 21
2.9536912851758927
  0
LINE
  8
_0-1_作画層１
  6
CONTINUOUS
 62
    7
 10
182.27565679615657
 20
11.453691285175893
 11
171.5256567961564
 21
10.453691285175893
  0
LINE
  8
_0-1_作画層１
  6
CENTER
 62
    7
 10
164.77565679615657
 20
-14.046308714824107
 11
164.77565679615657
 21
15.953691285175893
  0
CIRCLE
  8
_0-0_BaseLayer
  6
CONTINUOUS
 62
    7
 10
99.775656796156568
 20
-4.0463087148241073
 40
20
  0
CIRCLE
  8
_0-0_BaseLayer
  6
CONTINUOUS
 62
    7
 10
99.775656796156568
 20
-4.0463087148241073
 40
18
  0
CIRCLE
  8
_0-0_BaseLayer
  6
CONTINUOUS
 62
    7
 10
99.775656796156568
 20
-4.0463087148241073
 40
3
  0
ARC
  8
_0-0_BaseLayer
  6
CONTINUOUS
 62
    7
 10
99.775656796156568
 20
-4.0463087148241073
 40
7
 50
334.62306647484769
 51
25.376933525152289
  0
ARC
  8
_0-0_BaseLayer
  6
CONTINUOUS
 62
    7
 10
99.775656796156568
 20
-4.0463087148241073
 40
7
 50
154.62306647484772
 51
205.37693352515223
  0
LINE
  8
_0-0_BaseLayer
  6
CONTINUOUS
 62
    7
 10
94.579504373449936
 20
-1.0463087148241073
 11
93.451101475819797
 21
-1.0463087148241073
  0
LINE
  8
_0-0_BaseLayer
  6
CONTINUOUS
 62
    7
 10
93.451101475819797
 20
-7.0463087148241073
 11
94.579504373449936
 21
-7.0463087148241073
  0
LINE
  8
_0-0_BaseLayer
  6
CONTINUOUS
 62
    7
 10
104.9718092188632
 20
-7.0463087148241073
 11
106.10021211649334
 21
-7.0463087148241073
  0
LINE
  8
_0-0_BaseLayer
  6
CONTINUOUS
 62
    7
 10
106.10021211649334
 20
-1.0463087148241073
 11
104.9718092188632
 21
-1.0463087148241073
  0
ARC
  8
_0-0_BaseLayer
  6
CONTINUOUS
 62
    7
 10
99.775656796156568
 20
-4.0463087148241073
 40
6
 50
210.00000000000003
 51
330
  0
ARC
  8
_0-0_BaseLayer
  6
CONTINUOUS
 62
    7
 10
99.775656796156568
 20
-4.0463087148241073
 40
6
 50
29.999999999999996
 51
149.99999999999994
  0
LINE
  8
_0-0_BaseLayer
  6
CONTINUOUS
 62
    7
 10
105.77565679615657
 20
-5.0963087148241044
 11
105.77565679615657
 21
-2.9963087148241101
  0
LINE
  8
_0-0_BaseLayer
  6
CONTINUOUS
 62
    7
 10
93.775656796156568
 20
-2.9963087148241101
 11
93.775656796156568
 21
-5.0963087148241044
  0
LINE
  8
_0-0_BaseLayer
  6
CONTINUOUS
 62
    7
 10
105.77565679615657
 20
-2.9963087148241101
 11
102.58590589543584
 21
-2.9963087148241101
  0
LINE
  8
_0-0_BaseLayer
  6
CONTINUOUS
 62
    7
 10
96.965407696877293
 20
-2.9963087148241101
 11
93.775656796156568
 21
-2.9963087148241101
  0
LINE
  8
_0-0_BaseLayer
  6
CONTINUOUS
 62
    7
 10
93.775656796156568
 20
-5.0963087148241044
 11
96.965407696877293
 21
-5.0963087148241044
  0
LINE
  8
_0-0_BaseLayer
  6
CONTINUOUS
 62
    7
 10
102.58590589543584
 20
-5.0963087148241044
 11
105.77565679615657
 21
-5.0963087148241044
  0
LINE
  8
_0-0_BaseLayer
  6
CONTINUOUS
 62
    7
 10
92.847453565881068
 20
-3.0463087148241073
 11
81.803456040545143
 21
-3.0463087148241073
  0
LINE
  8
_0-0_BaseLayer
  6
CONTINUOUS
 62
    7
 10
81.803456040545143
 20
-5.0463087148241073
 11
92.847453565881068
 21
-5.0463087148241073
  0
LINE
  8
_0-0_BaseLayer
  6
CONTINUOUS
 62
    7
 10
117.74785755176799
 20
-3.0463087148241073
 11
106.7038600264321
 21
-3.0463087148241073
  0
LINE
  8
_0-0_BaseLayer
  6
CONTINUOUS
 62
    7
 10
106.7038600264321
 20
-5.0463087148241073
 11
117.74785755176799
 21
-5.0463087148241073
  0
LINE
  8
_0-0_BaseLayer
  6
CONTINUOUS
 62
    7
 10
170.77565679615657
 20
-6.5463087148240788
 11
170.77565679615657
 21
-9.0463087148240788
  0
LINE
  8
_0-0_BaseLayer
  6
CONTINUOUS
 62
    7
 10
170.77565679615657
 20
-9.0463087148240788
 11
158.77565679615657
 21
-9.0463087148240788
  0
LINE
  8
_0-0_BaseLayer
  6
CONTINUOUS
 62
    7
 10
158.77565679615657
 20
-9.0463087148240788
 11
158.77565679615657
 21
-6.5463087148240788
  0
LINE
  8
_0-0_BaseLayer
  6
CONTINUOUS
 62
    7
 10
157.77565679615657
 20
-6.5463087148240788
 11
171.77565679615657
 21
-6.5463087148240788
  0
LINE
  8
_0-0_BaseLayer
  6
CONTINUOUS
 62
    7
 10
171.77565679615657
 20
-6.5463087148240788
 11
171.77565679615657
 21
-9.0463087148240788
  0
LINE
  8
_0-0_BaseLayer
  6
CONTINUOUS
 62
    7
 10
171.77565679615657
 20
-9.0463087148240788
 11
157.77565679615657
 21
-9.0463087148240788
  0
LINE
  8
_0-0_BaseLayer
  6
CONTINUOUS
 62
    7
 10
157.77565679615657
 20
-9.0463087148240788
 11
157.77565679615657
 21
-6.5463087148240788
  0
TEXT
  8
_0-7_注記層１
 62
    7
 10
76.657482882826827
 20
18.138005251898988
 40
4
 41
1
 50
0
  1
Ｋ－１－１（１８０度）
  0
LINE
  8
_0-0_BaseLayer
  6
CONTINUOUS
 62
    7
 10
92.798798114004768
 20
18.052700768246055
 11
96.798798114004768
 21
18.052700768246055
  0
LINE
  8
_0-0_BaseLayer
  6
CONTINUOUS
 62
    7
 10
96.798798114004768
 20
18.052700768246055
 11
96.798798114004768
 21
22.052700768246055
  0
LINE
  8
_0-0_BaseLayer
  6
CONTINUOUS
 62
    7
 10
96.798798114004768
 20
22.052700768246055
 11
92.798798114004768
 21
22.052700768246055
  0
LINE
  8
_0-0_BaseLayer
  6
CONTINUOUS
 62
    7
 10
92.798798114004768
 20
22.052700768246055
 11
92.798798114004768
 21
18.052700768246055
  0
INSERT
  2
-012-_D12
  8
_0-9_寸法線層１
 10
267.28735812414453
 20
-222.55387574063218
 41
1
 42
1
 50
90
  0
LINE
  8
_0-0_BaseLayer
  6
CONTINUOUS
 62
    7
 10
134.06843759336959
 20
113.69746743245796
 11
138.06843759336959
 21
113.69746743245796
  0
LINE
  8
_0-0_BaseLayer
  6
CONTINUOUS
 62
    7
 10
138.06843759336959
 20
113.69746743245796
 11
138.06843759336959
 21
117.69746743245796
  0
LINE
  8
_0-0_BaseLayer
  6
CONTINUOUS
 62
    7
 10
138.06843759336959
 20
117.69746743245796
 11
134.06843759336959
 21
117.69746743245796
  0
LINE
  8
_0-0_BaseLayer
  6
CONTINUOUS
 62
    7
 10
134.06843759336959
 20
117.69746743245796
 11
134.06843759336959
 21
113.69746743245796
  0
LINE
  8
_0-0_BaseLayer
  6
CONTINUOUS
 62
    7
 10
140.06412173046959
 20
113.73631019855793
 11
144.06412173046959
 21
113.73631019855793
  0
LINE
  8
_0-0_BaseLayer
  6
CONTINUOUS
 62
    7
 10
144.06412173046959
 20
113.73631019855793
 11
144.06412173046959
 21
117.73631019855793
  0
LINE
  8
_0-0_BaseLayer
  6
CONTINUOUS
 62
    7
 10
144.06412173046959
 20
117.73631019855793
 11
140.06412173046959
 21
117.73631019855793
  0
LINE
  8
_0-0_BaseLayer
  6
CONTINUOUS
 62
    7
 10
140.06412173046959
 20
117.73631019855793
 11
140.06412173046959
 21
113.73631019855793
  0
TEXT
  8
_0-7_注記層１
 62
    7
 10
102.04108454287029
 20
113.52357142240146
 40
4
 41
1
 50
0
  1
ツマミ　Ｋ－１－３ Ｂ
  0
LINE
  8
_0-1_作画層１
  6
CONTINUOUS
 62
    7
 10
101.59209164450857
 20
113.02357142240143
 11
146.44623821233358
 21
113.02357142240143
  0
LINE
  8
_0-0_BaseLayer
  6
CONTINUOUS
 62
    7
 10
136.06843759336959
 20
117.69746743245796
 11
132.48786205177609
 21
121.27804297405146
  0
LINE
  8
_0-0_BaseLayer
  6
CONTINUOUS
 62
    7
 10
142.06412173046959
 20
117.73631019855793
 11
142.06412173046959
 21
121.27804297405146
  0
TEXT
  8
_0-7_注記層１
 62
    7
 10
124.48786205177609
 20
121.27804297405146
 40
4
 41
1
 50
0
  1
角度
  0
TEXT
  8
_0-7_注記層１
 62
    7
 10
140.06412173046959
 20
121.27804297405146
 40
4
 41
1
 50
0
  1
色（Ｂ：黒色、Ｓ：シルバー）
  0
LINE
  8
_0-0_BaseLayer
  6
CONTINUOUS
 62
    7
 10
-51.75
 20
-28.75
 11
352.25
 21
-28.75
  0
LINE
  8
_0-0_BaseLayer
  6
CONTINUOUS
 62
    7
 10
352.25
 20
-28.75
 11
352.25
 21
253.25
  0
LINE
  8
_0-0_BaseLayer
  6
CONTINUOUS
 62
    7
 10
352.25
 20
253.25
 11
-51.75
 21
253.25
  0
LINE
  8
_0-0_BaseLayer
  6
CONTINUOUS
 62
    7
 10
-51.75
 20
253.25
 11
-51.75
 21
-28.75
  0
TEXT
  8
_0-0_BaseLayer
 62
    7
 10
207.2847857640063
 20
-8.3955335862204237
 40
3
 41
1
 50
0
  1
2013.03.27 ツマミ等修正
  0
TEXT
  8
_0-7_注記層１
 62
    7
 10
257
 20
-15.5
 40
4
 41
1
 50
0
  1
平野
  0
TEXT
  8
_0-7_注記層１
 62
    7
 10
244.75
 20
219.5
 40
3.5
 41
1
 50
0
  1
SHC-1-15M-1 SHC-1-30M-1 SHC-1-1H-1
  0
TEXT
  8
_0-7_注記層１
 62
    7
 10
207.5689719104883
 20
-4.3529112193320429
 40
3
 41
1
 50
0
  1
2017.4.14 SHC-1-1H-1(1時間）最低ﾛｯﾄ有りを削除
  0
TEXT
  8
_0-0_BaseLayer
 62
    7
 10
207.83860481324095
 20
-0.5780505807950646
 40
3
 41
1
 50
0
  1
2017.5.8 型式タイプミス修正
  0
TEXT
  8
_0-7_注記層１
 62
    7
 10
302.25
 20
-26.25
 40
5
 41
1
 50
0
  1
SHC-1-001-05
  0
ENDSEC
  0
EOF
