  0
SECTION
  2
HEADER
  9
$ACADVER
  1
AC1009
  9
$INSBASE
 10
0
 20
0
 30
0
  9
$EXTMIN
 10
0
 20
0
  9
$EXTMAX
 10
420
 20
297
  9
$LIMMIN
 10
0
 20
0
  9
$LIMMAX
 10
420
 20
297
  9
$LTSCALE
 40
1
  0
ENDSEC
  0
SECTION
  2
TABLES
  0
TABLE
  2
LTYPE
 70
     9
  0
LTYPE
  2
CONTINUOUS
 70
    64
  3
実線
 72
    65
 73
     0
 40
0.0
  0
LTYPE
  2
DASHED1
 70
    64
  3
--  --  --  --  --  --  --  --  
 72
    65
 73
     2
 40
2.5
 49
1.25
 49
-1.25
  0
LTYPE
  2
DASHED2
 70
    64
  3
----    ----    ----    ----    
 72
    65
 73
     2
 40
5.0
 49
2.5
 49
-2.5
  0
LTYPE
  2
DASHED3
 70
    64
  3
------  ------  ------  ------  
 72
    65
 73
     2
 40
5.0
 49
3.75
 49
-1.25
  0
LTYPE
  2
CENTER1
 70
    64
  3
----- - ----- - ----- - ----- - 
 72
    65
 73
     4
 40
10.0
 49
6.25
 49
-1.25
 49
1.25
 49
-1.25
  0
LTYPE
  2
CENTER2
 70
    64
  3
----------  --  ----------  --  
 72
    65
 73
     4
 40
20.0
 49
12.5
 49
-2.5
 49
2.5
 49
-2.5
  0
LTYPE
  2
PHANTOM1
 70
    64
  3
--- - - --- - - --- - - --- - - 
 72
    65
 73
     6
 40
10.0
 49
3.25
 49
-1.25
 49
1.25
 49
-1.25
 49
1.25
 49
-1.25
  0
LTYPE
  2
PHANTOM2
 70
    64
  3
--------  -  -  --------  -  -  
 72
    65
 73
     6
 40
20.0
 49
10.0
 49
-2.5
 49
1.25
 49
-2.5
 49
1.25
 49
-2.5
  0
LTYPE
  2
DOT
 70
    64
  3
-   -   -   -   -   -   -   -   
 72
    65
 73
     2
 40
2.5
 49
0.625
 49
-1.875
  0
LTYPE
  2
DUMMY
 70
    64
  3
ダミー
 72
    65
 73
     0
 40
0.0
  0
LTYPE
  2
RAND1
 70
    64
  3
ランダム線1
 72
    65
 73
     4
 40
10.0
 49
1.0
 49
-2.0
 49
3.0
 49
-4.0
  0
LTYPE
  2
RAND2
 70
    64
  3
ランダム線2
 72
    65
 73
     4
 40
14.0
 49
2.0
 49
-3.0
 49
4.0
 49
-5.0
  0
LTYPE
  2
RAND3
 70
    64
  3
ランダム線3
 72
    65
 73
     4
 40
18.0
 49
3.0
 49
-4.0
 49
5.0
 49
-6.0
  0
LTYPE
  2
RAND4
 70
    64
  3
ランダム線4
 72
    65
 73
     4
 40
22.0
 49
4.0
 49
-5.0
 49
6.0
 49
-7.0
  0
LTYPE
  2
RAND5
 70
    64
  3
ランダム線5
 72
    65
 73
     4
 40
26.0
 49
5.0
 49
-6.0
 49
7.0
 49
-8.0
  0
LTYPE
  2
LONG1
 70
    64
  3
----------  --  ----------  --  
 72
    65
 73
     4
 40
40.0
 49
32.5
 49
-2.5
 49
2.5
 49
-2.5
  0
LTYPE
  2
LONG2
 70
    64
  3
--------  -  -  --------  -  -  
 72
    65
 73
     6
 40
40.0
 49
30.0
 49
-2.5
 49
1.25
 49
-2.5
 49
1.25
 49
-2.5
  0
LTYPE
  2
LONG3
 70
    64
  3
+++++++++++++++..+++++++++++++++
 72
    65
 73
     2
 40
40.0
 49
37.5
 49
-2.5
  0
LTYPE
  2
LONG4
 70
    64
  3
+++++++++++++++..+++++++++++++++
 72
    65
 73
     2
 40
80.0
 49
75.0
 49
-5.0
  0
LTYPE
  2
LONG5
 70
    64
  3
----------  --  ----------  --  
 72
    65
 73
     4
 40
60.0
 49
37.5
 49
-7.5
 49
7.5
 49
-7.5
  0
LTYPE
  2
dashed
 70
   64
  3
-------   -------------   ------
 72
   65
 73
    2
 40
7.5
 49
6
 49
-1.5
  0
LTYPE
  2
dashed_spaced
 70
   64
  3
----        --------        ----
 72
   65
 73
    2
 40
12
 49
6
 49
-6
  0
LTYPE
  2
long_dashed_dotted
 70
   64
  3
------------- --- --------------
 72
   65
 73
    4
 40
15.25
 49
12
 49
-1.5
 49
0.25
 49
-1.5
  0
LTYPE
  2
long_dashed_double-dotted
 70
   64
  3
----------- --- --- ------------
 72
   65
 73
    6
 40
17
 49
12
 49
-1.5
 49
0.25
 49
-1.5
 49
0.25
 49
-1.5
  0
LTYPE
  2
long_dashed_triplicate-dotted
 70
   64
  3
--------- --- --- --- ----------
 72
   65
 73
    8
 40
18.75
 49
12
 49
-1.5
 49
0.25
 49
-1.5
 49
0.25
 49
-1.5
 49
0.25
 49
-1.5
  0
LTYPE
  2
dotted
 70
   64
  3
   -       -       -       -    
 72
   65
 73
    2
 40
1.75
 49
0.25
 49
-1.5
  0
LTYPE
  2
chain
 70
   64
  3
-------------- -- --------------
 72
   65
 73
    4
 40
18.5
 49
12
 49
-1.5
 49
3.5
 49
-1.5
  0
LTYPE
  2
chain_double_dash
 70
   64
  3
------------ -- -- -------------
 72
   65
 73
    6
 40
23.5
 49
12
 49
-1.5
 49
3.5
 49
-1.5
 49
3.5
 49
-1.5
  0
LTYPE
  2
dashed_dotted
 70
   64
  3
-----------     -     ----------
 72
   65
 73
    4
 40
9.25
 49
6
 49
-1.5
 49
0.25
 49
-1.5
  0
LTYPE
  2
double-dashed_dotted
 70
   64
  3
------   -----------   -   -----
 72
   65
 73
    6
 40
16.75
 49
6
 49
-1.5
 49
6
 49
-1.5
 49
0.25
 49
-1.5
  0
LTYPE
  2
dashed_double-dotted
 70
   64
  3
---------    -    -    ---------
 72
   65
 73
    6
 40
11
 49
6
 49
-1.5
 49
0.25
 49
-1.5
 49
0.25
 49
-1.5
  0
LTYPE
  2
double-dashed_double-dotted
 70
   64
  3
-----   ---------   -   -   ----
 72
   65
 73
    8
 40
18.5
 49
6
 49
-1.5
 49
6
 49
-1.5
 49
0.25
 49
-1.5
 49
0.25
 49
-1.5
  0
LTYPE
  2
dashed_triplicate-dotted
 70
   64
  3
-------    -    -    -    ------
 72
   65
 73
    8
 40
12.75
 49
6
 49
-1.5
 49
0.25
 49
-1.5
 49
0.25
 49
-1.5
 49
0.25
 49
-1.5
  0
LTYPE
  2
double-dashed_triplicate-dotted
 70
   64
  3
-----  ---------  -  -  -  -----
 72
   65
 73
   10
 40
20.25
 49
6
 49
-1.5
 49
6
 49
-1.5
 49
0.25
 49
-1.5
 49
0.25
 49
-1.5
 49
0.25
 49
-1.5
  0
LTYPE
  2
undefined
 70
   64
  3
--------------------------------
 72
   65
 73
    0
 40
0
  0
LTYPE
  2
DASHED
 70
   64
  3
----        --------        ----
 72
   65
 73
    2
 40
4
 49
2
 49
-2
  0
LTYPE
  2
DOT_18
 70
   64
  3
---           -----           --
 72
   65
 73
    2
 40
3
 49
1
 49
-2
  0
LTYPE
  2
DASHDOT
 70
   64
  3
---------    ------    ---------
 72
   65
 73
    4
 40
17
 49
10
 49
-2
 49
3
 49
-2
  0
LTYPE
  2
DIVIDE
 70
   64
  3
-----------  --  --  -----------
 72
   65
 73
    6
 40
30
 49
20
 49
-2
 49
2
 49
-2
 49
2
 49
-2
  0
LTYPE
  2
CENTER
 70
   64
  3
-------------  --  -------------
 72
   65
 73
    4
 40
13
 49
10
 49
-1
 49
1
 49
-1
  0
LTYPE
  2
_
 70
   64
  3
                                
 72
   65
 73
    0
 40
0
  0
LTYPE
  2
__23
 70
   64
  3
                                
 72
   65
 73
    0
 40
0
  0
LTYPE
  2
__24
 70
   64
  3
                                
 72
   65
 73
    0
 40
0
  0
LTYPE
  2
__25
 70
   64
  3
                                
 72
   65
 73
    0
 40
0
  0
LTYPE
  2
__26
 70
   64
  3
                                
 72
   65
 73
    0
 40
0
  0
LTYPE
  2
__27
 70
   64
  3
                                
 72
   65
 73
    0
 40
0
  0
LTYPE
  2
__28
 70
   64
  3
                                
 72
   65
 73
    0
 40
0
  0
LTYPE
  2
__29
 70
   64
  3
                                
 72
   65
 73
    0
 40
0
  0
LTYPE
  2
__30
 70
   64
  3
                                
 72
   65
 73
    0
 40
0
  0
LTYPE
  2
__31
 70
   64
  3
                                
 72
   65
 73
    0
 40
0
  0
LTYPE
  2
__32
 70
   64
  3
                                
 72
   65
 73
    0
 40
0
  0
ENDTAB
  0
TABLE
  2
STYLE
  5
3
100
AcDbSymbolTable
 70
     1
  0
STYLE
  5
10
100
AcDbSymbolTableRecord
100
AcDbTextStyleTableRecord
  2
STANDARD
 70
     0
 40
0.0
 41
1.0
 50
0.0
 71
     0
 42
0.2
  3
txt
  4
bigfont.shx
  0
STYLE
  5
26
100
AcDbSymbolTableRecord
100
AcDbTextStyleTableRecord
  2
TATEGAKI
 70
    68
 40
0.0
 41
1.0
 50
0.0
 71
     0
 42
1.0
  3
txt
  4
bigfont.shx
  0
ENDTAB
  0
TABLE
  2
LAYER
 70
    4
  0
LAYER
  2
_0-1_作画層１
 70
   64
 62
    7
  6
CONTINUOUS
  0
LAYER
  2
_0-7_注記層１
 70
   64
 62
    7
  6
CONTINUOUS
  0
LAYER
  2
_0-9_寸法線層１
 70
   64
 62
    7
  6
CONTINUOUS
  0
LAYER
  2
ADD_LINE
 70
   64
 62
    7
  6
CONTINUOUS
  0
ENDTAB
  0
ENDSEC
  0
SECTION
  2
BLOCKS
  0
BLOCK
  2
-000-_D0
 70
   64
 10
0
 20
0
 30
0
  0
LINE
  8
_0-9_寸法線層１
  6
CONTINUOUS
 62
    7
 10
46
 20
255
 11
96
 21
255
  0
TEXT
  8
_0-9_寸法線層１
 62
    7
 10
69.111771432346217
 20
256
 40
3
 41
1
 50
0
  1
50
  0
LINE
  8
_0-9_寸法線層１
  6
CONTINUOUS
 62
    7
 10
46
 20
246.9992201978601
 11
46
 21
257
  0
LINE
  8
_0-9_寸法線層１
  6
CONTINUOUS
 62
    7
 10
96
 20
246.99999999629213
 11
96
 21
257
  0
ENDBLK
  0
BLOCK
  2
-001-_D1
 70
   64
 10
0
 20
0
 30
0
  0
LINE
  8
_0-9_寸法線層１
  6
CONTINUOUS
 62
    7
 10
37.5
 20
247.5
 11
37.5
 21
147.5
  0
TEXT
  8
_0-9_寸法線層１
 62
    7
 10
36.5
 20
194.86177143234622
 40
3
 41
1
 50
90
  1
100
  0
LINE
  8
_0-9_寸法線層１
  6
CONTINUOUS
 62
    7
 10
47
 20
247.5
 11
35.5
 21
247.5
  0
LINE
  8
_0-9_寸法線層１
  6
CONTINUOUS
 62
    7
 10
49.5
 20
147.5
 11
35.5
 21
147.5
  0
ENDBLK
  0
BLOCK
  2
-002-_D2
 70
   64
 10
0
 20
0
 30
0
  0
LINE
  8
_0-9_寸法線層１
  6
CONTINUOUS
 62
    7
 10
37.5
 20
147.5
 11
37.5
 21
139.5
  0
TEXT
  8
_0-9_寸法線層１
 62
    7
 10
36.5
 20
142.36177143234622
 40
3
 41
1
 50
90
  1
8
  0
LINE
  8
_0-9_寸法線層１
  6
CONTINUOUS
 62
    7
 10
47
 20
147.5
 11
35.5
 21
147.5
  0
LINE
  8
_0-9_寸法線層１
  6
CONTINUOUS
 62
    7
 10
65.600000000000009
 20
139.5
 11
35.5
 21
139.5
  0
ENDBLK
  0
BLOCK
  2
-003-_D3
 70
   64
 10
0
 20
0
 30
0
  0
LINE
  8
_0-9_寸法線層１
  6
CONTINUOUS
 62
    7
 10
277.5
 20
137.80000000000001
 11
277.5
 21
45.602016208322652
  0
TEXT
  8
_0-9_寸法線層１
 62
    7
 10
276.5
 20
89.812779536507549
 40
3
 41
1
 50
90
  1
92
  0
LINE
  8
_0-9_寸法線層１
  6
CONTINUOUS
 62
    7
 10
320.5
 20
137.80000000000001
 11
275.5
 21
137.80000000000001
  0
LINE
  8
_0-9_寸法線層１
  6
CONTINUOUS
 62
    7
 10
320.50112419258215
 20
45.602016208322659
 11
275.5
 21
45.602016208322659
  0
ENDBLK
  0
BLOCK
  2
-004-_D4
 70
   64
 10
0
 20
0
 30
0
  0
LINE
  8
_0-9_寸法線層１
  6
CONTINUOUS
 62
    7
 10
132
 20
255
 11
123.5
 21
255
  0
TEXT
  8
_0-9_寸法線層１
 62
    7
 10
125.11177143234622
 20
256
 40
3
 41
1
 50
0
  1
8.5
  0
LINE
  8
_0-9_寸法線層１
  6
CONTINUOUS
 62
    7
 10
132
 20
238
 11
132
 21
257
  0
LINE
  8
_0-9_寸法線層１
  6
CONTINUOUS
 62
    7
 10
123.5
 20
231
 11
123.5
 21
257
  0
ENDBLK
  0
BLOCK
  2
-005-_D5
 70
   64
 10
0
 20
0
 30
0
  0
LINE
  8
_0-9_寸法線層１
  6
CONTINUOUS
 62
    7
 10
132
 20
255
 11
192
 21
255
  0
TEXT
  8
_0-9_寸法線層１
 62
    7
 10
160.11177143234622
 20
256
 40
3
 41
1
 50
0
  1
60
  0
LINE
  8
_0-9_寸法線層１
  6
CONTINUOUS
 62
    7
 10
132
 20
238
 11
132
 21
257
  0
LINE
  8
_0-9_寸法線層１
  6
CONTINUOUS
 62
    7
 10
192
 20
243
 11
192
 21
257
  0
ENDBLK
  0
BLOCK
  2
-006-_D6
 70
   64
 10
0
 20
0
 30
0
  0
LINE
  8
_0-9_寸法線層１
  6
CONTINUOUS
 62
    7
 10
207.5
 20
213
 11
207.5
 21
177.5
  0
TEXT
  8
_0-9_寸法線層１
 62
    7
 10
206.5
 20
193.36177143234622
 40
3
 41
1
 50
90
  1
35
  0
LINE
  8
_0-9_寸法線層１
  6
CONTINUOUS
 62
    7
 10
190.5
 20
213
 11
209.5
 21
213
  0
LINE
  8
_0-9_寸法線層１
  6
CONTINUOUS
 62
    7
 10
190.90000000000001
 20
177.5
 11
209.5
 21
177.5
  0
ENDBLK
  0
BLOCK
  2
-007-_D7
 70
   64
 10
0
 20
0
 30
0
  0
LINE
  8
_0-9_寸法線層１
  6
CONTINUOUS
 62
    7
 10
150
 20
135
 11
192
 21
135
  0
TEXT
  8
_0-9_寸法線層１
 62
    7
 10
169.11177143234622
 20
136
 40
3
 41
1
 50
0
  1
42
  0
LINE
  8
_0-9_寸法線層１
  6
CONTINUOUS
 62
    7
 10
150
 20
149
 11
150
 21
133
  0
LINE
  8
_0-9_寸法線層１
  6
CONTINUOUS
 62
    7
 10
192
 20
152
 11
192
 21
133
  0
ENDBLK
  0
BLOCK
  2
-008-_D8
 70
   64
 10
0
 20
0
 30
0
  0
LINE
  8
_0-9_寸法線層１
  6
CONTINUOUS
 62
    7
 10
115
 20
163.5
 11
115
 21
231.5
  0
TEXT
  8
_0-9_寸法線層１
 62
    7
 10
114
 20
195.61177143234622
 40
3
 41
1
 50
90
  1
68
  0
LINE
  8
_0-9_寸法線層１
  6
CONTINUOUS
 62
    7
 10
131.5
 20
163.5
 11
113
 21
163.5
  0
LINE
  8
_0-9_寸法線層１
  6
CONTINUOUS
 62
    7
 10
131.5
 20
231.5
 11
113
 21
231.5
  0
ENDBLK
  0
BLOCK
  2
-009-_D9
 70
   64
 10
0
 20
0
 30
0
  0
LINE
  8
_0-9_寸法線層１
  6
CONTINUOUS
 62
    7
 10
115
 20
231.5
 11
115
 21
247.5
  0
TEXT
  8
_0-9_寸法線層１
 62
    7
 10
114
 20
237.61177143234622
 40
3
 41
1
 50
90
  1
16
  0
LINE
  8
_0-9_寸法線層１
  6
CONTINUOUS
 62
    7
 10
131
 20
231.5
 11
113
 21
231.5
  0
LINE
  8
_0-9_寸法線層１
  6
CONTINUOUS
 62
    7
 10
142
 20
247.5
 11
113
 21
247.5
  0
ENDBLK
  0
BLOCK
  2
-010-_D10
 70
   64
 10
0
 20
0
 30
0
  0
LINE
  8
_0-9_寸法線層１
  6
CONTINUOUS
 62
    7
 10
115
 20
147.5
 11
115
 21
163.5
  0
TEXT
  8
_0-9_寸法線層１
 62
    7
 10
114
 20
153.61177143234622
 40
3
 41
1
 50
90
  1
16
  0
LINE
  8
_0-9_寸法線層１
  6
CONTINUOUS
 62
    7
 10
151.50000002384184
 20
147.5
 11
113
 21
147.5
  0
LINE
  8
_0-9_寸法線層１
  6
CONTINUOUS
 62
    7
 10
131.5
 20
163.5
 11
113
 21
163.5
  0
ENDBLK
  0
ENDSEC
  0
SECTION
  2
ENTITIES
  0
TEXT
  8
_0-7_注記層１
 62
    7
 10
43.75
 20
264.75
 40
5
 41
1
 50
0
  1
外形寸法
  0
LINE
  8
_0-1_作画層１
  6
CONTINUOUS
 62
    7
 10
41.25
 20
264.75
 11
66.25
 21
264.75
  0
TEXT
  8
_0-7_注記層１
 62
    7
 10
271.25
 20
263
 40
3.5
 41
1
 50
0
  1
型　　 　番
  0
TEXT
  8
_0-7_注記層１
 62
    7
 10
271.25
 20
253
 40
3.5
 41
1
 50
0
  1
許容電圧変動範囲
  0
TEXT
  8
_0-7_注記層１
 62
    7
 10
271.25
 20
248
 40
3.5
 41
1
 50
0
  1
周　　波　　数
  0
TEXT
  8
_0-7_注記層１
 62
    7
 10
271.25
 20
243
 40
3.5
 41
1
 50
0
  1
停　電　補　償
  0
TEXT
  8
_0-7_注記層１
 62
    7
 10
271.25
 20
258
 40
3.5
 41
1
 50
0
  1
電  源  電  圧
  0
TEXT
  8
_0-7_注記層１
 62
    7
 10
306.25
 20
253
 40
3.5
 41
1
 50
0
  1
AC85V-AC230V
  0
LINE
  8
_0-1_作画層１
  6
CONTINUOUS
 62
    7
 10
371.25
 20
267.25
 11
268.75
 21
267.25
  0
LINE
  8
_0-1_作画層１
  6
CONTINUOUS
 62
    7
 10
371.25
 20
262.25
 11
268.75
 21
262.25
  0
LINE
  8
_0-1_作画層１
  6
CONTINUOUS
 62
    7
 10
371.25
 20
257.25
 11
268.75
 21
257.25
  0
LINE
  8
_0-1_作画層１
  6
CONTINUOUS
 62
    7
 10
371.25
 20
252.25
 11
268.75
 21
252.25
  0
LINE
  8
_0-1_作画層１
  6
CONTINUOUS
 62
    7
 10
371.25
 20
247.25
 11
268.75
 21
247.25
  0
LINE
  8
_0-1_作画層１
  6
CONTINUOUS
 62
    7
 10
371.25
 20
242.25
 11
268.75
 21
242.25
  0
TEXT
  8
_0-7_注記層１
 62
    7
 10
268.75
 20
272.25
 40
5
 41
1
 50
0
  1
規　格
  0
LINE
  8
_0-1_作画層１
  6
CONTINUOUS
 62
    7
 10
266.25
 20
272.25
 11
286.25
 21
272.25
  0
LINE
  8
_0-1_作画層１
  6
CONTINUOUS
 62
    7
 10
92.25
 20
174.87785016286645
 11
88.75
 21
174.87785016286645
  0
LINE
  8
_0-1_作画層１
  6
CONTINUOUS
 62
    7
 10
88.75
 20
183.37785016286645
 11
92.25
 21
183.37785016286645
  0
LINE
  8
_0-1_作画層１
  6
CONTINUOUS
 62
    7
 10
88.75
 20
183.37785016286645
 11
88.75
 21
174.87785016286645
  0
LINE
  8
_0-1_作画層１
  6
CONTINUOUS
 62
    7
 10
92.25
 20
183.37785016286645
 11
92.25
 21
174.87785016286645
  0
LINE
  8
_0-1_作画層１
  6
CONTINUOUS
 62
    7
 10
88.750000000000028
 20
180.37785016286645
 11
92.250000000000028
 21
180.37785016286645
  0
LINE
  8
_0-1_作画層１
  6
CONTINUOUS
 62
    7
 10
92.168005145751948
 20
177.37628951136088
 11
92.24966229747794
 21
177.45794666308686
  0
LINE
  8
_0-1_作画層１
  6
CONTINUOUS
 62
    7
 10
92.02658378951466
 20
177.37628951136088
 11
92.24966229747794
 21
177.59936801932417
  0
LINE
  8
_0-1_作画層１
  6
CONTINUOUS
 62
    7
 10
91.885162433277344
 20
177.37628951136088
 11
92.24966229747794
 21
177.74078937556146
  0
LINE
  8
_0-1_作画層１
  6
CONTINUOUS
 62
    7
 10
91.743741077040042
 20
177.37628951136088
 11
92.24966229747794
 21
177.88221073179878
  0
LINE
  8
_0-1_作画層１
  6
CONTINUOUS
 62
    7
 10
91.60231972080274
 20
177.37628951136088
 11
92.24966229747794
 21
178.02363208803609
  0
LINE
  8
_0-1_作画層１
  6
CONTINUOUS
 62
    7
 10
91.460898364565423
 20
177.37628951136088
 11
92.24966229747794
 21
178.16505344427338
  0
LINE
  8
_0-1_作画層１
  6
CONTINUOUS
 62
    7
 10
91.319477008328136
 20
177.37628951136088
 11
92.24966229747794
 21
178.30647480051067
  0
LINE
  8
_0-1_作画層１
  6
CONTINUOUS
 62
    7
 10
91.178055652090833
 20
177.37628951136088
 11
92.24966229747794
 21
178.44789615674799
  0
LINE
  8
_0-1_作画層１
  6
CONTINUOUS
 62
    7
 10
91.036634295853531
 20
177.37628951136088
 11
92.24966229747794
 21
178.5893175129853
  0
LINE
  8
_0-1_作画層１
  6
CONTINUOUS
 62
    7
 10
90.895212939616229
 20
177.37628951136088
 11
92.24966229747794
 21
178.73073886922259
  0
LINE
  8
_0-1_作画層１
  6
CONTINUOUS
 62
    7
 10
90.753791583378927
 20
177.37628951136088
 11
92.24966229747794
 21
178.87216022545988
  0
LINE
  8
_0-1_作画層１
  6
CONTINUOUS
 62
    7
 10
90.612370227141639
 20
177.37628951136088
 11
92.24966229747794
 21
179.01358158169717
  0
LINE
  8
_0-1_作画層１
  6
CONTINUOUS
 62
    7
 10
90.470948870904323
 20
177.37628951136088
 11
92.24966229747794
 21
179.15500293793451
  0
LINE
  8
_0-1_作画層１
  6
CONTINUOUS
 62
    7
 10
90.329527514667035
 20
177.37628951136088
 11
92.24966229747794
 21
179.2964242941718
  0
LINE
  8
_0-1_作画層１
  6
CONTINUOUS
 62
    7
 10
90.188106158429719
 20
177.37628951136088
 11
92.24966229747794
 21
179.43784565040909
  0
LINE
  8
_0-1_作画層１
  6
CONTINUOUS
 62
    7
 10
90.046684802192416
 20
177.37628951136088
 11
92.24966229747794
 21
179.5792670066464
  0
LINE
  8
_0-1_作画層１
  6
CONTINUOUS
 62
    7
 10
89.905263445955114
 20
177.37628951136088
 11
92.24966229747794
 21
179.72068836288372
  0
LINE
  8
_0-1_作画層１
  6
CONTINUOUS
 62
    7
 10
89.763842089717798
 20
177.37628951136088
 11
92.24966229747794
 21
179.86210971912101
  0
LINE
  8
_0-1_作画層１
  6
CONTINUOUS
 62
    7
 10
89.62242073348051
 20
177.37628951136088
 11
92.24966229747794
 21
180.0035310753583
  0
LINE
  8
_0-1_作画層１
  6
CONTINUOUS
 62
    7
 10
89.480999377243208
 20
177.37628951136088
 11
92.24966229747794
 21
180.14495243159561
  0
LINE
  8
_0-1_作画層１
  6
CONTINUOUS
 62
    7
 10
89.339578021005906
 20
177.37628951136088
 11
92.24966229747794
 21
180.28637378783293
  0
LINE
  8
_0-1_作画層１
  6
CONTINUOUS
 62
    7
 10
89.198156664768604
 20
177.37628951136088
 11
92.197038367094322
 21
180.3751712136866
  0
LINE
  8
_0-1_作画層１
  6
CONTINUOUS
 62
    7
 10
89.056735308531302
 20
177.37628951136088
 11
92.05561701085702
 21
180.3751712136866
  0
LINE
  8
_0-1_作画層１
  6
CONTINUOUS
 62
    7
 10
88.915313952293985
 20
177.37628951136088
 11
91.914195654619718
 21
180.3751712136866
  0
LINE
  8
_0-1_作画層１
  6
CONTINUOUS
 62
    7
 10
88.773892596056697
 20
177.37628951136088
 11
91.772774298382416
 21
180.3751712136866
  0
LINE
  8
_0-1_作画層１
  6
CONTINUOUS
 62
    7
 10
88.750966978097921
 20
177.49478524963939
 11
91.631352942145114
 21
180.3751712136866
  0
LINE
  8
_0-1_作画層１
  6
CONTINUOUS
 62
    7
 10
88.750966978097921
 20
177.63620660587668
 11
91.489931585907811
 21
180.3751712136866
  0
LINE
  8
_0-1_作画層１
  6
CONTINUOUS
 62
    7
 10
88.750966978097921
 20
177.777627962114
 11
91.348510229670509
 21
180.3751712136866
  0
LINE
  8
_0-1_作画層１
  6
CONTINUOUS
 62
    7
 10
88.750966978097921
 20
177.91904931835131
 11
91.207088873433207
 21
180.3751712136866
  0
LINE
  8
_0-1_作画層１
  6
CONTINUOUS
 62
    7
 10
88.750966978097921
 20
178.0604706745886
 11
91.065667517195905
 21
180.3751712136866
  0
LINE
  8
_0-1_作画層１
  6
CONTINUOUS
 62
    7
 10
88.750966978097921
 20
178.20189203082592
 11
90.924246160958603
 21
180.3751712136866
  0
LINE
  8
_0-1_作画層１
  6
CONTINUOUS
 62
    7
 10
88.750966978097921
 20
178.34331338706323
 11
90.782824804721287
 21
180.3751712136866
  0
LINE
  8
_0-1_作画層１
  6
CONTINUOUS
 62
    7
 10
88.750966978097921
 20
178.48473474330052
 11
90.641403448483999
 21
180.3751712136866
  0
LINE
  8
_0-1_作画層１
  6
CONTINUOUS
 62
    7
 10
88.750966978097921
 20
178.62615609953781
 11
90.499982092246682
 21
180.3751712136866
  0
LINE
  8
_0-1_作画層１
  6
CONTINUOUS
 62
    7
 10
88.750966978097921
 20
178.76757745577513
 11
90.358560736009395
 21
180.3751712136866
  0
LINE
  8
_0-1_作画層１
  6
CONTINUOUS
 62
    7
 10
88.750966978097921
 20
178.90899881201244
 11
90.217139379772078
 21
180.3751712136866
  0
LINE
  8
_0-1_作画層１
  6
CONTINUOUS
 62
    7
 10
88.750966978097921
 20
179.05042016824973
 11
90.07571802353479
 21
180.3751712136866
  0
LINE
  8
_0-1_作画層１
  6
CONTINUOUS
 62
    7
 10
88.750966978097921
 20
179.19184152448702
 11
89.934296667297474
 21
180.3751712136866
  0
LINE
  8
_0-1_作画層１
  6
CONTINUOUS
 62
    7
 10
88.750966978097921
 20
179.33326288072433
 11
89.792875311060186
 21
180.3751712136866
  0
LINE
  8
_0-1_作画層１
  6
CONTINUOUS
 62
    7
 10
88.750966978097921
 20
179.47468423696165
 11
89.65145395482287
 21
180.3751712136866
  0
LINE
  8
_0-1_作画層１
  6
CONTINUOUS
 62
    7
 10
88.750966978097921
 20
179.61610559319894
 11
89.510032598585568
 21
180.3751712136866
  0
LINE
  8
_0-1_作画層１
  6
CONTINUOUS
 62
    7
 10
88.750966978097921
 20
179.75752694943623
 11
89.36861124234828
 21
180.3751712136866
  0
LINE
  8
_0-1_作画層１
  6
CONTINUOUS
 62
    7
 10
88.750966978097921
 20
179.89894830567354
 11
89.227189886110978
 21
180.3751712136866
  0
LINE
  8
_0-1_作画層１
  6
CONTINUOUS
 62
    7
 10
88.750966978097921
 20
180.04036966191086
 11
89.085768529873661
 21
180.3751712136866
  0
LINE
  8
_0-1_作画層１
  6
CONTINUOUS
 62
    7
 10
88.750966978097921
 20
180.18179101814815
 11
88.944347173636359
 21
180.3751712136866
  0
LINE
  8
_0-1_作画層１
  6
CONTINUOUS
 62
    7
 10
88.750966978097921
 20
180.32321237438543
 11
88.802925817399057
 21
180.3751712136866
  0
LINE
  8
_0-1_作画層１
  6
CONTINUOUS
 62
    7
 10
62.25
 20
174.87785016286645
 11
65.75
 21
174.87785016286645
  0
LINE
  8
_0-1_作画層１
  6
CONTINUOUS
 62
    7
 10
65.75
 20
183.37785016286645
 11
62.25
 21
183.37785016286645
  0
LINE
  8
_0-1_作画層１
  6
CONTINUOUS
 62
    7
 10
65.75
 20
183.37785016286645
 11
65.75
 21
174.87785016286645
  0
LINE
  8
_0-1_作画層１
  6
CONTINUOUS
 62
    7
 10
62.25
 20
183.37785016286645
 11
62.25
 21
174.87785016286645
  0
LINE
  8
_0-1_作画層１
  6
CONTINUOUS
 62
    7
 10
65.75
 20
180.37785016286645
 11
62.25
 21
180.37785016286645
  0
LINE
  8
_0-1_作画層１
  6
CONTINUOUS
 62
    7
 10
62.33199485424808
 20
177.37628951136088
 11
62.250337702522074
 21
177.45794666308686
  0
LINE
  8
_0-1_作画層１
  6
CONTINUOUS
 62
    7
 10
62.473416210485368
 20
177.37628951136088
 11
62.250337702522074
 21
177.59936801932417
  0
LINE
  8
_0-1_作画層１
  6
CONTINUOUS
 62
    7
 10
62.614837566722656
 20
177.37628951136088
 11
62.250337702522074
 21
177.74078937556146
  0
LINE
  8
_0-1_作画層１
  6
CONTINUOUS
 62
    7
 10
62.756258922959972
 20
177.37628951136088
 11
62.250337702522074
 21
177.88221073179878
  0
LINE
  8
_0-1_作画層１
  6
CONTINUOUS
 62
    7
 10
62.897680279197289
 20
177.37628951136088
 11
62.250337702522074
 21
178.02363208803609
  0
LINE
  8
_0-1_作画層１
  6
CONTINUOUS
 62
    7
 10
63.039101635434577
 20
177.37628951136088
 11
62.250337702522074
 21
178.16505344427338
  0
LINE
  8
_0-1_作画層１
  6
CONTINUOUS
 62
    7
 10
63.180522991671864
 20
177.37628951136088
 11
62.250337702522074
 21
178.30647480051067
  0
LINE
  8
_0-1_作画層１
  6
CONTINUOUS
 62
    7
 10
63.321944347909181
 20
177.37628951136088
 11
62.250337702522074
 21
178.44789615674799
  0
LINE
  8
_0-1_作画層１
  6
CONTINUOUS
 62
    7
 10
63.463365704146497
 20
177.37628951136088
 11
62.250337702522074
 21
178.5893175129853
  0
LINE
  8
_0-1_作画層１
  6
CONTINUOUS
 62
    7
 10
63.604787060383785
 20
177.37628951136088
 11
62.250337702522074
 21
178.73073886922259
  0
LINE
  8
_0-1_作画層１
  6
CONTINUOUS
 62
    7
 10
63.746208416621073
 20
177.37628951136088
 11
62.250337702522074
 21
178.87216022545988
  0
LINE
  8
_0-1_作画層１
  6
CONTINUOUS
 62
    7
 10
63.887629772858361
 20
177.37628951136088
 11
62.250337702522074
 21
179.01358158169717
  0
LINE
  8
_0-1_作画層１
  6
CONTINUOUS
 62
    7
 10
64.029051129095706
 20
177.37628951136088
 11
62.250337702522074
 21
179.15500293793451
  0
LINE
  8
_0-1_作画層１
  6
CONTINUOUS
 62
    7
 10
64.170472485332994
 20
177.37628951136088
 11
62.250337702522074
 21
179.2964242941718
  0
LINE
  8
_0-1_作画層１
  6
CONTINUOUS
 62
    7
 10
64.311893841570281
 20
177.37628951136088
 11
62.250337702522074
 21
179.43784565040909
  0
LINE
  8
_0-1_作画層１
  6
CONTINUOUS
 62
    7
 10
64.453315197807598
 20
177.37628951136088
 11
62.250337702522074
 21
179.5792670066464
  0
LINE
  8
_0-1_作画層１
  6
CONTINUOUS
 62
    7
 10
64.594736554044914
 20
177.37628951136088
 11
62.250337702522074
 21
179.72068836288372
  0
LINE
  8
_0-1_作画層１
  6
CONTINUOUS
 62
    7
 10
64.736157910282202
 20
177.37628951136088
 11
62.250337702522074
 21
179.86210971912101
  0
LINE
  8
_0-1_作画層１
  6
CONTINUOUS
 62
    7
 10
64.87757926651949
 20
177.37628951136088
 11
62.250337702522074
 21
180.0035310753583
  0
LINE
  8
_0-1_作画層１
  6
CONTINUOUS
 62
    7
 10
65.019000622756806
 20
177.37628951136088
 11
62.250337702522074
 21
180.14495243159561
  0
LINE
  8
_0-1_作画層１
  6
CONTINUOUS
 62
    7
 10
65.160421978994123
 20
177.37628951136088
 11
62.250337702522074
 21
180.28637378783293
  0
LINE
  8
_0-1_作画層１
  6
CONTINUOUS
 62
    7
 10
65.30184333523141
 20
177.37628951136088
 11
62.302961632905692
 21
180.3751712136866
  0
LINE
  8
_0-1_作画層１
  6
CONTINUOUS
 62
    7
 10
65.443264691468698
 20
177.37628951136088
 11
62.44438298914298
 21
180.3751712136866
  0
LINE
  8
_0-1_作画層１
  6
CONTINUOUS
 62
    7
 10
65.584686047706043
 20
177.37628951136088
 11
62.585804345380296
 21
180.3751712136866
  0
LINE
  8
_0-1_作画層１
  6
CONTINUOUS
 62
    7
 10
65.726107403943331
 20
177.37628951136088
 11
62.727225701617613
 21
180.3751712136866
  0
LINE
  8
_0-1_作画層１
  6
CONTINUOUS
 62
    7
 10
65.749033021902108
 20
177.49478524963939
 11
62.868647057854901
 21
180.3751712136866
  0
LINE
  8
_0-1_作画層１
  6
CONTINUOUS
 62
    7
 10
65.749033021902108
 20
177.63620660587668
 11
63.010068414092189
 21
180.3751712136866
  0
LINE
  8
_0-1_作画層１
  6
CONTINUOUS
 62
    7
 10
65.749033021902108
 20
177.777627962114
 11
63.151489770329505
 21
180.3751712136866
  0
LINE
  8
_0-1_作画層１
  6
CONTINUOUS
 62
    7
 10
65.749033021902108
 20
177.91904931835131
 11
63.292911126566821
 21
180.3751712136866
  0
LINE
  8
_0-1_作画層１
  6
CONTINUOUS
 62
    7
 10
65.749033021902108
 20
178.0604706745886
 11
63.434332482804109
 21
180.3751712136866
  0
LINE
  8
_0-1_作画層１
  6
CONTINUOUS
 62
    7
 10
65.749033021902108
 20
178.20189203082592
 11
63.575753839041397
 21
180.3751712136866
  0
LINE
  8
_0-1_作画層１
  6
CONTINUOUS
 62
    7
 10
65.749033021902108
 20
178.34331338706323
 11
63.717175195278742
 21
180.3751712136866
  0
LINE
  8
_0-1_作画層１
  6
CONTINUOUS
 62
    7
 10
65.749033021902108
 20
178.48473474330052
 11
63.85859655151603
 21
180.3751712136866
  0
LINE
  8
_0-1_作画層１
  6
CONTINUOUS
 62
    7
 10
65.749033021902108
 20
178.62615609953781
 11
64.000017907753318
 21
180.3751712136866
  0
LINE
  8
_0-1_作画層１
  6
CONTINUOUS
 62
    7
 10
65.749033021902108
 20
178.76757745577513
 11
64.141439263990605
 21
180.3751712136866
  0
LINE
  8
_0-1_作画層１
  6
CONTINUOUS
 62
    7
 10
65.749033021902108
 20
178.90899881201244
 11
64.28286062022795
 21
180.3751712136866
  0
LINE
  8
_0-1_作画層１
  6
CONTINUOUS
 62
    7
 10
65.749033021902108
 20
179.05042016824973
 11
64.424281976465238
 21
180.3751712136866
  0
LINE
  8
_0-1_作画層１
  6
CONTINUOUS
 62
    7
 10
65.749033021902108
 20
179.19184152448702
 11
64.565703332702526
 21
180.3751712136866
  0
LINE
  8
_0-1_作画層１
  6
CONTINUOUS
 62
    7
 10
65.749033021902108
 20
179.33326288072433
 11
64.707124688939814
 21
180.3751712136866
  0
LINE
  8
_0-1_作画層１
  6
CONTINUOUS
 62
    7
 10
65.749033021902108
 20
179.47468423696165
 11
64.848546045177159
 21
180.3751712136866
  0
LINE
  8
_0-1_作画層１
  6
CONTINUOUS
 62
    7
 10
65.749033021902108
 20
179.61610559319894
 11
64.989967401414447
 21
180.3751712136866
  0
LINE
  8
_0-1_作画層１
  6
CONTINUOUS
 62
    7
 10
65.749033021902108
 20
179.75752694943623
 11
65.131388757651735
 21
180.3751712136866
  0
LINE
  8
_0-1_作画層１
  6
CONTINUOUS
 62
    7
 10
65.749033021902108
 20
179.89894830567354
 11
65.272810113889022
 21
180.3751712136866
  0
LINE
  8
_0-1_作画層１
  6
CONTINUOUS
 62
    7
 10
65.749033021902108
 20
180.04036966191086
 11
65.414231470126367
 21
180.3751712136866
  0
LINE
  8
_0-1_作画層１
  6
CONTINUOUS
 62
    7
 10
65.749033021902108
 20
180.18179101814815
 11
65.555652826363655
 21
180.3751712136866
  0
LINE
  8
_0-1_作画層１
  6
CONTINUOUS
 62
    7
 10
65.749033021902108
 20
180.32321237438543
 11
65.697074182600943
 21
180.3751712136866
  0
LINE
  8
_0-1_作画層１
  6
CONTINUOUS
 62
    7
 10
55.357495069033519
 20
191.79240631163708
 11
55.356808575951504
 21
191.80217612119361
  0
LINE
  8
_0-1_作画層１
  6
CONTINUOUS
 62
    7
 10
55.356808575951504
 20
191.80217612119361
 11
55.356758807357323
 21
191.8102828017563
  0
LINE
  8
_0-1_作画層１
  6
CONTINUOUS
 62
    7
 10
55.356758807357323
 20
191.8102828017563
 11
55.356908905895551
 21
191.82035224318565
  0
LINE
  8
_0-1_作画層１
  6
CONTINUOUS
 62
    7
 10
55.356908905895551
 20
191.82035224318565
 11
55.357262032942202
 21
191.83224562823941
  0
LINE
  8
_0-1_作画層１
  6
CONTINUOUS
 62
    7
 10
55.357262032942202
 20
191.83224562823941
 11
55.357821349873234
 21
191.84582413967536
  0
LINE
  8
_0-1_作画層１
  6
CONTINUOUS
 62
    7
 10
55.357821349873234
 20
191.84582413967536
 11
55.358590018064604
 21
191.86094896025122
  0
LINE
  8
_0-1_作画層１
  6
CONTINUOUS
 62
    7
 10
55.358590018064604
 20
191.86094896025122
 11
55.35957119889224
 21
191.87748127272494
  0
LINE
  8
_0-1_作画層１
  6
CONTINUOUS
 62
    7
 10
55.35957119889224
 20
191.87748127272494
 11
55.36076805373213
 21
191.89528225985407
  0
LINE
  8
_0-1_作画層１
  6
CONTINUOUS
 62
    7
 10
55.36076805373213
 20
191.89528225985407
 11
55.36218374396023
 21
191.91421310439665
  0
LINE
  8
_0-1_作画層１
  6
CONTINUOUS
 62
    7
 10
55.36218374396023
 20
191.91421310439665
 11
55.363821430952441
 21
191.93413498911016
  0
LINE
  8
_0-1_作画層１
  6
CONTINUOUS
 62
    7
 10
55.363821430952441
 20
191.93413498911016
 11
55.365684276084778
 21
191.95490909675263
  0
LINE
  8
_0-1_作画層１
  6
CONTINUOUS
 62
    7
 10
55.365684276084778
 20
191.95490909675263
 11
55.367775440733169
 21
191.97639661008168
  0
LINE
  8
_0-1_作画層１
  6
CONTINUOUS
 62
    7
 10
55.367775440733169
 20
191.97639661008168
 11
55.3700980862736
 21
191.99845871185516
  0
LINE
  8
_0-1_作画層１
  6
CONTINUOUS
 62
    7
 10
55.3700980862736
 20
191.99845871185516
 11
55.372655374082001
 21
192.0209565848308
  0
LINE
  8
_0-1_作画層１
  6
CONTINUOUS
 62
    7
 10
55.372655374082001
 20
192.0209565848308
 11
55.3754504655343
 21
192.04375141176638
  0
LINE
  8
_0-1_作画層１
  6
CONTINUOUS
 62
    7
 10
55.3754504655343
 20
192.04375141176638
 11
55.378486522006483
 21
192.06670437541968
  0
LINE
  8
_0-1_作画層１
  6
CONTINUOUS
 62
    7
 10
55.378486522006483
 20
192.06670437541968
 11
55.381766704874508
 21
192.08967665854851
  0
LINE
  8
_0-1_作画層１
  6
CONTINUOUS
 62
    7
 10
55.381766704874508
 20
192.08967665854851
 11
55.385294175514332
 21
192.1125294439106
  0
LINE
  8
_0-1_作画層１
  6
CONTINUOUS
 62
    7
 10
55.385294175514332
 20
192.1125294439106
 11
55.389072095301913
 21
192.13512391426377
  0
LINE
  8
_0-1_作画層１
  6
CONTINUOUS
 62
    7
 10
55.389072095301913
 20
192.13512391426377
 11
55.393103625613179
 21
192.15732125236573
  0
LINE
  8
_0-1_作画層１
  6
CONTINUOUS
 62
    7
 10
55.393103625613179
 20
192.15732125236573
 11
55.397391927824117
 21
192.17898264097431
  0
LINE
  8
_0-1_作画層１
  6
CONTINUOUS
 62
    7
 10
55.397391927824117
 20
192.17898264097431
 11
55.401940163310655
 21
192.1999692628473
  0
LINE
  8
_0-1_作画層１
  6
CONTINUOUS
 62
    7
 10
55.401940163310655
 20
192.1999692628473
 11
55.406751493448752
 21
192.22014230074242
  0
LINE
  8
_0-1_作画層１
  6
CONTINUOUS
 62
    7
 10
55.406751493448752
 20
192.22014230074242
 11
55.411829079614392
 21
192.23936293741747
  0
LINE
  8
_0-1_作画層１
  6
CONTINUOUS
 62
    7
 10
55.411829079614392
 20
192.23936293741747
 11
55.417176083183506
 21
192.25749235563023
  0
LINE
  8
_0-1_作画層１
  6
CONTINUOUS
 62
    7
 10
55.417176083183506
 20
192.25749235563023
 11
55.422795665532021
 21
192.27439173813846
  0
LINE
  8
_0-1_作画層１
  6
CONTINUOUS
 62
    7
 10
55.422795665532021
 20
192.27439173813846
 11
55.428690988035953
 21
192.28992226769995
  0
LINE
  8
_0-1_作画層１
  6
CONTINUOUS
 62
    7
 10
55.428690988035953
 20
192.28992226769995
 11
55.43486521207123
 21
192.30394512707247
  0
LINE
  8
_0-1_作画層１
  6
CONTINUOUS
 62
    7
 10
55.43486521207123
 20
192.30394512707247
 11
55.44132149901381
 21
192.31632149901381
  0
LINE
  8
_0-1_作画層１
  6
CONTINUOUS
 62
    7
 10
55.44132149901381
 20
192.31632149901381
 11
55.476170050881052
 21
192.37117799742899
  0
LINE
  8
_0-1_作画層１
  6
CONTINUOUS
 62
    7
 10
55.476170050881052
 20
192.37117799742899
 11
55.496769874387354
 21
192.39987226746018
  0
LINE
  8
_0-1_作画層１
  6
CONTINUOUS
 62
    7
 10
55.496769874387354
 20
192.39987226746018
 11
55.519321355971726
 21
192.42926877400882
  0
LINE
  8
_0-1_作画層１
  6
CONTINUOUS
 62
    7
 10
55.519321355971726
 20
192.42926877400882
 11
55.543700465406346
 21
192.45926118405123
  0
LINE
  8
_0-1_作画層１
  6
CONTINUOUS
 62
    7
 10
55.543700465406346
 20
192.45926118405123
 11
55.569783172463445
 21
192.48974316456383
  0
LINE
  8
_0-1_作画層１
  6
CONTINUOUS
 62
    7
 10
55.569783172463445
 20
192.48974316456383
 11
55.597445446915174
 21
192.52060838252268
  0
LINE
  8
_0-1_作画層１
  6
CONTINUOUS
 62
    7
 10
55.597445446915174
 20
192.52060838252268
 11
55.626563258533821
 21
192.5517505049045
  0
LINE
  8
_0-1_作画層１
  6
CONTINUOUS
 62
    7
 10
55.626563258533821
 20
192.5517505049045
 11
55.65701257709145
 21
192.58306319868527
  0
LINE
  8
_0-1_作画層１
  6
CONTINUOUS
 62
    7
 10
55.65701257709145
 20
192.58306319868527
 11
55.688669372360408
 21
192.61444013084156
  0
LINE
  8
_0-1_作画層１
  6
CONTINUOUS
 62
    7
 10
55.688669372360408
 20
192.61444013084156
 11
55.721409614112787
 21
192.64577496834937
  0
LINE
  8
_0-1_作画層１
  6
CONTINUOUS
 62
    7
 10
55.721409614112787
 20
192.64577496834937
 11
55.755109272120848
 21
192.67696137818535
  0
LINE
  8
_0-1_作画層１
  6
CONTINUOUS
 62
    7
 10
55.755109272120848
 20
192.67696137818535
 11
55.789644316156767
 21
192.70789302732567
  0
LINE
  8
_0-1_作画層１
  6
CONTINUOUS
 62
    7
 10
55.789644316156767
 20
192.70789302732567
 11
55.824890715992751
 21
192.73846358274668
  0
LINE
  8
_0-1_作画層１
  6
CONTINUOUS
 62
    7
 10
55.824890715992751
 20
192.73846358274668
 11
55.860724441400976
 21
192.76856671142465
  0
LINE
  8
_0-1_作画層１
  6
CONTINUOUS
 62
    7
 10
55.860724441400976
 20
192.76856671142465
 11
55.897021462153674
 21
192.79809608033594
  0
LINE
  8
_0-1_作画層１
  6
CONTINUOUS
 62
    7
 10
55.897021462153674
 20
192.79809608033594
 11
55.933657748023052
 21
192.82694535645686
  0
LINE
  8
_0-1_作画層１
  6
CONTINUOUS
 62
    7
 10
55.933657748023052
 20
192.82694535645686
 11
55.970509268781257
 21
192.85500820676376
  0
LINE
  8
_0-1_作画層１
  6
CONTINUOUS
 62
    7
 10
55.970509268781257
 20
192.85500820676376
 11
56.007451994200551
 21
192.8821782982329
  0
LINE
  8
_0-1_作画層１
  6
CONTINUOUS
 62
    7
 10
56.007451994200551
 20
192.8821782982329
 11
56.044361894053083
 21
192.90834929784069
  0
LINE
  8
_0-1_作画層１
  6
CONTINUOUS
 62
    7
 10
56.044361894053083
 20
192.90834929784069
 11
56.081114938111085
 21
192.93341487256333
  0
LINE
  8
_0-1_作画層１
  6
CONTINUOUS
 62
    7
 10
56.081114938111085
 20
192.93341487256333
 11
56.117587096146735
 21
192.95726868937723
  0
LINE
  8
_0-1_作画層１
  6
CONTINUOUS
 62
    7
 10
56.117587096146735
 20
192.95726868937723
 11
56.153654337932295
 21
192.97980441525874
  0
LINE
  8
_0-1_作画層１
  6
CONTINUOUS
 62
    7
 10
56.153654337932295
 20
192.97980441525874
 11
56.189192633239884
 21
193.00091571718406
  0
LINE
  8
_0-1_作画層１
  6
CONTINUOUS
 62
    7
 10
56.189192633239884
 20
193.00091571718406
 11
56.224077951841736
 21
193.0204962621296
  0
LINE
  8
_0-1_作画層１
  6
CONTINUOUS
 62
    7
 10
56.224077951841736
 20
193.0204962621296
 11
56.258186263510026
 21
193.03843971707164
  0
LINE
  8
_0-1_作画層１
  6
CONTINUOUS
 62
    7
 10
56.258186263510026
 20
193.03843971707164
 11
56.291393538017019
 21
193.05463974898652
  0
LINE
  8
_0-1_作画層１
  6
CONTINUOUS
 62
    7
 10
56.291393538017019
 20
193.05463974898652
 11
56.32357574513486
 21
193.06899002485054
  0
LINE
  8
_0-1_作画層１
  6
CONTINUOUS
 62
    7
 10
56.32357574513486
 20
193.06899002485054
 11
56.354608854635757
 21
193.08138421164006
  0
LINE
  8
_0-1_作画層１
  6
CONTINUOUS
 62
    7
 10
56.354608854635757
 20
193.08138421164006
 11
56.384368836291912
 21
193.09171597633136
  0
LINE
  8
_0-1_作画層１
  6
CONTINUOUS
 62
    7
 10
56.384368836291912
 20
193.09171597633136
 11
56.444654001056932
 21
193.10729270816017
  0
LINE
  8
_0-1_作画層１
  6
CONTINUOUS
 62
    7
 10
56.444654001056932
 20
193.10729270816017
 11
56.477750019437877
 21
193.11342825211003
  0
LINE
  8
_0-1_作画層１
  6
CONTINUOUS
 62
    7
 10
56.477750019437877
 20
193.11342825211003
 11
56.512618286321725
 21
193.11851317144942
  0
LINE
  8
_0-1_作画層１
  6
CONTINUOUS
 62
    7
 10
56.512618286321725
 20
193.11851317144942
 11
56.549111270086428
 21
193.12258590870303
  0
LINE
  8
_0-1_作画層１
  6
CONTINUOUS
 62
    7
 10
56.549111270086428
 20
193.12258590870303
 11
56.587081439109937
 21
193.12568490639526
  0
LINE
  8
_0-1_作画層１
  6
CONTINUOUS
 62
    7
 10
56.587081439109937
 20
193.12568490639526
 11
56.626381261770206
 21
193.12784860705059
  0
LINE
  8
_0-1_作画層１
  6
CONTINUOUS
 62
    7
 10
56.626381261770206
 20
193.12784860705059
 11
56.666863206445271
 21
193.12911545319375
  0
LINE
  8
_0-1_作画層１
  6
CONTINUOUS
 62
    7
 10
56.666863206445271
 20
193.12911545319375
 11
56.708379741512971
 21
193.12952388734897
  0
LINE
  8
_0-1_作画層１
  6
CONTINUOUS
 62
    7
 10
56.708379741512971
 20
193.12952388734897
 11
56.750783335351372
 21
193.12911235204109
  0
LINE
  8
_0-1_作画層１
  6
CONTINUOUS
 62
    7
 10
56.750783335351372
 20
193.12911235204109
 11
56.793926456338369
 21
193.12791928979425
  0
LINE
  8
_0-1_作画層１
  6
CONTINUOUS
 62
    7
 10
56.793926456338369
 20
193.12791928979425
 11
56.837661572851943
 21
193.12598314313334
  0
LINE
  8
_0-1_作画層１
  6
CONTINUOUS
 62
    7
 10
56.837661572851943
 20
193.12598314313334
 11
56.881841153270045
 21
193.1233423545826
  0
LINE
  8
_0-1_作画層１
  6
CONTINUOUS
 62
    7
 10
56.881841153270045
 20
193.1233423545826
 11
56.926317665970686
 21
193.12003536666671
  0
LINE
  8
_0-1_作画層１
  6
CONTINUOUS
 62
    7
 10
56.926317665970686
 20
193.12003536666671
 11
56.97094357933176
 21
193.11610062191014
  0
LINE
  8
_0-1_作画層１
  6
CONTINUOUS
 62
    7
 10
56.97094357933176
 20
193.11610062191014
 11
57.015571361731247
 21
193.1115765628374
  0
LINE
  8
_0-1_作画層１
  6
CONTINUOUS
 62
    7
 10
57.015571361731247
 20
193.1115765628374
 11
57.060053481547129
 21
193.10650163197295
  0
LINE
  8
_0-1_作画層１
  6
CONTINUOUS
 62
    7
 10
57.060053481547129
 20
193.10650163197295
 11
57.104242407157358
 21
193.10091427184142
  0
LINE
  8
_0-1_作画層１
  6
CONTINUOUS
 62
    7
 10
57.104242407157358
 20
193.10091427184142
 11
57.147990606939857
 21
193.09485292496728
  0
LINE
  8
_0-1_作画層１
  6
CONTINUOUS
 62
    7
 10
57.147990606939857
 20
193.09485292496728
 11
57.191150549272635
 21
193.08835603387504
  0
LINE
  8
_0-1_作画層１
  6
CONTINUOUS
 62
    7
 10
57.191150549272635
 20
193.08835603387504
 11
57.233574702533616
 21
193.0814620410892
  0
LINE
  8
_0-1_作画層１
  6
CONTINUOUS
 62
    7
 10
57.233574702533616
 20
193.0814620410892
 11
57.275115535100781
 21
193.0742093891343
  0
LINE
  8
_0-1_作画層１
  6
CONTINUOUS
 62
    7
 10
57.275115535100781
 20
193.0742093891343
 11
57.31562551535211
 21
193.06663652053487
  0
LINE
  8
_0-1_作画層１
  6
CONTINUOUS
 62
    7
 10
57.31562551535211
 20
193.06663652053487
 11
57.354957111665499
 21
193.05878187781542
  0
LINE
  8
_0-1_作画層１
  6
CONTINUOUS
 62
    7
 10
57.354957111665499
 20
193.05878187781542
 11
57.392962792418984
 21
193.05068390350044
  0
LINE
  8
_0-1_作画層１
  6
CONTINUOUS
 62
    7
 10
57.392962792418984
 20
193.05068390350044
 11
57.429495025990434
 21
193.04238104011449
  0
LINE
  8
_0-1_作画層１
  6
CONTINUOUS
 62
    7
 10
57.429495025990434
 20
193.04238104011449
 11
57.464406280757913
 21
193.03391173018204
  0
LINE
  8
_0-1_作画層１
  6
CONTINUOUS
 62
    7
 10
57.464406280757913
 20
193.03391173018204
 11
57.497549025099318
 21
193.02531441622767
  0
LINE
  8
_0-1_作画層１
  6
CONTINUOUS
 62
    7
 10
57.497549025099318
 20
193.02531441622767
 11
57.528775727392599
 21
193.01662754077583
  0
LINE
  8
_0-1_作画層１
  6
CONTINUOUS
 62
    7
 10
57.528775727392599
 20
193.01662754077583
 11
57.557938856015767
 21
193.00788954635109
  0
LINE
  8
_0-1_作画層１
  6
CONTINUOUS
 62
    7
 10
57.557938856015767
 20
193.00788954635109
 11
57.650325334600495
 21
192.9761372428427
  0
LINE
  8
_0-1_作画層１
  6
CONTINUOUS
 62
    7
 10
57.650325334600495
 20
192.9761372428427
 11
57.697820885930867
 21
192.95770837259514
  0
LINE
  8
_0-1_作画層１
  6
CONTINUOUS
 62
    7
 10
57.697820885930867
 20
192.95770837259514
 11
57.746143788438275
 21
192.93765777530467
  0
LINE
  8
_0-1_作画層１
  6
CONTINUOUS
 62
    7
 10
57.746143788438275
 20
192.93765777530467
 11
57.795263399486572
 21
192.91604551493594
  0
LINE
  8
_0-1_作画層１
  6
CONTINUOUS
 62
    7
 10
57.795263399486572
 20
192.91604551493594
 11
57.845149076439554
 21
192.89293165545345
  0
LINE
  8
_0-1_作画層１
  6
CONTINUOUS
 62
    7
 10
57.845149076439554
 20
192.89293165545345
 11
57.895770176661017
 21
192.86837626082169
  0
LINE
  8
_0-1_作画層１
  6
CONTINUOUS
 62
    7
 10
57.895770176661017
 20
192.86837626082169
 11
57.947096057514841
 21
192.84243939500541
  0
LINE
  8
_0-1_作画層１
  6
CONTINUOUS
 62
    7
 10
57.947096057514841
 20
192.84243939500541
 11
57.999096076364793
 21
192.81518112196889
  0
LINE
  8
_0-1_作画層１
  6
CONTINUOUS
 62
    7
 10
57.999096076364793
 20
192.81518112196889
 11
58.051739590574698
 21
192.78666150567693
  0
LINE
  8
_0-1_作画層１
  6
CONTINUOUS
 62
    7
 10
58.051739590574698
 20
192.78666150567693
 11
58.104995957508294
 21
192.75694061009386
  0
LINE
  8
_0-1_作画層１
  6
CONTINUOUS
 62
    7
 10
58.104995957508294
 20
192.75694061009386
 11
58.158834534529518
 21
192.72607849918441
  0
LINE
  8
_0-1_作画層１
  6
CONTINUOUS
 62
    7
 10
58.158834534529518
 20
192.72607849918441
 11
58.21322467900211
 21
192.69413523691307
  0
LINE
  8
_0-1_作画層１
  6
CONTINUOUS
 62
    7
 10
58.21322467900211
 20
192.69413523691307
 11
58.268135748289865
 21
192.66117088724437
  0
LINE
  8
_0-1_作画層１
  6
CONTINUOUS
 62
    7
 10
58.268135748289865
 20
192.66117088724437
 11
58.323537099756663
 21
192.62724551414283
  0
LINE
  8
_0-1_作画層１
  6
CONTINUOUS
 62
    7
 10
58.323537099756663
 20
192.62724551414283
 11
58.379398090766244
 21
192.59241918157306
  0
LINE
  8
_0-1_作画層１
  6
CONTINUOUS
 62
    7
 10
58.379398090766244
 20
192.59241918157306
 11
58.435688078682489
 21
192.55675195349957
  0
LINE
  8
_0-1_作画層１
  6
CONTINUOUS
 62
    7
 10
58.435688078682489
 20
192.55675195349957
 11
58.492376420869164
 21
192.52030389388696
  0
LINE
  8
_0-1_作画層１
  6
CONTINUOUS
 62
    7
 10
58.492376420869164
 20
192.52030389388696
 11
58.549432474690065
 21
192.48313506669976
  0
LINE
  8
_0-1_作画層１
  6
CONTINUOUS
 62
    7
 10
58.549432474690065
 20
192.48313506669976
 11
58.606825597509044
 21
192.44530553590249
  0
LINE
  8
_0-1_作画層１
  6
CONTINUOUS
 62
    7
 10
58.606825597509044
 20
192.44530553590249
 11
58.664525146689925
 21
192.40687536545968
  0
LINE
  8
_0-1_作画層１
  6
CONTINUOUS
 62
    7
 10
58.664525146689925
 20
192.40687536545968
 11
58.722500479596448
 21
192.36790461933595
  0
LINE
  8
_0-1_作画層１
  6
CONTINUOUS
 62
    7
 10
58.722500479596448
 20
192.36790461933595
 11
58.780720953592521
 21
192.32845336149586
  0
LINE
  8
_0-1_作画層１
  6
CONTINUOUS
 62
    7
 10
58.780720953592521
 20
192.32845336149586
 11
58.839155926041883
 21
192.2885816559039
  0
LINE
  8
_0-1_作画層１
  6
CONTINUOUS
 62
    7
 10
58.839155926041883
 20
192.2885816559039
 11
58.897774754308386
 21
192.24834956652461
  0
LINE
  8
_0-1_作画層１
  6
CONTINUOUS
 62
    7
 10
58.897774754308386
 20
192.24834956652461
 11
58.956546795755798
 21
192.20781715732255
  0
LINE
  8
_0-1_作画層１
  6
CONTINUOUS
 62
    7
 10
58.956546795755798
 20
192.20781715732255
 11
59.015441407747971
 21
192.16704449226233
  0
LINE
  8
_0-1_作画層１
  6
CONTINUOUS
 62
    7
 10
59.015441407747971
 20
192.16704449226233
 11
59.074427947648729
 21
192.12609163530846
  0
LINE
  8
_0-1_作画層１
  6
CONTINUOUS
 62
    7
 10
59.074427947648729
 20
192.12609163530846
 11
59.133475772821839
 21
192.08501865042544
  0
LINE
  8
_0-1_作画層１
  6
CONTINUOUS
 62
    7
 10
59.133475772821839
 20
192.08501865042544
 11
59.192554240631154
 21
192.04388560157793
  0
LINE
  8
_0-1_作画層１
  6
CONTINUOUS
 62
    7
 10
60.659516765286014
 20
189.73865877712032
 11
60.670277387927939
 21
189.72922057751157
  0
LINE
  8
_0-1_作画層１
  6
CONTINUOUS
 62
    7
 10
60.670277387927939
 20
189.72922057751157
 11
60.679304584842498
 21
189.72167442293156
  0
LINE
  8
_0-1_作画層１
  6
CONTINUOUS
 62
    7
 10
60.679304584842498
 20
189.72167442293156
 11
60.690567681118949
 21
189.71241009178726
  0
LINE
  8
_0-1_作画層１
  6
CONTINUOUS
 62
    7
 10
60.690567681118949
 20
189.71241009178726
 11
60.703920158481878
 21
189.70155247904341
  0
LINE
  8
_0-1_作画層１
  6
CONTINUOUS
 62
    7
 10
60.703920158481878
 20
189.70155247904341
 11
60.719215498655871
 21
189.68922647966465
  0
LINE
  8
_0-1_作画層１
  6
CONTINUOUS
 62
    7
 10
60.719215498655871
 20
189.68922647966465
 11
60.736307183365568
 21
189.67555698861557
  0
LINE
  8
_0-1_作画層１
  6
CONTINUOUS
 62
    7
 10
60.736307183365568
 20
189.67555698861557
 11
60.755048694335585
 21
189.66066890086105
  0
LINE
  8
_0-1_作画層１
  6
CONTINUOUS
 62
    7
 10
60.755048694335585
 20
189.66066890086105
 11
60.775293513290478
 21
189.6446871113655
  0
LINE
  8
_0-1_作画層１
  6
CONTINUOUS
 62
    7
 10
60.775293513290478
 20
189.6446871113655
 11
60.796895121954947
 21
189.62773651509383
  0
LINE
  8
_0-1_作画層１
  6
CONTINUOUS
 62
    7
 10
60.796895121954947
 20
189.62773651509383
 11
60.819707002053462
 21
189.60994200701043
  0
LINE
  8
_0-1_作画層１
  6
CONTINUOUS
 62
    7
 10
60.819707002053462
 20
189.60994200701043
 11
60.843582635310781
 21
189.5914284820802
  0
LINE
  8
_0-1_作画層１
  6
CONTINUOUS
 62
    7
 10
60.843582635310781
 20
189.5914284820802
 11
60.868375503451404
 21
189.57232083526773
  0
LINE
  8
_0-1_作画層１
  6
CONTINUOUS
 62
    7
 10
60.868375503451404
 20
189.57232083526773
 11
60.8939390882
 21
189.5527439615376
  0
LINE
  8
_0-1_作画層１
  6
CONTINUOUS
 62
    7
 10
60.8939390882
 20
189.5527439615376
 11
60.920126871281127
 21
189.53282275585457
  0
LINE
  8
_0-1_作画層１
  6
CONTINUOUS
 62
    7
 10
60.920126871281127
 20
189.53282275585457
 11
60.946792334419456
 21
189.5126821131833
  0
LINE
  8
_0-1_作画層１
  6
CONTINUOUS
 62
    7
 10
60.946792334419456
 20
189.5126821131833
 11
60.973788959339515
 21
189.49244692848836
  0
LINE
  8
_0-1_作画層１
  6
CONTINUOUS
 62
    7
 10
60.973788959339515
 20
189.49244692848836
 11
61.000970227765947
 21
189.47224209673453
  0
LINE
  8
_0-1_作画層１
  6
CONTINUOUS
 62
    7
 10
61.000970227765947
 20
189.47224209673453
 11
61.028189621423394
 21
189.45219251288643
  0
LINE
  8
_0-1_作画層１
  6
CONTINUOUS
 62
    7
 10
61.028189621423394
 20
189.45219251288643
 11
61.055300622036441
 21
189.43242307190872
  0
LINE
  8
_0-1_作画層１
  6
CONTINUOUS
 62
    7
 10
61.055300622036441
 20
189.43242307190872
 11
61.082156711329674
 21
189.41305866876601
  0
LINE
  8
_0-1_作画層１
  6
CONTINUOUS
 62
    7
 10
61.082156711329674
 20
189.41305866876601
 11
61.108611371027706
 21
189.39422419842305
  0
LINE
  8
_0-1_作画層１
  6
CONTINUOUS
 62
    7
 10
61.108611371027706
 20
189.39422419842305
 11
61.13451808285518
 21
189.37604455584449
  0
LINE
  8
_0-1_作画層１
  6
CONTINUOUS
 62
    7
 10
61.13451808285518
 20
189.37604455584449
 11
61.159730328536654
 21
189.35864463599495
  0
LINE
  8
_0-1_作画層１
  6
CONTINUOUS
 62
    7
 10
61.159730328536654
 20
189.35864463599495
 11
61.184101589796768
 21
189.34214933383913
  0
LINE
  8
_0-1_作画層１
  6
CONTINUOUS
 62
    7
 10
61.184101589796768
 20
189.34214933383913
 11
61.207485348360137
 21
189.32668354434165
  0
LINE
  8
_0-1_作画層１
  6
CONTINUOUS
 62
    7
 10
61.207485348360137
 20
189.32668354434165
 11
61.229735085951319
 21
189.31237216246723
  0
LINE
  8
_0-1_作画層１
  6
CONTINUOUS
 62
    7
 10
61.229735085951319
 20
189.31237216246723
 11
61.250704284294955
 21
189.29934008318051
  0
LINE
  8
_0-1_作画層１
  6
CONTINUOUS
 62
    7
 10
61.250704284294955
 20
189.29934008318051
 11
61.270246425115687
 21
189.28771220144611
  0
LINE
  8
_0-1_作画層１
  6
CONTINUOUS
 62
    7
 10
61.270246425115687
 20
189.28771220144611
 11
61.288214990138073
 21
189.27761341222879
  0
LINE
  8
_0-1_作画層１
  6
CONTINUOUS
 62
    7
 10
61.288214990138073
 20
189.27761341222879
 11
61.335777938876106
 21
189.25287603705371
  0
LINE
  8
_0-1_作画層１
  6
CONTINUOUS
 62
    7
 10
61.335777938876106
 20
189.25287603705371
 11
61.361838965011714
 21
189.24003618825546
  0
LINE
  8
_0-1_作画層１
  6
CONTINUOUS
 62
    7
 10
61.361838965011714
 20
189.24003618825546
 11
61.389275540159787
 21
189.22693398628292
  0
LINE
  8
_0-1_作画層１
  6
CONTINUOUS
 62
    7
 10
61.389275540159787
 20
189.22693398628292
 11
61.417979550196435
 21
189.21360824686079
  0
LINE
  8
_0-1_作画層１
  6
CONTINUOUS
 62
    7
 10
61.417979550196435
 20
189.21360824686079
 11
61.44784288099774
 21
189.20009778571369
  0
LINE
  8
_0-1_作画層１
  6
CONTINUOUS
 62
    7
 10
61.44784288099774
 20
189.20009778571369
 11
61.478757418439727
 21
189.18644141856626
  0
LINE
  8
_0-1_作画層１
  6
CONTINUOUS
 62
    7
 10
61.478757418439727
 20
189.18644141856626
 11
61.510615048398535
 21
189.17267796114328
  0
LINE
  8
_0-1_作画層１
  6
CONTINUOUS
 62
    7
 10
61.510615048398535
 20
189.17267796114328
 11
61.543307656750187
 21
189.15884622916926
  0
LINE
  8
_0-1_作画層１
  6
CONTINUOUS
 62
    7
 10
61.543307656750187
 20
189.15884622916926
 11
61.576727129370795
 21
189.14498503836901
  0
LINE
  8
_0-1_作画層１
  6
CONTINUOUS
 62
    7
 10
61.576727129370795
 20
189.14498503836901
 11
61.610765352136411
 21
189.13113320446703
  0
LINE
  8
_0-1_作画層１
  6
CONTINUOUS
 62
    7
 10
61.610765352136411
 20
189.13113320446703
 11
61.645314210923118
 21
189.11732954318813
  0
LINE
  8
_0-1_作画層１
  6
CONTINUOUS
 62
    7
 10
61.645314210923118
 20
189.11732954318813
 11
61.680265591606968
 21
189.10361287025682
  0
LINE
  8
_0-1_作画層１
  6
CONTINUOUS
 62
    7
 10
61.680265591606968
 20
189.10361287025682
 11
61.7155113800641
 21
189.09002200139793
  0
LINE
  8
_0-1_作画層１
  6
CONTINUOUS
 62
    7
 10
61.7155113800641
 20
189.09002200139793
 11
61.75094346217054
 21
189.07659575233595
  0
LINE
  8
_0-1_作画層１
  6
CONTINUOUS
 62
    7
 10
61.75094346217054
 20
189.07659575233595
 11
61.786453723802367
 21
189.0633729387956
  0
LINE
  8
_0-1_作画層１
  6
CONTINUOUS
 62
    7
 10
61.786453723802367
 20
189.0633729387956
 11
61.821934050835637
 21
189.05039237650158
  0
LINE
  8
_0-1_作画層１
  6
CONTINUOUS
 62
    7
 10
61.821934050835637
 20
189.05039237650158
 11
61.857276329146487
 21
189.03769288117851
  0
LINE
  8
_0-1_作画層１
  6
CONTINUOUS
 62
    7
 10
61.857276329146487
 20
189.03769288117851
 11
61.892372444610942
 21
189.02531326855109
  0
LINE
  8
_0-1_作画層１
  6
CONTINUOUS
 62
    7
 10
61.892372444610942
 20
189.02531326855109
 11
61.927114283105084
 21
189.01329235434395
  0
LINE
  8
_0-1_作画層１
  6
CONTINUOUS
 62
    7
 10
61.927114283105084
 20
189.01329235434395
 11
61.961393730504994
 21
189.00166895428168
  0
LINE
  8
_0-1_作画層１
  6
CONTINUOUS
 62
    7
 10
61.961393730504994
 20
189.00166895428168
 11
61.995102672686755
 21
188.99048188408904
  0
LINE
  8
_0-1_作画層１
  6
CONTINUOUS
 62
    7
 10
61.995102672686755
 20
188.99048188408904
 11
62.028132995526448
 21
188.97976995949071
  0
LINE
  8
_0-1_作画層１
  6
CONTINUOUS
 62
    7
 10
62.028132995526448
 20
188.97976995949071
 11
62.060376584900098
 21
188.96957199621124
  0
LINE
  8
_0-1_作画層１
  6
CONTINUOUS
 62
    7
 10
62.060376584900098
 20
188.96957199621124
 11
62.091725326683843
 21
188.95992680997537
  0
LINE
  8
_0-1_作画層１
  6
CONTINUOUS
 62
    7
 10
62.091725326683843
 20
188.95992680997537
 11
62.122071106753708
 21
188.95087321650772
  0
LINE
  8
_0-1_作画層１
  6
CONTINUOUS
 62
    7
 10
62.122071106753708
 20
188.95087321650772
 11
62.151305810985832
 21
188.94245003153293
  0
LINE
  8
_0-1_作画層１
  6
CONTINUOUS
 62
    7
 10
62.151305810985832
 20
188.94245003153293
 11
62.179321325256211
 21
188.93469607077574
  0
LINE
  8
_0-1_作画層１
  6
CONTINUOUS
 62
    7
 10
62.179321325256211
 20
188.93469607077574
 11
62.206009535440955
 21
188.92765014996073
  0
LINE
  8
_0-1_作画層１
  6
CONTINUOUS
 62
    7
 10
62.206009535440955
 20
188.92765014996073
 11
62.231262327416175
 21
188.92135108481261
  0
LINE
  8
_0-1_作画層１
  6
CONTINUOUS
 62
    7
 10
62.231262327416175
 20
188.92135108481261
 11
62.299150296436494
 21
188.90555453795201
  0
LINE
  8
_0-1_作画層１
  6
CONTINUOUS
 62
    7
 10
62.299150296436494
 20
188.90555453795201
 11
62.336120381426127
 21
188.89737915794075
  0
LINE
  8
_0-1_作画層１
  6
CONTINUOUS
 62
    7
 10
62.336120381426127
 20
188.89737915794075
 11
62.37490810729804
 21
188.88907824366316
  0
LINE
  8
_0-1_作画層１
  6
CONTINUOUS
 62
    7
 10
62.37490810729804
 20
188.88907824366316
 11
62.415363654474248
 21
188.88069619771005
  0
LINE
  8
_0-1_作画層１
  6
CONTINUOUS
 62
    7
 10
62.415363654474248
 20
188.88069619771005
 11
62.457337203376767
 21
188.8722774226722
  0
LINE
  8
_0-1_作画層１
  6
CONTINUOUS
 62
    7
 10
62.457337203376767
 20
188.8722774226722
 11
62.500678934427498
 21
188.86386632114031
  0
LINE
  8
_0-1_作画層１
  6
CONTINUOUS
 62
    7
 10
62.500678934427498
 20
188.86386632114031
 11
62.54523902804857
 21
188.85550729570531
  0
LINE
  8
_0-1_作画層１
  6
CONTINUOUS
 62
    7
 10
62.54523902804857
 20
188.85550729570531
 11
62.590867664661886
 21
188.84724474895776
  0
LINE
  8
_0-1_作画層１
  6
CONTINUOUS
 62
    7
 10
62.590867664661886
 20
188.84724474895776
 11
62.637415024689489
 21
188.83912308348869
  0
LINE
  8
_0-1_作画層１
  6
CONTINUOUS
 62
    7
 10
62.637415024689489
 20
188.83912308348869
 11
62.684731288553337
 21
188.83118670188858
  0
LINE
  8
_0-1_作画層１
  6
CONTINUOUS
 62
    7
 10
62.684731288553337
 20
188.83118670188858
 11
62.732666636675447
 21
188.82348000674847
  0
LINE
  8
_0-1_作画層１
  6
CONTINUOUS
 62
    7
 10
62.732666636675447
 20
188.82348000674847
 11
62.781071249477804
 21
188.81604740065896
  0
LINE
  8
_0-1_作画層１
  6
CONTINUOUS
 62
    7
 10
62.781071249477804
 20
188.81604740065896
 11
62.829795307382426
 21
188.8089332862109
  0
LINE
  8
_0-1_作画層１
  6
CONTINUOUS
 62
    7
 10
62.829795307382426
 20
188.8089332862109
 11
62.878688990811298
 21
188.80218206599505
  0
LINE
  8
_0-1_作画層１
  6
CONTINUOUS
 62
    7
 10
62.878688990811298
 20
188.80218206599505
 11
62.927602480186408
 21
188.79583814260218
  0
LINE
  8
_0-1_作画層１
  6
CONTINUOUS
 62
    7
 10
62.927602480186408
 20
188.79583814260218
 11
62.976385955929743
 21
188.78994591862306
  0
LINE
  8
_0-1_作画層１
  6
CONTINUOUS
 62
    7
 10
62.976385955929743
 20
188.78994591862306
 11
63.024889598463318
 21
188.78454979664843
  0
LINE
  8
_0-1_作画層１
  6
CONTINUOUS
 62
    7
 10
63.024889598463318
 20
188.78454979664843
 11
63.07296358820912
 21
188.77969417926914
  0
LINE
  8
_0-1_作画層１
  6
CONTINUOUS
 62
    7
 10
63.07296358820912
 20
188.77969417926914
 11
63.120458105589137
 21
188.77542346907592
  0
LINE
  8
_0-1_作画層１
  6
CONTINUOUS
 62
    7
 10
63.120458105589137
 20
188.77542346907592
 11
63.167223331025355
 21
188.77178206865943
  0
LINE
  8
_0-1_作画層１
  6
CONTINUOUS
 62
    7
 10
63.167223331025355
 20
188.77178206865943
 11
63.213109444939789
 21
188.76881438061065
  0
LINE
  8
_0-1_作画層１
  6
CONTINUOUS
 62
    7
 10
63.213109444939789
 20
188.76881438061065
 11
63.257966627754456
 21
188.7665648075203
  0
LINE
  8
_0-1_作画層１
  6
CONTINUOUS
 62
    7
 10
63.257966627754456
 20
188.7665648075203
 11
63.301645059891314
 21
188.76507775197905
  0
LINE
  8
_0-1_作画層１
  6
CONTINUOUS
 62
    7
 10
63.301645059891314
 20
188.76507775197905
 11
63.343994921772378
 21
188.76439761657772
  0
LINE
  8
_0-1_作画層１
  6
CONTINUOUS
 62
    7
 10
63.343994921772378
 20
188.76439761657772
 11
63.384866393819607
 21
188.76456880390711
  0
LINE
  8
_0-1_作画層１
  6
CONTINUOUS
 62
    7
 10
63.384866393819607
 20
188.76456880390711
 11
63.424109656455073
 21
188.76563571655797
  0
LINE
  8
_0-1_作画層１
  6
CONTINUOUS
 62
    7
 10
63.424109656455073
 20
188.76563571655797
 11
63.461574890100678
 21
188.76764275712111
  0
LINE
  8
_0-1_作画層１
  6
CONTINUOUS
 62
    7
 10
63.461574890100678
 20
188.76764275712111
 11
63.497112275178466
 21
188.77063432818721
  0
LINE
  8
_0-1_作画層１
  6
CONTINUOUS
 62
    7
 10
63.497112275178466
 20
188.77063432818721
 11
63.530571992110453
 21
188.77465483234715
  0
LINE
  8
_0-1_作画層１
  6
CONTINUOUS
 62
    7
 10
63.530571992110453
 20
188.77465483234715
 11
63.585160745666286
 21
188.78422072976127
  0
LINE
  8
_0-1_作画層１
  6
CONTINUOUS
 62
    7
 10
63.585160745666286
 20
188.78422072976127
 11
63.614495780064118
 21
188.79065220462687
  0
LINE
  8
_0-1_作画層１
  6
CONTINUOUS
 62
    7
 10
63.614495780064118
 20
188.79065220462687
 11
63.645040913724529
 21
188.79810971624613
  0
LINE
  8
_0-1_作画層１
  6
CONTINUOUS
 62
    7
 10
63.645040913724529
 20
188.79810971624613
 11
63.676683392284531
 21
188.80653852910487
  0
LINE
  8
_0-1_作画層１
  6
CONTINUOUS
 62
    7
 10
63.676683392284531
 20
188.80653852910487
 11
63.709310461381165
 21
188.81588390768911
  0
LINE
  8
_0-1_作画層１
  6
CONTINUOUS
 62
    7
 10
63.709310461381165
 20
188.81588390768911
 11
63.742809366651329
 21
188.82609111648463
  0
LINE
  8
_0-1_作画層１
  6
CONTINUOUS
 62
    7
 10
63.742809366651329
 20
188.82609111648463
 11
63.777067353732178
 21
188.83710541997763
  0
LINE
  8
_0-1_作画層１
  6
CONTINUOUS
 62
    7
 10
63.777067353732178
 20
188.83710541997763
 11
63.811971668260583
 21
188.84887208265368
  0
LINE
  8
_0-1_作画層１
  6
CONTINUOUS
 62
    7
 10
63.811971668260583
 20
188.84887208265368
 11
63.847409555873639
 21
188.86133636899908
  0
LINE
  8
_0-1_作画層１
  6
CONTINUOUS
 62
    7
 10
63.847409555873639
 20
188.86133636899908
 11
63.883268262208219
 21
188.87444354349941
  0
LINE
  8
_0-1_作画層１
  6
CONTINUOUS
 62
    7
 10
63.883268262208219
 20
188.87444354349941
 11
63.919435032901475
 21
188.88813887064083
  0
LINE
  8
_0-1_作画層１
  6
CONTINUOUS
 62
    7
 10
63.919435032901475
 20
188.88813887064083
 11
63.955797113590336
 21
188.90236761490914
  0
LINE
  8
_0-1_作画層１
  6
CONTINUOUS
 62
    7
 10
63.955797113590336
 20
188.90236761490914
 11
63.992241749911784
 21
188.91707504079037
  0
LINE
  8
_0-1_作画層１
  6
CONTINUOUS
 62
    7
 10
63.992241749911784
 20
188.91707504079037
 11
64.028656187502861
 21
188.93220641277034
  0
LINE
  8
_0-1_作画層１
  6
CONTINUOUS
 62
    7
 10
64.028656187502861
 20
188.93220641277034
 11
64.06492767200055
 21
188.94770699533504
  0
LINE
  8
_0-1_作画層１
  6
CONTINUOUS
 62
    7
 10
64.06492767200055
 20
188.94770699533504
 11
64.100943449041864
 21
188.96352205297035
  0
LINE
  8
_0-1_作画層１
  6
CONTINUOUS
 62
    7
 10
64.100943449041864
 20
188.96352205297035
 11
64.136590764263786
 21
188.97959685016227
  0
LINE
  8
_0-1_作画層１
  6
CONTINUOUS
 62
    7
 10
64.136590764263786
 20
188.97959685016227
 11
64.17175686330333
 21
188.99587665139663
  0
LINE
  8
_0-1_作画層１
  6
CONTINUOUS
 62
    7
 10
64.17175686330333
 20
188.99587665139663
 11
64.206328991797506
 21
189.01230672115943
  0
LINE
  8
_0-1_作画層１
  6
CONTINUOUS
 62
    7
 10
64.206328991797506
 20
189.01230672115943
 11
64.240194395383298
 21
189.02883232393654
  0
LINE
  8
_0-1_作画層１
  6
CONTINUOUS
 62
    7
 10
64.240194395383298
 20
189.02883232393654
 11
64.273240319697692
 21
189.04539872421392
  0
LINE
  8
_0-1_作画層１
  6
CONTINUOUS
 62
    7
 10
64.273240319697692
 20
189.04539872421392
 11
64.305354010377755
 21
189.06195118647753
  0
LINE
  8
_0-1_作画層１
  6
CONTINUOUS
 62
    7
 10
64.305354010377755
 20
189.06195118647753
 11
64.336422713060415
 21
189.07843497521321
  0
LINE
  8
_0-1_作画層１
  6
CONTINUOUS
 62
    7
 10
64.336422713060415
 20
189.07843497521321
 11
64.366333673382684
 21
189.09479535490692
  0
LINE
  8
_0-1_作画層１
  6
CONTINUOUS
 62
    7
 10
64.366333673382684
 20
189.09479535490692
 11
64.394974136981602
 21
189.11097759004463
  0
LINE
  8
_0-1_作画層１
  6
CONTINUOUS
 62
    7
 10
64.394974136981602
 20
189.11097759004463
 11
64.422231349494155
 21
189.12692694511219
  0
LINE
  8
_0-1_作画層１
  6
CONTINUOUS
 62
    7
 10
64.422231349494155
 20
189.12692694511219
 11
64.447992556557352
 21
189.14258868459555
  0
LINE
  8
_0-1_作画層１
  6
CONTINUOUS
 62
    7
 10
64.447992556557352
 20
189.14258868459555
 11
64.47214500380818
 21
189.15790807298069
  0
LINE
  8
_0-1_作画層１
  6
CONTINUOUS
 62
    7
 10
64.47214500380818
 20
189.15790807298069
 11
64.494575936883621
 21
189.17283037475346
  0
LINE
  8
_0-1_作画層１
  6
CONTINUOUS
 62
    7
 10
64.494575936883621
 20
189.17283037475346
 11
64.523669105651834
 21
189.19383210736657
  0
LINE
  8
_0-1_作画層１
  6
CONTINUOUS
 62
    7
 10
64.523669105651834
 20
189.19383210736657
 11
64.538454383230118
 21
189.20531661100125
  0
LINE
  8
_0-1_作画層１
  6
CONTINUOUS
 62
    7
 10
64.538454383230118
 20
189.20531661100125
 11
64.553391301190572
 21
189.21742601364434
  0
LINE
  8
_0-1_作画層１
  6
CONTINUOUS
 62
    7
 10
64.553391301190572
 20
189.21742601364434
 11
64.568474243222767
 21
189.23013717088813
  0
LINE
  8
_0-1_作画層１
  6
CONTINUOUS
 62
    7
 10
64.568474243222767
 20
189.23013717088813
 11
64.58369759301624
 21
189.24342693832494
  0
LINE
  8
_0-1_作画層１
  6
CONTINUOUS
 62
    7
 10
64.58369759301624
 20
189.24342693832494
 11
64.599055734260503
 21
189.25727217154693
  0
LINE
  8
_0-1_作画層１
  6
CONTINUOUS
 62
    7
 10
64.599055734260503
 20
189.25727217154693
 11
64.61454305064521
 21
189.27164972614665
  0
LINE
  8
_0-1_作画層１
  6
CONTINUOUS
 62
    7
 10
64.61454305064521
 20
189.27164972614665
 11
64.630153925859787
 21
189.28653645771604
  0
LINE
  8
_0-1_作画層１
  6
CONTINUOUS
 62
    7
 10
64.630153925859787
 20
189.28653645771604
 11
64.645882743593887
 21
189.30190922184769
  0
LINE
  8
_0-1_作画層１
  6
CONTINUOUS
 62
    7
 10
64.645882743593887
 20
189.30190922184769
 11
64.661723887536965
 21
189.31774487413358
  0
LINE
  8
_0-1_作画層１
  6
CONTINUOUS
 62
    7
 10
64.661723887536965
 20
189.31774487413358
 11
64.677671741378646
 21
189.33402027016626
  0
LINE
  8
_0-1_作画層１
  6
CONTINUOUS
 62
    7
 10
64.677671741378646
 20
189.33402027016626
 11
64.69372068880844
 21
189.35071226553788
  0
LINE
  8
_0-1_作画層１
  6
CONTINUOUS
 62
    7
 10
64.69372068880844
 20
189.35071226553788
 11
64.709865113515889
 21
189.36779771584074
  0
LINE
  8
_0-1_作画層１
  6
CONTINUOUS
 62
    7
 10
64.709865113515889
 20
189.36779771584074
 11
64.726099399190559
 21
189.38525347666712
  0
LINE
  8
_0-1_作画層１
  6
CONTINUOUS
 62
    7
 10
64.726099399190559
 20
189.38525347666712
 11
64.74241792952202
 21
189.40305640360927
  0
LINE
  8
_0-1_作画層１
  6
CONTINUOUS
 62
    7
 10
64.74241792952202
 20
189.40305640360927
 11
64.758815088199782
 21
189.42118335225948
  0
LINE
  8
_0-1_作画層１
  6
CONTINUOUS
 62
    7
 10
64.758815088199782
 20
189.42118335225948
 11
64.775285258913414
 21
189.4396111782101
  0
LINE
  8
_0-1_作画層１
  6
CONTINUOUS
 62
    7
 10
64.775285258913414
 20
189.4396111782101
 11
64.791822825352455
 21
189.45831673705334
  0
LINE
  8
_0-1_作画層１
  6
CONTINUOUS
 62
    7
 10
64.791822825352455
 20
189.45831673705334
 11
64.808422171206473
 21
189.47727688438147
  0
LINE
  8
_0-1_作画層１
  6
CONTINUOUS
 62
    7
 10
64.808422171206473
 20
189.47727688438147
 11
64.825077680164981
 21
189.4964684757868
  0
LINE
  8
_0-1_作画層１
  6
CONTINUOUS
 62
    7
 10
64.825077680164981
 20
189.4964684757868
 11
64.841783735917545
 21
189.51586836686164
  0
LINE
  8
_0-1_作画層１
  6
CONTINUOUS
 62
    7
 10
64.841783735917545
 20
189.51586836686164
 11
64.858534722153763
 21
189.53545341319824
  0
LINE
  8
_0-1_作画層１
  6
CONTINUOUS
 62
    7
 10
64.858534722153763
 20
189.53545341319824
 11
64.875325022563089
 21
189.55520047038885
  0
LINE
  8
_0-1_作画層１
  6
CONTINUOUS
 62
    7
 10
64.875325022563089
 20
189.55520047038885
 11
64.892149020835149
 21
189.57508639402585
  0
LINE
  8
_0-1_作画層１
  6
CONTINUOUS
 62
    7
 10
64.892149020835149
 20
189.57508639402585
 11
64.909001100659452
 21
189.59508803970135
  0
LINE
  8
_0-1_作画層１
  6
CONTINUOUS
 62
    7
 10
64.909001100659452
 20
189.59508803970135
 11
64.925875645725569
 21
189.6151822630078
  0
LINE
  8
_0-1_作画層１
  6
CONTINUOUS
 62
    7
 10
64.925875645725569
 20
189.6151822630078
 11
64.942767039723037
 21
189.63534591953737
  0
LINE
  8
_0-1_作画層１
  6
CONTINUOUS
 62
    7
 10
64.942767039723037
 20
189.63534591953737
 11
64.959669666341398
 21
189.65555586488239
  0
LINE
  8
_0-1_作画層１
  6
CONTINUOUS
 62
    7
 10
64.959669666341398
 20
189.65555586488239
 11
64.976577909270219
 21
189.67578895463512
  0
LINE
  8
_0-1_作画層１
  6
CONTINUOUS
 62
    7
 10
73.75
 20
202.375
 11
61.25
 21
202.375
  0
LINE
  8
_0-1_作画層１
  6
CONTINUOUS
 62
    7
 10
73.75
 20
193.375
 11
61.25
 21
193.375
  0
LINE
  8
_0-1_作画層１
  6
CONTINUOUS
 62
    7
 10
80
 20
202.375
 11
93.125
 21
202.375
  0
LINE
  8
_0-1_作画層１
  6
CONTINUOUS
 62
    7
 10
80
 20
193.375
 11
93.125
 21
193.375
  0
TEXT
  8
_0-7_注記層１
 62
    7
 10
75.75
 20
192.375
 40
2
 41
1
 50
0
  1
OFF
  0
CIRCLE
  8
_0-1_作画層１
  6
CONTINUOUS
 62
    7
 10
96.25
 20
185.875
 40
1.25
  0
TEXT
  8
_0-7_注記層１
 62
    7
 10
56.25
 20
178.125
 40
2.5
 41
1
 50
0
  1
AUTO
  0
TEXT
  8
_0-7_注記層１
 62
    7
 10
56.25
 20
175.125
 40
2.5
 41
1
 50
0
  1
PROG
  0
TEXT
  8
_0-7_注記層１
 62
    7
 10
56.25
 20
181.125
 40
2.5
 41
1
 50
0
  1
TIME
  0
TEXT
  8
_0-7_注記層１
 62
    7
 10
56.875
 20
189.375
 40
2.5
 41
1
 50
0
  1
SUNAO
  0
TEXT
  8
_0-7_注記層１
 62
    7
 10
93.75
 20
177.875
 40
2.5
 41
1
 50
0
  1
AUTO
  0
TEXT
  8
_0-7_注記層１
 62
    7
 10
93.59375
 20
174.875
 40
2.5
 41
0.8499999999999998
 50
0
  1
O F F
  0
TEXT
  8
_0-7_注記層１
 62
    7
 10
93.75
 20
180.875
 40
2.5
 41
1
 50
0
  1
O  N
  0
TEXT
  8
_0-7_注記層１
 62
    7
 10
95.9375
 20
188.125
 40
2.5
 41
1
 50
0
  1
R
  0
TEXT
  8
_0-7_注記層１
 62
    7
 10
76.199999999999989
 20
173.125
 40
2.6000000000000001
 41
1
 50
0
  1
MV
  0
TEXT
  8
_0-7_注記層１
 62
    7
 10
76.25
 20
201.375
 40
2
 41
1
 50
0
  1
ON
  0
LINE
  8
_0-1_作画層１
  6
CONTINUOUS
 62
    7
 10
78.75
 20
200.87785016286645
 11
75.75
 21
200.87785016286645
  0
LINE
  8
_0-1_作画層１
  6
CONTINUOUS
 62
    7
 10
78.75
 20
194.87785016286645
 11
75.75
 21
194.87785016286645
  0
LINE
  8
_0-1_作画層１
  6
CONTINUOUS
 62
    7
 10
78.75
 20
197.87785016286645
 11
75.75
 21
197.87785016286645
  0
LINE
  8
_0-1_作画層１
  6
CONTINUOUS
 62
    7
 10
75.75
 20
194.87785016286645
 11
75.75
 21
200.87785016286645
  0
LINE
  8
_0-1_作画層１
  6
CONTINUOUS
 62
    7
 10
78.75
 20
200.87785016286645
 11
78.75
 21
194.87785016286645
  0
LINE
  8
_0-1_作画層１
  6
CONTINUOUS
 62
    7
 10
75.75
 20
197.87785016286645
 11
78.75
 21
197.87785016286645
  0
LINE
  8
_0-1_作画層１
  6
CONTINUOUS
 62
    7
 10
78.75
 20
197.87785016286645
 11
78.75
 21
194.87785016286645
  0
LINE
  8
_0-1_作画層１
  6
CONTINUOUS
 62
    7
 10
78.75
 20
194.87785016286645
 11
75.75
 21
194.87785016286645
  0
LINE
  8
_0-1_作画層１
  6
CONTINUOUS
 62
    7
 10
75.75
 20
194.87785016286645
 11
75.75
 21
197.87785016286645
  0
LINE
  8
_0-1_作画層１
  6
CONTINUOUS
 62
    7
 10
78.641262386828998
 20
197.87785016286645
 11
78.75
 21
197.76911254969545
  0
LINE
  8
_0-1_作画層１
  6
CONTINUOUS
 62
    7
 10
78.75
 20
197.62769119345813
 11
78.499841030591682
 21
197.87785016286645
  0
LINE
  8
_0-1_作画層１
  6
CONTINUOUS
 62
    7
 10
78.75
 20
197.48626983722085
 11
78.358419674354394
 21
197.87785016286645
  0
LINE
  8
_0-1_作画層１
  6
CONTINUOUS
 62
    7
 10
78.216998318117078
 20
197.87785016286645
 11
78.75
 21
197.34484848098353
  0
LINE
  8
_0-1_作画層１
  6
CONTINUOUS
 62
    7
 10
78.075576961879761
 20
197.87785016286645
 11
78.75
 21
197.20342712474621
  0
LINE
  8
_0-1_作画層１
  6
CONTINUOUS
 62
    7
 10
78.75
 20
197.0620057685089
 11
77.934155605642445
 21
197.87785016286645
  0
LINE
  8
_0-1_作画層１
  6
CONTINUOUS
 62
    7
 10
77.792734249405157
 20
197.87785016286645
 11
78.75
 21
196.92058441227161
  0
LINE
  8
_0-1_作画層１
  6
CONTINUOUS
 62
    7
 10
77.651312893167898
 20
197.87785016286645
 11
78.75
 21
196.77916305603435
  0
LINE
  8
_0-1_作画層１
  6
CONTINUOUS
 62
    7
 10
78.75
 20
196.63774169979706
 11
77.509891536930581
 21
197.87785016286645
  0
LINE
  8
_0-1_作画層１
  6
CONTINUOUS
 62
    7
 10
78.75
 20
196.49632034355972
 11
77.368470180693265
 21
197.87785016286645
  0
LINE
  8
_0-1_作画層１
  6
CONTINUOUS
 62
    7
 10
78.75
 20
196.35489898732243
 11
77.227048824455949
 21
197.87785016286645
  0
LINE
  8
_0-1_作画層１
  6
CONTINUOUS
 62
    7
 10
78.75
 20
196.21347763108511
 11
77.085627468218661
 21
197.87785016286645
  0
LINE
  8
_0-1_作画層１
  6
CONTINUOUS
 62
    7
 10
78.75
 20
196.0720562748478
 11
76.944206111981316
 21
197.87785016286645
  0
LINE
  8
_0-1_作画層１
  6
CONTINUOUS
 62
    7
 10
78.75
 20
195.93063491861051
 11
76.802784755744028
 21
197.87785016286645
  0
LINE
  8
_0-1_作画層１
  6
CONTINUOUS
 62
    7
 10
78.75
 20
195.78921356237316
 11
76.66136339950674
 21
197.87785016286645
  0
LINE
  8
_0-1_作画層１
  6
CONTINUOUS
 62
    7
 10
78.75
 20
195.64779220613593
 11
76.519942043269481
 21
197.87785016286645
  0
LINE
  8
_0-1_作画層１
  6
CONTINUOUS
 62
    7
 10
78.75
 20
195.50637084989859
 11
76.378520687032136
 21
197.87785016286645
  0
LINE
  8
_0-1_作画層１
  6
CONTINUOUS
 62
    7
 10
78.75
 20
195.3649494936613
 11
76.237099330794848
 21
197.87785016286645
  0
LINE
  8
_0-1_作画層１
  6
CONTINUOUS
 62
    7
 10
76.095677974557532
 20
197.87785016286645
 11
78.75
 21
195.22352813742398
  0
LINE
  8
_0-1_作画層１
  6
CONTINUOUS
 62
    7
 10
78.75
 20
195.08210678118667
 11
75.954256618320215
 21
197.87785016286645
  0
LINE
  8
_0-1_作画層１
  6
CONTINUOUS
 62
    7
 10
78.75
 20
194.94068542494938
 11
75.812835262082928
 21
197.87785016286645
  0
LINE
  8
_0-1_作画層１
  6
CONTINUOUS
 62
    7
 10
78.671413905845611
 20
194.87785016286645
 11
75.75
 21
197.79926406871206
  0
LINE
  8
_0-1_作画層１
  6
CONTINUOUS
 62
    7
 10
78.529992549608323
 20
194.87785016286645
 11
75.75
 21
197.65784271247475
  0
LINE
  8
_0-1_作画層１
  6
CONTINUOUS
 62
    7
 10
78.388571193371035
 20
194.87785016286645
 11
75.75
 21
197.51642135623752
  0
LINE
  8
_0-1_作画層１
  6
CONTINUOUS
 62
    7
 10
78.247149837133691
 20
194.87785016286645
 11
75.75
 21
197.37500000000017
  0
LINE
  8
_0-1_作画層１
  6
CONTINUOUS
 62
    7
 10
78.105728480896431
 20
194.87785016286645
 11
75.75
 21
197.23357864376288
  0
LINE
  8
_0-1_作画層１
  6
CONTINUOUS
 62
    7
 10
77.964307124659143
 20
194.87785016286645
 11
75.75
 21
197.09215728752559
  0
LINE
  8
_0-1_作画層１
  6
CONTINUOUS
 62
    7
 10
75.75
 20
196.95073593128831
 11
77.822885768421827
 21
194.87785016286645
  0
LINE
  8
_0-1_作画層１
  6
CONTINUOUS
 62
    7
 10
77.681464412184539
 20
194.87785016286645
 11
75.75
 21
196.80931457505099
  0
LINE
  8
_0-1_作画層１
  6
CONTINUOUS
 62
    7
 10
77.540043055947223
 20
194.87785016286645
 11
75.75
 21
196.66789321881367
  0
LINE
  8
_0-1_作画層１
  6
CONTINUOUS
 62
    7
 10
77.398621699709935
 20
194.87785016286645
 11
75.75
 21
196.52647186257639
  0
LINE
  8
_0-1_作画層１
  6
CONTINUOUS
 62
    7
 10
75.75
 20
196.3850505063391
 11
77.257200343472618
 21
194.87785016286645
  0
LINE
  8
_0-1_作画層１
  6
CONTINUOUS
 62
    7
 10
75.75
 20
196.24362915010178
 11
77.115778987235331
 21
194.87785016286645
  0
LINE
  8
_0-1_作画層１
  6
CONTINUOUS
 62
    7
 10
76.974357630998043
 20
194.87785016286645
 11
75.75
 21
196.10220779386449
  0
LINE
  8
_0-1_作画層１
  6
CONTINUOUS
 62
    7
 10
76.832936274760698
 20
194.87785016286645
 11
75.75
 21
195.96078643762718
  0
LINE
  8
_0-1_作画層１
  6
CONTINUOUS
 62
    7
 10
76.69151491852341
 20
194.87785016286645
 11
75.75
 21
195.81936508138983
  0
LINE
  8
_0-1_作画層１
  6
CONTINUOUS
 62
    7
 10
76.550093562286122
 20
194.87785016286645
 11
75.75
 21
195.67794372515257
  0
LINE
  8
_0-1_作画層１
  6
CONTINUOUS
 62
    7
 10
75.75
 20
195.53652236891526
 11
76.408672206048777
 21
194.87785016286645
  0
LINE
  8
_0-1_作画層１
  6
CONTINUOUS
 62
    7
 10
76.267250849811489
 20
194.87785016286645
 11
75.75
 21
195.39510101267791
  0
LINE
  8
_0-1_作画層１
  6
CONTINUOUS
 62
    7
 10
76.125829493574201
 20
194.87785016286645
 11
75.75
 21
195.25367965644065
  0
LINE
  8
_0-1_作画層１
  6
CONTINUOUS
 62
    7
 10
75.984408137336914
 20
194.87785016286645
 11
75.75
 21
195.11225830020337
  0
LINE
  8
_0-1_作画層１
  6
CONTINUOUS
 62
    7
 10
75.842986781099597
 20
194.87785016286645
 11
75.75
 21
194.97083694396605
  0
LINE
  8
_0-1_作画層１
  6
CONTINUOUS
 62
    7
 10
83.75
 20
200.87785016286645
 11
80.75
 21
200.87785016286645
  0
LINE
  8
_0-1_作画層１
  6
CONTINUOUS
 62
    7
 10
83.75
 20
194.87785016286645
 11
80.75
 21
194.87785016286645
  0
LINE
  8
_0-1_作画層１
  6
CONTINUOUS
 62
    7
 10
83.75
 20
197.87785016286645
 11
80.75
 21
197.87785016286645
  0
LINE
  8
_0-1_作画層１
  6
CONTINUOUS
 62
    7
 10
80.75
 20
194.87785016286645
 11
80.75
 21
200.87785016286645
  0
LINE
  8
_0-1_作画層１
  6
CONTINUOUS
 62
    7
 10
83.75
 20
200.87785016286645
 11
83.75
 21
194.87785016286645
  0
LINE
  8
_0-1_作画層１
  6
CONTINUOUS
 62
    7
 10
80.75
 20
197.87785016286645
 11
83.75
 21
197.87785016286645
  0
LINE
  8
_0-1_作画層１
  6
CONTINUOUS
 62
    7
 10
83.75
 20
197.87785016286645
 11
83.75
 21
194.87785016286645
  0
LINE
  8
_0-1_作画層１
  6
CONTINUOUS
 62
    7
 10
83.75
 20
194.87785016286645
 11
80.75
 21
194.87785016286645
  0
LINE
  8
_0-1_作画層１
  6
CONTINUOUS
 62
    7
 10
80.75
 20
194.87785016286645
 11
80.75
 21
197.87785016286645
  0
LINE
  8
_0-1_作画層１
  6
CONTINUOUS
 62
    7
 10
83.641262386828998
 20
197.87785016286645
 11
83.75
 21
197.76911254969545
  0
LINE
  8
_0-1_作画層１
  6
CONTINUOUS
 62
    7
 10
83.75
 20
197.62769119345813
 11
83.499841030591682
 21
197.87785016286645
  0
LINE
  8
_0-1_作画層１
  6
CONTINUOUS
 62
    7
 10
83.75
 20
197.48626983722085
 11
83.358419674354394
 21
197.87785016286645
  0
LINE
  8
_0-1_作画層１
  6
CONTINUOUS
 62
    7
 10
83.216998318117078
 20
197.87785016286645
 11
83.75
 21
197.34484848098353
  0
LINE
  8
_0-1_作画層１
  6
CONTINUOUS
 62
    7
 10
83.075576961879761
 20
197.87785016286645
 11
83.75
 21
197.20342712474621
  0
LINE
  8
_0-1_作画層１
  6
CONTINUOUS
 62
    7
 10
83.75
 20
197.0620057685089
 11
82.934155605642445
 21
197.87785016286645
  0
LINE
  8
_0-1_作画層１
  6
CONTINUOUS
 62
    7
 10
82.792734249405157
 20
197.87785016286645
 11
83.75
 21
196.92058441227161
  0
LINE
  8
_0-1_作画層１
  6
CONTINUOUS
 62
    7
 10
82.651312893167898
 20
197.87785016286645
 11
83.75
 21
196.77916305603435
  0
LINE
  8
_0-1_作画層１
  6
CONTINUOUS
 62
    7
 10
83.75
 20
196.63774169979706
 11
82.509891536930596
 21
197.87785016286645
  0
LINE
  8
_0-1_作画層１
  6
CONTINUOUS
 62
    7
 10
83.75
 20
196.49632034355972
 11
82.368470180693265
 21
197.87785016286645
  0
LINE
  8
_0-1_作画層１
  6
CONTINUOUS
 62
    7
 10
83.75
 20
196.35489898732243
 11
82.227048824455963
 21
197.87785016286645
  0
LINE
  8
_0-1_作画層１
  6
CONTINUOUS
 62
    7
 10
83.75
 20
196.21347763108511
 11
82.085627468218661
 21
197.87785016286645
  0
LINE
  8
_0-1_作画層１
  6
CONTINUOUS
 62
    7
 10
83.75
 20
196.0720562748478
 11
81.944206111981316
 21
197.87785016286645
  0
LINE
  8
_0-1_作画層１
  6
CONTINUOUS
 62
    7
 10
83.75
 20
195.93063491861051
 11
81.802784755744028
 21
197.87785016286645
  0
LINE
  8
_0-1_作画層１
  6
CONTINUOUS
 62
    7
 10
83.75
 20
195.78921356237316
 11
81.66136339950674
 21
197.87785016286645
  0
LINE
  8
_0-1_作画層１
  6
CONTINUOUS
 62
    7
 10
83.75
 20
195.64779220613593
 11
81.519942043269481
 21
197.87785016286645
  0
LINE
  8
_0-1_作画層１
  6
CONTINUOUS
 62
    7
 10
83.75
 20
195.50637084989859
 11
81.378520687032136
 21
197.87785016286645
  0
LINE
  8
_0-1_作画層１
  6
CONTINUOUS
 62
    7
 10
83.75
 20
195.3649494936613
 11
81.237099330794848
 21
197.87785016286645
  0
LINE
  8
_0-1_作画層１
  6
CONTINUOUS
 62
    7
 10
81.095677974557532
 20
197.87785016286645
 11
83.75
 21
195.22352813742398
  0
LINE
  8
_0-1_作画層１
  6
CONTINUOUS
 62
    7
 10
83.75
 20
195.08210678118667
 11
80.954256618320215
 21
197.87785016286645
  0
LINE
  8
_0-1_作画層１
  6
CONTINUOUS
 62
    7
 10
83.75
 20
194.94068542494938
 11
80.812835262082928
 21
197.87785016286645
  0
LINE
  8
_0-1_作画層１
  6
CONTINUOUS
 62
    7
 10
83.671413905845611
 20
194.87785016286645
 11
80.75
 21
197.79926406871206
  0
LINE
  8
_0-1_作画層１
  6
CONTINUOUS
 62
    7
 10
83.529992549608309
 20
194.87785016286645
 11
80.75
 21
197.65784271247475
  0
LINE
  8
_0-1_作画層１
  6
CONTINUOUS
 62
    7
 10
83.38857119337105
 20
194.87785016286645
 11
80.75
 21
197.51642135623752
  0
LINE
  8
_0-1_作画層１
  6
CONTINUOUS
 62
    7
 10
83.247149837133705
 20
194.87785016286645
 11
80.75
 21
197.37500000000017
  0
LINE
  8
_0-1_作画層１
  6
CONTINUOUS
 62
    7
 10
83.105728480896431
 20
194.87785016286645
 11
80.75
 21
197.23357864376288
  0
LINE
  8
_0-1_作画層１
  6
CONTINUOUS
 62
    7
 10
82.964307124659143
 20
194.87785016286645
 11
80.75
 21
197.09215728752559
  0
LINE
  8
_0-1_作画層１
  6
CONTINUOUS
 62
    7
 10
80.75
 20
196.95073593128831
 11
82.822885768421841
 21
194.87785016286645
  0
LINE
  8
_0-1_作画層１
  6
CONTINUOUS
 62
    7
 10
82.681464412184539
 20
194.87785016286645
 11
80.75
 21
196.80931457505099
  0
LINE
  8
_0-1_作画層１
  6
CONTINUOUS
 62
    7
 10
82.540043055947223
 20
194.87785016286645
 11
80.75
 21
196.66789321881367
  0
LINE
  8
_0-1_作画層１
  6
CONTINUOUS
 62
    7
 10
82.398621699709935
 20
194.87785016286645
 11
80.75
 21
196.52647186257639
  0
LINE
  8
_0-1_作画層１
  6
CONTINUOUS
 62
    7
 10
80.75
 20
196.3850505063391
 11
82.257200343472633
 21
194.87785016286645
  0
LINE
  8
_0-1_作画層１
  6
CONTINUOUS
 62
    7
 10
80.75
 20
196.24362915010178
 11
82.115778987235331
 21
194.87785016286645
  0
LINE
  8
_0-1_作画層１
  6
CONTINUOUS
 62
    7
 10
81.974357630998043
 20
194.87785016286645
 11
80.75
 21
196.10220779386449
  0
LINE
  8
_0-1_作画層１
  6
CONTINUOUS
 62
    7
 10
81.832936274760698
 20
194.87785016286645
 11
80.75
 21
195.96078643762718
  0
LINE
  8
_0-1_作画層１
  6
CONTINUOUS
 62
    7
 10
81.69151491852341
 20
194.87785016286645
 11
80.75
 21
195.81936508138983
  0
LINE
  8
_0-1_作画層１
  6
CONTINUOUS
 62
    7
 10
81.550093562286122
 20
194.87785016286645
 11
80.75
 21
195.67794372515257
  0
LINE
  8
_0-1_作画層１
  6
CONTINUOUS
 62
    7
 10
80.75
 20
195.53652236891526
 11
81.408672206048777
 21
194.87785016286645
  0
LINE
  8
_0-1_作画層１
  6
CONTINUOUS
 62
    7
 10
81.267250849811489
 20
194.87785016286645
 11
80.75
 21
195.39510101267791
  0
LINE
  8
_0-1_作画層１
  6
CONTINUOUS
 62
    7
 10
81.125829493574201
 20
194.87785016286645
 11
80.75
 21
195.25367965644065
  0
LINE
  8
_0-1_作画層１
  6
CONTINUOUS
 62
    7
 10
80.984408137336914
 20
194.87785016286645
 11
80.75
 21
195.11225830020337
  0
LINE
  8
_0-1_作画層１
  6
CONTINUOUS
 62
    7
 10
80.842986781099597
 20
194.87785016286645
 11
80.75
 21
194.97083694396605
  0
LINE
  8
_0-1_作画層１
  6
CONTINUOUS
 62
    7
 10
88.75
 20
200.87785016286645
 11
85.75
 21
200.87785016286645
  0
LINE
  8
_0-1_作画層１
  6
CONTINUOUS
 62
    7
 10
88.75
 20
194.87785016286645
 11
85.75
 21
194.87785016286645
  0
LINE
  8
_0-1_作画層１
  6
CONTINUOUS
 62
    7
 10
88.75
 20
197.87785016286645
 11
85.75
 21
197.87785016286645
  0
LINE
  8
_0-1_作画層１
  6
CONTINUOUS
 62
    7
 10
85.75
 20
194.87785016286645
 11
85.75
 21
200.87785016286645
  0
LINE
  8
_0-1_作画層１
  6
CONTINUOUS
 62
    7
 10
88.75
 20
200.87785016286645
 11
88.75
 21
194.87785016286645
  0
LINE
  8
_0-1_作画層１
  6
CONTINUOUS
 62
    7
 10
85.75
 20
197.87785016286645
 11
88.75
 21
197.87785016286645
  0
LINE
  8
_0-1_作画層１
  6
CONTINUOUS
 62
    7
 10
88.75
 20
197.87785016286645
 11
88.75
 21
194.87785016286645
  0
LINE
  8
_0-1_作画層１
  6
CONTINUOUS
 62
    7
 10
88.75
 20
194.87785016286645
 11
85.75
 21
194.87785016286645
  0
LINE
  8
_0-1_作画層１
  6
CONTINUOUS
 62
    7
 10
85.75
 20
194.87785016286645
 11
85.75
 21
197.87785016286645
  0
LINE
  8
_0-1_作画層１
  6
CONTINUOUS
 62
    7
 10
88.641262386828998
 20
197.87785016286645
 11
88.75
 21
197.76911254969545
  0
LINE
  8
_0-1_作画層１
  6
CONTINUOUS
 62
    7
 10
88.75
 20
197.62769119345813
 11
88.499841030591682
 21
197.87785016286645
  0
LINE
  8
_0-1_作画層１
  6
CONTINUOUS
 62
    7
 10
88.75
 20
197.48626983722085
 11
88.358419674354394
 21
197.87785016286645
  0
LINE
  8
_0-1_作画層１
  6
CONTINUOUS
 62
    7
 10
88.216998318117078
 20
197.87785016286645
 11
88.75
 21
197.34484848098353
  0
LINE
  8
_0-1_作画層１
  6
CONTINUOUS
 62
    7
 10
88.075576961879761
 20
197.87785016286645
 11
88.75
 21
197.20342712474621
  0
LINE
  8
_0-1_作画層１
  6
CONTINUOUS
 62
    7
 10
88.75
 20
197.0620057685089
 11
87.934155605642445
 21
197.87785016286645
  0
LINE
  8
_0-1_作画層１
  6
CONTINUOUS
 62
    7
 10
87.792734249405157
 20
197.87785016286645
 11
88.75
 21
196.92058441227161
  0
LINE
  8
_0-1_作画層１
  6
CONTINUOUS
 62
    7
 10
87.651312893167898
 20
197.87785016286645
 11
88.75
 21
196.77916305603435
  0
LINE
  8
_0-1_作画層１
  6
CONTINUOUS
 62
    7
 10
88.75
 20
196.63774169979706
 11
87.509891536930596
 21
197.87785016286645
  0
LINE
  8
_0-1_作画層１
  6
CONTINUOUS
 62
    7
 10
88.75
 20
196.49632034355972
 11
87.368470180693265
 21
197.87785016286645
  0
LINE
  8
_0-1_作画層１
  6
CONTINUOUS
 62
    7
 10
88.75
 20
196.35489898732243
 11
87.227048824455963
 21
197.87785016286645
  0
LINE
  8
_0-1_作画層１
  6
CONTINUOUS
 62
    7
 10
88.75
 20
196.21347763108511
 11
87.085627468218661
 21
197.87785016286645
  0
LINE
  8
_0-1_作画層１
  6
CONTINUOUS
 62
    7
 10
88.75
 20
196.0720562748478
 11
86.94420611198133
 21
197.87785016286645
  0
LINE
  8
_0-1_作画層１
  6
CONTINUOUS
 62
    7
 10
88.75
 20
195.93063491861051
 11
86.802784755744042
 21
197.87785016286645
  0
LINE
  8
_0-1_作画層１
  6
CONTINUOUS
 62
    7
 10
88.75
 20
195.78921356237316
 11
86.661363399506726
 21
197.87785016286645
  0
LINE
  8
_0-1_作画層１
  6
CONTINUOUS
 62
    7
 10
88.75
 20
195.64779220613593
 11
86.519942043269481
 21
197.87785016286645
  0
LINE
  8
_0-1_作画層１
  6
CONTINUOUS
 62
    7
 10
88.75
 20
195.50637084989859
 11
86.378520687032136
 21
197.87785016286645
  0
LINE
  8
_0-1_作画層１
  6
CONTINUOUS
 62
    7
 10
88.75
 20
195.3649494936613
 11
86.237099330794848
 21
197.87785016286645
  0
LINE
  8
_0-1_作画層１
  6
CONTINUOUS
 62
    7
 10
86.095677974557532
 20
197.87785016286645
 11
88.75
 21
195.22352813742398
  0
LINE
  8
_0-1_作画層１
  6
CONTINUOUS
 62
    7
 10
88.75
 20
195.08210678118667
 11
85.954256618320215
 21
197.87785016286645
  0
LINE
  8
_0-1_作画層１
  6
CONTINUOUS
 62
    7
 10
88.75
 20
194.94068542494938
 11
85.812835262082928
 21
197.87785016286645
  0
LINE
  8
_0-1_作画層１
  6
CONTINUOUS
 62
    7
 10
88.671413905845611
 20
194.87785016286645
 11
85.75
 21
197.79926406871206
  0
LINE
  8
_0-1_作画層１
  6
CONTINUOUS
 62
    7
 10
88.529992549608309
 20
194.87785016286645
 11
85.75
 21
197.65784271247475
  0
LINE
  8
_0-1_作画層１
  6
CONTINUOUS
 62
    7
 10
88.38857119337105
 20
194.87785016286645
 11
85.75
 21
197.51642135623752
  0
LINE
  8
_0-1_作画層１
  6
CONTINUOUS
 62
    7
 10
88.247149837133705
 20
194.87785016286645
 11
85.75
 21
197.37500000000017
  0
LINE
  8
_0-1_作画層１
  6
CONTINUOUS
 62
    7
 10
88.105728480896431
 20
194.87785016286645
 11
85.75
 21
197.23357864376288
  0
LINE
  8
_0-1_作画層１
  6
CONTINUOUS
 62
    7
 10
87.964307124659143
 20
194.87785016286645
 11
85.75
 21
197.09215728752559
  0
LINE
  8
_0-1_作画層１
  6
CONTINUOUS
 62
    7
 10
85.75
 20
196.95073593128831
 11
87.822885768421841
 21
194.87785016286645
  0
LINE
  8
_0-1_作画層１
  6
CONTINUOUS
 62
    7
 10
87.681464412184539
 20
194.87785016286645
 11
85.75
 21
196.80931457505099
  0
LINE
  8
_0-1_作画層１
  6
CONTINUOUS
 62
    7
 10
87.540043055947223
 20
194.87785016286645
 11
85.75
 21
196.66789321881367
  0
LINE
  8
_0-1_作画層１
  6
CONTINUOUS
 62
    7
 10
87.398621699709935
 20
194.87785016286645
 11
85.75
 21
196.52647186257639
  0
LINE
  8
_0-1_作画層１
  6
CONTINUOUS
 62
    7
 10
85.75
 20
196.3850505063391
 11
87.257200343472633
 21
194.87785016286645
  0
LINE
  8
_0-1_作画層１
  6
CONTINUOUS
 62
    7
 10
85.75
 20
196.24362915010178
 11
87.115778987235331
 21
194.87785016286645
  0
LINE
  8
_0-1_作画層１
  6
CONTINUOUS
 62
    7
 10
86.974357630998043
 20
194.87785016286645
 11
85.75
 21
196.10220779386449
  0
LINE
  8
_0-1_作画層１
  6
CONTINUOUS
 62
    7
 10
86.832936274760712
 20
194.87785016286645
 11
85.75
 21
195.96078643762718
  0
LINE
  8
_0-1_作画層１
  6
CONTINUOUS
 62
    7
 10
86.691514918523396
 20
194.87785016286645
 11
85.75
 21
195.81936508138983
  0
LINE
  8
_0-1_作画層１
  6
CONTINUOUS
 62
    7
 10
86.550093562286122
 20
194.87785016286645
 11
85.75
 21
195.67794372515257
  0
LINE
  8
_0-1_作画層１
  6
CONTINUOUS
 62
    7
 10
85.75
 20
195.53652236891526
 11
86.408672206048792
 21
194.87785016286645
  0
LINE
  8
_0-1_作画層１
  6
CONTINUOUS
 62
    7
 10
86.267250849811475
 20
194.87785016286645
 11
85.75
 21
195.39510101267791
  0
LINE
  8
_0-1_作画層１
  6
CONTINUOUS
 62
    7
 10
86.125829493574201
 20
194.87785016286645
 11
85.75
 21
195.25367965644065
  0
LINE
  8
_0-1_作画層１
  6
CONTINUOUS
 62
    7
 10
85.984408137336914
 20
194.87785016286645
 11
85.75
 21
195.11225830020337
  0
LINE
  8
_0-1_作画層１
  6
CONTINUOUS
 62
    7
 10
85.842986781099597
 20
194.87785016286645
 11
85.75
 21
194.97083694396605
  0
LINE
  8
_0-1_作画層１
  6
CONTINUOUS
 62
    7
 10
93.75
 20
200.87785016286645
 11
90.75
 21
200.87785016286645
  0
LINE
  8
_0-1_作画層１
  6
CONTINUOUS
 62
    7
 10
93.75
 20
194.87785016286645
 11
90.75
 21
194.87785016286645
  0
LINE
  8
_0-1_作画層１
  6
CONTINUOUS
 62
    7
 10
93.75
 20
197.87785016286645
 11
90.75
 21
197.87785016286645
  0
LINE
  8
_0-1_作画層１
  6
CONTINUOUS
 62
    7
 10
90.75
 20
194.87785016286645
 11
90.75
 21
200.87785016286645
  0
LINE
  8
_0-1_作画層１
  6
CONTINUOUS
 62
    7
 10
93.75
 20
200.87785016286645
 11
93.75
 21
194.87785016286645
  0
LINE
  8
_0-1_作画層１
  6
CONTINUOUS
 62
    7
 10
90.75
 20
197.87785016286645
 11
93.75
 21
197.87785016286645
  0
LINE
  8
_0-1_作画層１
  6
CONTINUOUS
 62
    7
 10
93.75
 20
197.87785016286645
 11
93.75
 21
194.87785016286645
  0
LINE
  8
_0-1_作画層１
  6
CONTINUOUS
 62
    7
 10
93.75
 20
194.87785016286645
 11
90.75
 21
194.87785016286645
  0
LINE
  8
_0-1_作画層１
  6
CONTINUOUS
 62
    7
 10
90.75
 20
194.87785016286645
 11
90.75
 21
197.87785016286645
  0
LINE
  8
_0-1_作画層１
  6
CONTINUOUS
 62
    7
 10
93.641262386828998
 20
197.87785016286645
 11
93.75
 21
197.76911254969545
  0
LINE
  8
_0-1_作画層１
  6
CONTINUOUS
 62
    7
 10
93.75
 20
197.62769119345813
 11
93.499841030591682
 21
197.87785016286645
  0
LINE
  8
_0-1_作画層１
  6
CONTINUOUS
 62
    7
 10
93.75
 20
197.48626983722085
 11
93.358419674354394
 21
197.87785016286645
  0
LINE
  8
_0-1_作画層１
  6
CONTINUOUS
 62
    7
 10
93.216998318117078
 20
197.87785016286645
 11
93.75
 21
197.34484848098353
  0
LINE
  8
_0-1_作画層１
  6
CONTINUOUS
 62
    7
 10
93.075576961879761
 20
197.87785016286645
 11
93.75
 21
197.20342712474621
  0
LINE
  8
_0-1_作画層１
  6
CONTINUOUS
 62
    7
 10
93.75
 20
197.0620057685089
 11
92.934155605642445
 21
197.87785016286645
  0
LINE
  8
_0-1_作画層１
  6
CONTINUOUS
 62
    7
 10
92.792734249405157
 20
197.87785016286645
 11
93.75
 21
196.92058441227161
  0
LINE
  8
_0-1_作画層１
  6
CONTINUOUS
 62
    7
 10
92.651312893167898
 20
197.87785016286645
 11
93.75
 21
196.77916305603435
  0
LINE
  8
_0-1_作画層１
  6
CONTINUOUS
 62
    7
 10
93.75
 20
196.63774169979706
 11
92.509891536930596
 21
197.87785016286645
  0
LINE
  8
_0-1_作画層１
  6
CONTINUOUS
 62
    7
 10
93.75
 20
196.49632034355972
 11
92.368470180693265
 21
197.87785016286645
  0
LINE
  8
_0-1_作画層１
  6
CONTINUOUS
 62
    7
 10
93.75
 20
196.35489898732243
 11
92.227048824455963
 21
197.87785016286645
  0
LINE
  8
_0-1_作画層１
  6
CONTINUOUS
 62
    7
 10
93.75
 20
196.21347763108511
 11
92.085627468218661
 21
197.87785016286645
  0
LINE
  8
_0-1_作画層１
  6
CONTINUOUS
 62
    7
 10
93.75
 20
196.0720562748478
 11
91.94420611198133
 21
197.87785016286645
  0
LINE
  8
_0-1_作画層１
  6
CONTINUOUS
 62
    7
 10
93.75
 20
195.93063491861051
 11
91.802784755744042
 21
197.87785016286645
  0
LINE
  8
_0-1_作画層１
  6
CONTINUOUS
 62
    7
 10
93.75
 20
195.78921356237316
 11
91.661363399506726
 21
197.87785016286645
  0
LINE
  8
_0-1_作画層１
  6
CONTINUOUS
 62
    7
 10
93.75
 20
195.64779220613593
 11
91.519942043269481
 21
197.87785016286645
  0
LINE
  8
_0-1_作画層１
  6
CONTINUOUS
 62
    7
 10
93.75
 20
195.50637084989859
 11
91.378520687032136
 21
197.87785016286645
  0
LINE
  8
_0-1_作画層１
  6
CONTINUOUS
 62
    7
 10
93.75
 20
195.3649494936613
 11
91.237099330794848
 21
197.87785016286645
  0
LINE
  8
_0-1_作画層１
  6
CONTINUOUS
 62
    7
 10
91.095677974557532
 20
197.87785016286645
 11
93.75
 21
195.22352813742398
  0
LINE
  8
_0-1_作画層１
  6
CONTINUOUS
 62
    7
 10
93.75
 20
195.08210678118667
 11
90.954256618320215
 21
197.87785016286645
  0
LINE
  8
_0-1_作画層１
  6
CONTINUOUS
 62
    7
 10
93.75
 20
194.94068542494938
 11
90.812835262082928
 21
197.87785016286645
  0
LINE
  8
_0-1_作画層１
  6
CONTINUOUS
 62
    7
 10
93.671413905845611
 20
194.87785016286645
 11
90.75
 21
197.79926406871206
  0
LINE
  8
_0-1_作画層１
  6
CONTINUOUS
 62
    7
 10
93.529992549608309
 20
194.87785016286645
 11
90.75
 21
197.65784271247475
  0
LINE
  8
_0-1_作画層１
  6
CONTINUOUS
 62
    7
 10
93.38857119337105
 20
194.87785016286645
 11
90.75
 21
197.51642135623752
  0
LINE
  8
_0-1_作画層１
  6
CONTINUOUS
 62
    7
 10
93.247149837133705
 20
194.87785016286645
 11
90.75
 21
197.37500000000017
  0
LINE
  8
_0-1_作画層１
  6
CONTINUOUS
 62
    7
 10
93.105728480896431
 20
194.87785016286645
 11
90.75
 21
197.23357864376288
  0
LINE
  8
_0-1_作画層１
  6
CONTINUOUS
 62
    7
 10
92.964307124659143
 20
194.87785016286645
 11
90.75
 21
197.09215728752559
  0
LINE
  8
_0-1_作画層１
  6
CONTINUOUS
 62
    7
 10
90.75
 20
196.95073593128831
 11
92.822885768421841
 21
194.87785016286645
  0
LINE
  8
_0-1_作画層１
  6
CONTINUOUS
 62
    7
 10
92.681464412184539
 20
194.87785016286645
 11
90.75
 21
196.80931457505099
  0
LINE
  8
_0-1_作画層１
  6
CONTINUOUS
 62
    7
 10
92.540043055947223
 20
194.87785016286645
 11
90.75
 21
196.66789321881367
  0
LINE
  8
_0-1_作画層１
  6
CONTINUOUS
 62
    7
 10
92.398621699709935
 20
194.87785016286645
 11
90.75
 21
196.52647186257639
  0
LINE
  8
_0-1_作画層１
  6
CONTINUOUS
 62
    7
 10
90.75
 20
196.3850505063391
 11
92.257200343472633
 21
194.87785016286645
  0
LINE
  8
_0-1_作画層１
  6
CONTINUOUS
 62
    7
 10
90.75
 20
196.24362915010178
 11
92.115778987235331
 21
194.87785016286645
  0
LINE
  8
_0-1_作画層１
  6
CONTINUOUS
 62
    7
 10
91.974357630998043
 20
194.87785016286645
 11
90.75
 21
196.10220779386449
  0
LINE
  8
_0-1_作画層１
  6
CONTINUOUS
 62
    7
 10
91.832936274760712
 20
194.87785016286645
 11
90.75
 21
195.96078643762718
  0
LINE
  8
_0-1_作画層１
  6
CONTINUOUS
 62
    7
 10
91.691514918523396
 20
194.87785016286645
 11
90.75
 21
195.81936508138983
  0
LINE
  8
_0-1_作画層１
  6
CONTINUOUS
 62
    7
 10
91.550093562286122
 20
194.87785016286645
 11
90.75
 21
195.67794372515257
  0
LINE
  8
_0-1_作画層１
  6
CONTINUOUS
 62
    7
 10
90.75
 20
195.53652236891526
 11
91.408672206048792
 21
194.87785016286645
  0
LINE
  8
_0-1_作画層１
  6
CONTINUOUS
 62
    7
 10
91.267250849811475
 20
194.87785016286645
 11
90.75
 21
195.39510101267791
  0
LINE
  8
_0-1_作画層１
  6
CONTINUOUS
 62
    7
 10
91.125829493574201
 20
194.87785016286645
 11
90.75
 21
195.25367965644065
  0
LINE
  8
_0-1_作画層１
  6
CONTINUOUS
 62
    7
 10
90.984408137336914
 20
194.87785016286645
 11
90.75
 21
195.11225830020337
  0
LINE
  8
_0-1_作画層１
  6
CONTINUOUS
 62
    7
 10
90.842986781099597
 20
194.87785016286645
 11
90.75
 21
194.97083694396605
  0
LINE
  8
_0-1_作画層１
  6
CONTINUOUS
 62
    7
 10
70.75
 20
200.87785016286645
 11
73.75
 21
200.87785016286645
  0
LINE
  8
_0-1_作画層１
  6
CONTINUOUS
 62
    7
 10
70.75
 20
194.87785016286645
 11
73.75
 21
194.87785016286645
  0
LINE
  8
_0-1_作画層１
  6
CONTINUOUS
 62
    7
 10
70.75
 20
197.87785016286645
 11
73.75
 21
197.87785016286645
  0
LINE
  8
_0-1_作画層１
  6
CONTINUOUS
 62
    7
 10
73.75
 20
194.87785016286645
 11
73.75
 21
200.87785016286645
  0
LINE
  8
_0-1_作画層１
  6
CONTINUOUS
 62
    7
 10
70.75
 20
200.87785016286645
 11
70.75
 21
194.87785016286645
  0
LINE
  8
_0-1_作画層１
  6
CONTINUOUS
 62
    7
 10
73.75
 20
197.87785016286645
 11
70.75
 21
197.87785016286645
  0
LINE
  8
_0-1_作画層１
  6
CONTINUOUS
 62
    7
 10
70.75
 20
197.87785016286645
 11
70.75
 21
194.87785016286645
  0
LINE
  8
_0-1_作画層１
  6
CONTINUOUS
 62
    7
 10
70.75
 20
194.87785016286645
 11
73.75
 21
194.87785016286645
  0
LINE
  8
_0-1_作画層１
  6
CONTINUOUS
 62
    7
 10
73.75
 20
194.87785016286645
 11
73.75
 21
197.87785016286645
  0
LINE
  8
_0-1_作画層１
  6
CONTINUOUS
 62
    7
 10
70.858737613171002
 20
197.87785016286645
 11
70.75
 21
197.76911254969545
  0
LINE
  8
_0-1_作画層１
  6
CONTINUOUS
 62
    7
 10
70.75
 20
197.62769119345813
 11
71.000158969408318
 21
197.87785016286645
  0
LINE
  8
_0-1_作画層１
  6
CONTINUOUS
 62
    7
 10
70.75
 20
197.48626983722085
 11
71.141580325645606
 21
197.87785016286645
  0
LINE
  8
_0-1_作画層１
  6
CONTINUOUS
 62
    7
 10
71.283001681882922
 20
197.87785016286645
 11
70.75
 21
197.34484848098353
  0
LINE
  8
_0-1_作画層１
  6
CONTINUOUS
 62
    7
 10
71.424423038120239
 20
197.87785016286645
 11
70.75
 21
197.20342712474621
  0
LINE
  8
_0-1_作画層１
  6
CONTINUOUS
 62
    7
 10
70.75
 20
197.0620057685089
 11
71.565844394357555
 21
197.87785016286645
  0
LINE
  8
_0-1_作画層１
  6
CONTINUOUS
 62
    7
 10
71.707265750594843
 20
197.87785016286645
 11
70.75
 21
196.92058441227161
  0
LINE
  8
_0-1_作画層１
  6
CONTINUOUS
 62
    7
 10
71.848687106832102
 20
197.87785016286645
 11
70.75
 21
196.77916305603435
  0
LINE
  8
_0-1_作画層１
  6
CONTINUOUS
 62
    7
 10
70.75
 20
196.63774169979706
 11
71.990108463069419
 21
197.87785016286645
  0
LINE
  8
_0-1_作画層１
  6
CONTINUOUS
 62
    7
 10
70.75
 20
196.49632034355972
 11
72.131529819306735
 21
197.87785016286645
  0
LINE
  8
_0-1_作画層１
  6
CONTINUOUS
 62
    7
 10
70.75
 20
196.35489898732243
 11
72.272951175544051
 21
197.87785016286645
  0
LINE
  8
_0-1_作画層１
  6
CONTINUOUS
 62
    7
 10
70.75
 20
196.21347763108511
 11
72.414372531781339
 21
197.87785016286645
  0
LINE
  8
_0-1_作画層１
  6
CONTINUOUS
 62
    7
 10
70.75
 20
196.0720562748478
 11
72.555793888018684
 21
197.87785016286645
  0
LINE
  8
_0-1_作画層１
  6
CONTINUOUS
 62
    7
 10
70.75
 20
195.93063491861051
 11
72.697215244255972
 21
197.87785016286645
  0
LINE
  8
_0-1_作画層１
  6
CONTINUOUS
 62
    7
 10
70.75
 20
195.78921356237316
 11
72.83863660049326
 21
197.87785016286645
  0
LINE
  8
_0-1_作画層１
  6
CONTINUOUS
 62
    7
 10
70.75
 20
195.64779220613593
 11
72.980057956730519
 21
197.87785016286645
  0
LINE
  8
_0-1_作画層１
  6
CONTINUOUS
 62
    7
 10
70.75
 20
195.50637084989859
 11
73.121479312967864
 21
197.87785016286645
  0
LINE
  8
_0-1_作画層１
  6
CONTINUOUS
 62
    7
 10
70.75
 20
195.3649494936613
 11
73.262900669205152
 21
197.87785016286645
  0
LINE
  8
_0-1_作画層１
  6
CONTINUOUS
 62
    7
 10
73.404322025442468
 20
197.87785016286645
 11
70.75
 21
195.22352813742398
  0
LINE
  8
_0-1_作画層１
  6
CONTINUOUS
 62
    7
 10
70.75
 20
195.08210678118667
 11
73.545743381679785
 21
197.87785016286645
  0
LINE
  8
_0-1_作画層１
  6
CONTINUOUS
 62
    7
 10
70.75
 20
194.94068542494938
 11
73.687164737917072
 21
197.87785016286645
  0
LINE
  8
_0-1_作画層１
  6
CONTINUOUS
 62
    7
 10
70.828586094154389
 20
194.87785016286645
 11
73.75
 21
197.79926406871206
  0
LINE
  8
_0-1_作画層１
  6
CONTINUOUS
 62
    7
 10
70.970007450391677
 20
194.87785016286645
 11
73.75
 21
197.65784271247475
  0
LINE
  8
_0-1_作画層１
  6
CONTINUOUS
 62
    7
 10
71.111428806628965
 20
194.87785016286645
 11
73.75
 21
197.51642135623752
  0
LINE
  8
_0-1_作画層１
  6
CONTINUOUS
 62
    7
 10
71.252850162866309
 20
194.87785016286645
 11
73.75
 21
197.37500000000017
  0
LINE
  8
_0-1_作画層１
  6
CONTINUOUS
 62
    7
 10
71.394271519103569
 20
194.87785016286645
 11
73.75
 21
197.23357864376288
  0
LINE
  8
_0-1_作画層１
  6
CONTINUOUS
 62
    7
 10
71.535692875340857
 20
194.87785016286645
 11
73.75
 21
197.09215728752559
  0
LINE
  8
_0-1_作画層１
  6
CONTINUOUS
 62
    7
 10
73.75
 20
196.95073593128831
 11
71.677114231578173
 21
194.87785016286645
  0
LINE
  8
_0-1_作画層１
  6
CONTINUOUS
 62
    7
 10
71.818535587815461
 20
194.87785016286645
 11
73.75
 21
196.80931457505099
  0
LINE
  8
_0-1_作画層１
  6
CONTINUOUS
 62
    7
 10
71.959956944052777
 20
194.87785016286645
 11
73.75
 21
196.66789321881367
  0
LINE
  8
_0-1_作画層１
  6
CONTINUOUS
 62
    7
 10
72.101378300290065
 20
194.87785016286645
 11
73.75
 21
196.52647186257639
  0
LINE
  8
_0-1_作画層１
  6
CONTINUOUS
 62
    7
 10
73.75
 20
196.3850505063391
 11
72.242799656527382
 21
194.87785016286645
  0
LINE
  8
_0-1_作画層１
  6
CONTINUOUS
 62
    7
 10
73.75
 20
196.24362915010178
 11
72.384221012764669
 21
194.87785016286645
  0
LINE
  8
_0-1_作画層１
  6
CONTINUOUS
 62
    7
 10
72.525642369001957
 20
194.87785016286645
 11
73.75
 21
196.10220779386449
  0
LINE
  8
_0-1_作画層１
  6
CONTINUOUS
 62
    7
 10
72.667063725239302
 20
194.87785016286645
 11
73.75
 21
195.96078643762718
  0
LINE
  8
_0-1_作画層１
  6
CONTINUOUS
 62
    7
 10
72.80848508147659
 20
194.87785016286645
 11
73.75
 21
195.81936508138983
  0
LINE
  8
_0-1_作画層１
  6
CONTINUOUS
 62
    7
 10
72.949906437713878
 20
194.87785016286645
 11
73.75
 21
195.67794372515257
  0
LINE
  8
_0-1_作画層１
  6
CONTINUOUS
 62
    7
 10
73.75
 20
195.53652236891526
 11
73.091327793951223
 21
194.87785016286645
  0
LINE
  8
_0-1_作画層１
  6
CONTINUOUS
 62
    7
 10
73.232749150188511
 20
194.87785016286645
 11
73.75
 21
195.39510101267791
  0
LINE
  8
_0-1_作画層１
  6
CONTINUOUS
 62
    7
 10
73.374170506425799
 20
194.87785016286645
 11
73.75
 21
195.25367965644065
  0
LINE
  8
_0-1_作画層１
  6
CONTINUOUS
 62
    7
 10
73.515591862663086
 20
194.87785016286645
 11
73.75
 21
195.11225830020337
  0
LINE
  8
_0-1_作画層１
  6
CONTINUOUS
 62
    7
 10
73.657013218900403
 20
194.87785016286645
 11
73.75
 21
194.97083694396605
  0
LINE
  8
_0-1_作画層１
  6
CONTINUOUS
 62
    7
 10
65.75
 20
200.87785016286645
 11
68.75
 21
200.87785016286645
  0
LINE
  8
_0-1_作画層１
  6
CONTINUOUS
 62
    7
 10
65.75
 20
194.87785016286645
 11
68.75
 21
194.87785016286645
  0
LINE
  8
_0-1_作画層１
  6
CONTINUOUS
 62
    7
 10
65.75
 20
197.87785016286645
 11
68.75
 21
197.87785016286645
  0
LINE
  8
_0-1_作画層１
  6
CONTINUOUS
 62
    7
 10
68.75
 20
194.87785016286645
 11
68.75
 21
200.87785016286645
  0
LINE
  8
_0-1_作画層１
  6
CONTINUOUS
 62
    7
 10
65.75
 20
200.87785016286645
 11
65.75
 21
194.87785016286645
  0
LINE
  8
_0-1_作画層１
  6
CONTINUOUS
 62
    7
 10
68.75
 20
197.87785016286645
 11
65.75
 21
197.87785016286645
  0
LINE
  8
_0-1_作画層１
  6
CONTINUOUS
 62
    7
 10
65.75
 20
197.87785016286645
 11
65.75
 21
194.87785016286645
  0
LINE
  8
_0-1_作画層１
  6
CONTINUOUS
 62
    7
 10
65.75
 20
194.87785016286645
 11
68.75
 21
194.87785016286645
  0
LINE
  8
_0-1_作画層１
  6
CONTINUOUS
 62
    7
 10
68.75
 20
194.87785016286645
 11
68.75
 21
197.87785016286645
  0
LINE
  8
_0-1_作画層１
  6
CONTINUOUS
 62
    7
 10
65.858737613171002
 20
197.87785016286645
 11
65.75
 21
197.76911254969545
  0
LINE
  8
_0-1_作画層１
  6
CONTINUOUS
 62
    7
 10
65.75
 20
197.62769119345813
 11
66.000158969408318
 21
197.87785016286645
  0
LINE
  8
_0-1_作画層１
  6
CONTINUOUS
 62
    7
 10
65.75
 20
197.48626983722085
 11
66.141580325645606
 21
197.87785016286645
  0
LINE
  8
_0-1_作画層１
  6
CONTINUOUS
 62
    7
 10
66.283001681882922
 20
197.87785016286645
 11
65.75
 21
197.34484848098353
  0
LINE
  8
_0-1_作画層１
  6
CONTINUOUS
 62
    7
 10
66.424423038120239
 20
197.87785016286645
 11
65.75
 21
197.20342712474621
  0
LINE
  8
_0-1_作画層１
  6
CONTINUOUS
 62
    7
 10
65.75
 20
197.0620057685089
 11
66.565844394357555
 21
197.87785016286645
  0
LINE
  8
_0-1_作画層１
  6
CONTINUOUS
 62
    7
 10
66.707265750594843
 20
197.87785016286645
 11
65.75
 21
196.92058441227161
  0
LINE
  8
_0-1_作画層１
  6
CONTINUOUS
 62
    7
 10
66.848687106832102
 20
197.87785016286645
 11
65.75
 21
196.77916305603435
  0
LINE
  8
_0-1_作画層１
  6
CONTINUOUS
 62
    7
 10
65.75
 20
196.63774169979706
 11
66.990108463069419
 21
197.87785016286645
  0
LINE
  8
_0-1_作画層１
  6
CONTINUOUS
 62
    7
 10
65.75
 20
196.49632034355972
 11
67.131529819306735
 21
197.87785016286645
  0
LINE
  8
_0-1_作画層１
  6
CONTINUOUS
 62
    7
 10
65.75
 20
196.35489898732243
 11
67.272951175544051
 21
197.87785016286645
  0
LINE
  8
_0-1_作画層１
  6
CONTINUOUS
 62
    7
 10
65.75
 20
196.21347763108511
 11
67.414372531781339
 21
197.87785016286645
  0
LINE
  8
_0-1_作画層１
  6
CONTINUOUS
 62
    7
 10
65.75
 20
196.0720562748478
 11
67.555793888018684
 21
197.87785016286645
  0
LINE
  8
_0-1_作画層１
  6
CONTINUOUS
 62
    7
 10
65.75
 20
195.93063491861051
 11
67.697215244255972
 21
197.87785016286645
  0
LINE
  8
_0-1_作画層１
  6
CONTINUOUS
 62
    7
 10
65.75
 20
195.78921356237316
 11
67.83863660049326
 21
197.87785016286645
  0
LINE
  8
_0-1_作画層１
  6
CONTINUOUS
 62
    7
 10
65.75
 20
195.64779220613593
 11
67.980057956730519
 21
197.87785016286645
  0
LINE
  8
_0-1_作画層１
  6
CONTINUOUS
 62
    7
 10
65.75
 20
195.50637084989859
 11
68.121479312967864
 21
197.87785016286645
  0
LINE
  8
_0-1_作画層１
  6
CONTINUOUS
 62
    7
 10
65.75
 20
195.3649494936613
 11
68.262900669205152
 21
197.87785016286645
  0
LINE
  8
_0-1_作画層１
  6
CONTINUOUS
 62
    7
 10
68.404322025442468
 20
197.87785016286645
 11
65.75
 21
195.22352813742398
  0
LINE
  8
_0-1_作画層１
  6
CONTINUOUS
 62
    7
 10
65.75
 20
195.08210678118667
 11
68.545743381679785
 21
197.87785016286645
  0
LINE
  8
_0-1_作画層１
  6
CONTINUOUS
 62
    7
 10
65.75
 20
194.94068542494938
 11
68.687164737917072
 21
197.87785016286645
  0
LINE
  8
_0-1_作画層１
  6
CONTINUOUS
 62
    7
 10
65.828586094154389
 20
194.87785016286645
 11
68.75
 21
197.79926406871206
  0
LINE
  8
_0-1_作画層１
  6
CONTINUOUS
 62
    7
 10
65.970007450391677
 20
194.87785016286645
 11
68.75
 21
197.65784271247475
  0
LINE
  8
_0-1_作画層１
  6
CONTINUOUS
 62
    7
 10
66.111428806628965
 20
194.87785016286645
 11
68.75
 21
197.51642135623752
  0
LINE
  8
_0-1_作画層１
  6
CONTINUOUS
 62
    7
 10
66.252850162866309
 20
194.87785016286645
 11
68.75
 21
197.37500000000017
  0
LINE
  8
_0-1_作画層１
  6
CONTINUOUS
 62
    7
 10
66.394271519103569
 20
194.87785016286645
 11
68.75
 21
197.23357864376288
  0
LINE
  8
_0-1_作画層１
  6
CONTINUOUS
 62
    7
 10
66.535692875340857
 20
194.87785016286645
 11
68.75
 21
197.09215728752559
  0
LINE
  8
_0-1_作画層１
  6
CONTINUOUS
 62
    7
 10
68.75
 20
196.95073593128831
 11
66.677114231578173
 21
194.87785016286645
  0
LINE
  8
_0-1_作画層１
  6
CONTINUOUS
 62
    7
 10
66.818535587815461
 20
194.87785016286645
 11
68.75
 21
196.80931457505099
  0
LINE
  8
_0-1_作画層１
  6
CONTINUOUS
 62
    7
 10
66.959956944052777
 20
194.87785016286645
 11
68.75
 21
196.66789321881367
  0
LINE
  8
_0-1_作画層１
  6
CONTINUOUS
 62
    7
 10
67.101378300290065
 20
194.87785016286645
 11
68.75
 21
196.52647186257639
  0
LINE
  8
_0-1_作画層１
  6
CONTINUOUS
 62
    7
 10
68.75
 20
196.3850505063391
 11
67.242799656527382
 21
194.87785016286645
  0
LINE
  8
_0-1_作画層１
  6
CONTINUOUS
 62
    7
 10
68.75
 20
196.24362915010178
 11
67.384221012764669
 21
194.87785016286645
  0
LINE
  8
_0-1_作画層１
  6
CONTINUOUS
 62
    7
 10
67.525642369001957
 20
194.87785016286645
 11
68.75
 21
196.10220779386449
  0
LINE
  8
_0-1_作画層１
  6
CONTINUOUS
 62
    7
 10
67.667063725239302
 20
194.87785016286645
 11
68.75
 21
195.96078643762718
  0
LINE
  8
_0-1_作画層１
  6
CONTINUOUS
 62
    7
 10
67.80848508147659
 20
194.87785016286645
 11
68.75
 21
195.81936508138983
  0
LINE
  8
_0-1_作画層１
  6
CONTINUOUS
 62
    7
 10
67.949906437713878
 20
194.87785016286645
 11
68.75
 21
195.67794372515257
  0
LINE
  8
_0-1_作画層１
  6
CONTINUOUS
 62
    7
 10
68.75
 20
195.53652236891526
 11
68.091327793951223
 21
194.87785016286645
  0
LINE
  8
_0-1_作画層１
  6
CONTINUOUS
 62
    7
 10
68.232749150188511
 20
194.87785016286645
 11
68.75
 21
195.39510101267791
  0
LINE
  8
_0-1_作画層１
  6
CONTINUOUS
 62
    7
 10
68.374170506425799
 20
194.87785016286645
 11
68.75
 21
195.25367965644065
  0
LINE
  8
_0-1_作画層１
  6
CONTINUOUS
 62
    7
 10
68.515591862663086
 20
194.87785016286645
 11
68.75
 21
195.11225830020337
  0
LINE
  8
_0-1_作画層１
  6
CONTINUOUS
 62
    7
 10
68.657013218900403
 20
194.87785016286645
 11
68.75
 21
194.97083694396605
  0
LINE
  8
_0-1_作画層１
  6
CONTINUOUS
 62
    7
 10
60.75
 20
200.87785016286645
 11
63.75
 21
200.87785016286645
  0
LINE
  8
_0-1_作画層１
  6
CONTINUOUS
 62
    7
 10
60.75
 20
194.87785016286645
 11
63.75
 21
194.87785016286645
  0
LINE
  8
_0-1_作画層１
  6
CONTINUOUS
 62
    7
 10
60.75
 20
197.87785016286645
 11
63.75
 21
197.87785016286645
  0
LINE
  8
_0-1_作画層１
  6
CONTINUOUS
 62
    7
 10
63.75
 20
194.87785016286645
 11
63.75
 21
200.87785016286645
  0
LINE
  8
_0-1_作画層１
  6
CONTINUOUS
 62
    7
 10
60.75
 20
200.87785016286645
 11
60.75
 21
194.87785016286645
  0
LINE
  8
_0-1_作画層１
  6
CONTINUOUS
 62
    7
 10
63.75
 20
197.87785016286645
 11
60.75
 21
197.87785016286645
  0
LINE
  8
_0-1_作画層１
  6
CONTINUOUS
 62
    7
 10
60.75
 20
197.87785016286645
 11
60.75
 21
194.87785016286645
  0
LINE
  8
_0-1_作画層１
  6
CONTINUOUS
 62
    7
 10
60.75
 20
194.87785016286645
 11
63.75
 21
194.87785016286645
  0
LINE
  8
_0-1_作画層１
  6
CONTINUOUS
 62
    7
 10
63.75
 20
194.87785016286645
 11
63.75
 21
197.87785016286645
  0
LINE
  8
_0-1_作画層１
  6
CONTINUOUS
 62
    7
 10
60.858737613171002
 20
197.87785016286645
 11
60.75
 21
197.76911254969545
  0
LINE
  8
_0-1_作画層１
  6
CONTINUOUS
 62
    7
 10
60.75
 20
197.62769119345813
 11
61.000158969408318
 21
197.87785016286645
  0
LINE
  8
_0-1_作画層１
  6
CONTINUOUS
 62
    7
 10
60.75
 20
197.48626983722085
 11
61.141580325645606
 21
197.87785016286645
  0
LINE
  8
_0-1_作画層１
  6
CONTINUOUS
 62
    7
 10
61.283001681882922
 20
197.87785016286645
 11
60.75
 21
197.34484848098353
  0
LINE
  8
_0-1_作画層１
  6
CONTINUOUS
 62
    7
 10
61.424423038120239
 20
197.87785016286645
 11
60.75
 21
197.20342712474621
  0
LINE
  8
_0-1_作画層１
  6
CONTINUOUS
 62
    7
 10
60.75
 20
197.0620057685089
 11
61.565844394357555
 21
197.87785016286645
  0
LINE
  8
_0-1_作画層１
  6
CONTINUOUS
 62
    7
 10
61.707265750594843
 20
197.87785016286645
 11
60.75
 21
196.92058441227161
  0
LINE
  8
_0-1_作画層１
  6
CONTINUOUS
 62
    7
 10
61.848687106832102
 20
197.87785016286645
 11
60.75
 21
196.77916305603435
  0
LINE
  8
_0-1_作画層１
  6
CONTINUOUS
 62
    7
 10
60.75
 20
196.63774169979706
 11
61.990108463069419
 21
197.87785016286645
  0
LINE
  8
_0-1_作画層１
  6
CONTINUOUS
 62
    7
 10
60.75
 20
196.49632034355972
 11
62.131529819306735
 21
197.87785016286645
  0
LINE
  8
_0-1_作画層１
  6
CONTINUOUS
 62
    7
 10
60.75
 20
196.35489898732243
 11
62.272951175544051
 21
197.87785016286645
  0
LINE
  8
_0-1_作画層１
  6
CONTINUOUS
 62
    7
 10
60.75
 20
196.21347763108511
 11
62.414372531781339
 21
197.87785016286645
  0
LINE
  8
_0-1_作画層１
  6
CONTINUOUS
 62
    7
 10
60.75
 20
196.0720562748478
 11
62.555793888018684
 21
197.87785016286645
  0
LINE
  8
_0-1_作画層１
  6
CONTINUOUS
 62
    7
 10
60.75
 20
195.93063491861051
 11
62.697215244255972
 21
197.87785016286645
  0
LINE
  8
_0-1_作画層１
  6
CONTINUOUS
 62
    7
 10
60.75
 20
195.78921356237316
 11
62.83863660049326
 21
197.87785016286645
  0
LINE
  8
_0-1_作画層１
  6
CONTINUOUS
 62
    7
 10
60.75
 20
195.64779220613593
 11
62.980057956730519
 21
197.87785016286645
  0
LINE
  8
_0-1_作画層１
  6
CONTINUOUS
 62
    7
 10
60.75
 20
195.50637084989859
 11
63.121479312967864
 21
197.87785016286645
  0
LINE
  8
_0-1_作画層１
  6
CONTINUOUS
 62
    7
 10
60.75
 20
195.3649494936613
 11
63.262900669205152
 21
197.87785016286645
  0
LINE
  8
_0-1_作画層１
  6
CONTINUOUS
 62
    7
 10
63.404322025442468
 20
197.87785016286645
 11
60.75
 21
195.22352813742398
  0
LINE
  8
_0-1_作画層１
  6
CONTINUOUS
 62
    7
 10
60.75
 20
195.08210678118667
 11
63.545743381679785
 21
197.87785016286645
  0
LINE
  8
_0-1_作画層１
  6
CONTINUOUS
 62
    7
 10
60.75
 20
194.94068542494938
 11
63.687164737917072
 21
197.87785016286645
  0
LINE
  8
_0-1_作画層１
  6
CONTINUOUS
 62
    7
 10
60.828586094154389
 20
194.87785016286645
 11
63.75
 21
197.79926406871206
  0
LINE
  8
_0-1_作画層１
  6
CONTINUOUS
 62
    7
 10
60.970007450391677
 20
194.87785016286645
 11
63.75
 21
197.65784271247475
  0
LINE
  8
_0-1_作画層１
  6
CONTINUOUS
 62
    7
 10
61.111428806628965
 20
194.87785016286645
 11
63.75
 21
197.51642135623752
  0
LINE
  8
_0-1_作画層１
  6
CONTINUOUS
 62
    7
 10
61.252850162866309
 20
194.87785016286645
 11
63.75
 21
197.37500000000017
  0
LINE
  8
_0-1_作画層１
  6
CONTINUOUS
 62
    7
 10
61.394271519103569
 20
194.87785016286645
 11
63.75
 21
197.23357864376288
  0
LINE
  8
_0-1_作画層１
  6
CONTINUOUS
 62
    7
 10
61.535692875340857
 20
194.87785016286645
 11
63.75
 21
197.09215728752559
  0
LINE
  8
_0-1_作画層１
  6
CONTINUOUS
 62
    7
 10
63.75
 20
196.95073593128831
 11
61.677114231578173
 21
194.87785016286645
  0
LINE
  8
_0-1_作画層１
  6
CONTINUOUS
 62
    7
 10
61.818535587815461
 20
194.87785016286645
 11
63.75
 21
196.80931457505099
  0
LINE
  8
_0-1_作画層１
  6
CONTINUOUS
 62
    7
 10
61.959956944052777
 20
194.87785016286645
 11
63.75
 21
196.66789321881367
  0
LINE
  8
_0-1_作画層１
  6
CONTINUOUS
 62
    7
 10
62.101378300290065
 20
194.87785016286645
 11
63.75
 21
196.52647186257639
  0
LINE
  8
_0-1_作画層１
  6
CONTINUOUS
 62
    7
 10
63.75
 20
196.3850505063391
 11
62.242799656527382
 21
194.87785016286645
  0
LINE
  8
_0-1_作画層１
  6
CONTINUOUS
 62
    7
 10
63.75
 20
196.24362915010178
 11
62.384221012764669
 21
194.87785016286645
  0
LINE
  8
_0-1_作画層１
  6
CONTINUOUS
 62
    7
 10
62.525642369001957
 20
194.87785016286645
 11
63.75
 21
196.10220779386449
  0
LINE
  8
_0-1_作画層１
  6
CONTINUOUS
 62
    7
 10
62.667063725239302
 20
194.87785016286645
 11
63.75
 21
195.96078643762718
  0
LINE
  8
_0-1_作画層１
  6
CONTINUOUS
 62
    7
 10
62.80848508147659
 20
194.87785016286645
 11
63.75
 21
195.81936508138983
  0
LINE
  8
_0-1_作画層１
  6
CONTINUOUS
 62
    7
 10
62.949906437713878
 20
194.87785016286645
 11
63.75
 21
195.67794372515257
  0
LINE
  8
_0-1_作画層１
  6
CONTINUOUS
 62
    7
 10
63.75
 20
195.53652236891526
 11
63.091327793951223
 21
194.87785016286645
  0
LINE
  8
_0-1_作画層１
  6
CONTINUOUS
 62
    7
 10
63.232749150188511
 20
194.87785016286645
 11
63.75
 21
195.39510101267791
  0
LINE
  8
_0-1_作画層１
  6
CONTINUOUS
 62
    7
 10
63.374170506425799
 20
194.87785016286645
 11
63.75
 21
195.25367965644065
  0
LINE
  8
_0-1_作画層１
  6
CONTINUOUS
 62
    7
 10
63.515591862663086
 20
194.87785016286645
 11
63.75
 21
195.11225830020337
  0
LINE
  8
_0-1_作画層１
  6
CONTINUOUS
 62
    7
 10
63.657013218900403
 20
194.87785016286645
 11
63.75
 21
194.97083694396605
  0
LINE
  8
_0-1_作画層１
  6
CONTINUOUS
 62
    7
 10
74.886750000000006
 20
176.25
 11
79.886750000000006
 21
176.25
  0
LINE
  8
_0-1_作画層１
  6
CONTINUOUS
 62
    7
 10
79.886750000000006
 20
176.25
 11
79.886750000000006
 21
181.25
  0
LINE
  8
_0-1_作画層１
  6
CONTINUOUS
 62
    7
 10
79.886750000000006
 20
181.25
 11
74.886750000000006
 21
181.25
  0
LINE
  8
_0-1_作画層１
  6
CONTINUOUS
 62
    7
 10
74.886750000000006
 20
181.25
 11
74.886750000000006
 21
176.25
  0
LINE
  8
_0-1_作画層１
  6
CONTINUOUS
 62
    7
 10
68
 20
176.25
 11
73
 21
176.25
  0
LINE
  8
_0-1_作画層１
  6
CONTINUOUS
 62
    7
 10
73
 20
176.25
 11
73
 21
181.25
  0
LINE
  8
_0-1_作画層１
  6
CONTINUOUS
 62
    7
 10
73
 20
181.25
 11
68
 21
181.25
  0
LINE
  8
_0-1_作画層１
  6
CONTINUOUS
 62
    7
 10
68
 20
181.25
 11
68
 21
176.25
  0
TEXT
  8
_0-7_注記層１
 62
    7
 10
67.900000000000006
 20
173.125
 40
2.6000000000000001
 41
1
 50
0
  1
WEEK
  0
LINE
  8
_0-1_作画層１
  6
CONTINUOUS
 62
    7
 10
86.5
 20
176.25
 11
81.5
 21
176.25
  0
LINE
  8
_0-1_作画層１
  6
CONTINUOUS
 62
    7
 10
81.5
 20
176.25
 11
81.5
 21
181.25
  0
LINE
  8
_0-1_作画層１
  6
CONTINUOUS
 62
    7
 10
81.5
 20
181.25
 11
86.5
 21
181.25
  0
LINE
  8
_0-1_作画層１
  6
CONTINUOUS
 62
    7
 10
86.5
 20
181.25
 11
86.5
 21
176.25
  0
TEXT
  8
_0-7_注記層１
 62
    7
 10
83.224999999999994
 20
173.125
 40
2.6000000000000001
 41
1
 50
0
  1
C
  0
LINE
  8
_0-1_作画層１
  6
CONTINUOUS
 62
    7
 10
74.886750000000006
 20
183.75
 11
79.886750000000006
 21
183.75
  0
LINE
  8
_0-1_作画層１
  6
CONTINUOUS
 62
    7
 10
79.886750000000006
 20
183.75
 11
79.886750000000006
 21
188.75
  0
LINE
  8
_0-1_作画層１
  6
CONTINUOUS
 62
    7
 10
79.886750000000006
 20
188.75
 11
74.886750000000006
 21
188.75
  0
LINE
  8
_0-1_作画層１
  6
CONTINUOUS
 62
    7
 10
74.886750000000006
 20
188.75
 11
74.886750000000006
 21
183.75
  0
LINE
  8
_0-1_作画層１
  6
CONTINUOUS
 62
    7
 10
68
 20
183.75
 11
73
 21
183.75
  0
LINE
  8
_0-1_作画層１
  6
CONTINUOUS
 62
    7
 10
73
 20
183.75
 11
73
 21
188.75
  0
LINE
  8
_0-1_作画層１
  6
CONTINUOUS
 62
    7
 10
73
 20
188.75
 11
68
 21
188.75
  0
LINE
  8
_0-1_作画層１
  6
CONTINUOUS
 62
    7
 10
68
 20
188.75
 11
68
 21
183.75
  0
LINE
  8
_0-1_作画層１
  6
CONTINUOUS
 62
    7
 10
86.5
 20
183.75
 11
81.5
 21
183.75
  0
LINE
  8
_0-1_作画層１
  6
CONTINUOUS
 62
    7
 10
81.5
 20
183.75
 11
81.5
 21
188.75
  0
LINE
  8
_0-1_作画層１
  6
CONTINUOUS
 62
    7
 10
81.5
 20
188.75
 11
86.5
 21
188.75
  0
LINE
  8
_0-1_作画層１
  6
CONTINUOUS
 62
    7
 10
86.5
 20
188.75
 11
86.5
 21
183.75
  0
TEXT
  8
_0-7_注記層１
 62
    7
 10
69.349999999999994
 20
188.75
 40
2.6000000000000001
 41
1
 50
0
  1
H
  0
TEXT
  8
_0-7_注記層１
 62
    7
 10
76.849999999999994
 20
188.75
 40
2.6000000000000001
 41
1
 50
0
  1
M
  0
TEXT
  8
_0-7_注記層１
 62
    7
 10
82.549999999999997
 20
188.75
 40
2.6000000000000001
 41
1
 50
0
  1
SET
  0
ARC
  8
_0-1_作画層１
  6
CONTINUOUS
 62
    7
 10
58.349999999999966
 20
209.55000000000001
 40
0.9999999999999855
 50
180
 51
270.00000000000119
  0
LINE
  8
_0-1_作画層１
  6
CONTINUOUS
 62
    7
 10
96.600000000000009
 20
208.55000000000001
 11
58.349999999999994
 21
208.55000000000001
  0
ARC
  8
_0-1_作画層１
  6
CONTINUOUS
 62
    7
 10
96.600000000000023
 20
209.54999999999998
 40
0.9999999999999713
 50
269.9999999999992
 51
0.0000000000016284
  0
ARC
  8
_0-1_作画層１
  6
CONTINUOUS
 62
    7
 10
53.25
 20
153.25
 40
0.9999999999999855
 50
180
 51
270.0000000000008
  0
ARC
  8
_0-1_作画層１
  6
CONTINUOUS
 62
    7
 10
101.25000000000001
 20
153.24999999999997
 40
0.9999999999999713
 50
269.9999999999992
 51
0.0000000000016284
  0
ARC
  8
_0-1_作画層１
  6
CONTINUOUS
 62
    7
 10
101.25000000000001
 20
251.25000000000003
 40
0.9999999999999713
 50
359.99999999999835
 51
90.00000000000081
  0
LINE
  8
_0-1_作画層１
  6
CONTINUOUS
 62
    7
 10
101.25
 20
252.25
 11
53.25
 21
252.25
  0
ARC
  8
_0-1_作画層１
  6
CONTINUOUS
 62
    7
 10
53.25
 20
251.25
 40
1
 50
89.99999999999919
 51
180
  0
LINE
  8
_0-1_作画層１
  6
CONTINUOUS
 62
    7
 10
58.900000000000006
 20
153.5
 11
95.899999999999977
 21
153.5
  0
CIRCLE
  8
_0-1_作画層１
  6
CONTINUOUS
 62
    7
 10
62.8125
 20
162.25
 40
3.5
  0
LINE
  8
_0-1_作画層１
  6
CONTINUOUS
 62
    7
 10
61.9375
 20
165.3125
 11
63.6875
 21
165.3125
  0
LINE
  8
_0-1_作画層１
  6
CONTINUOUS
 62
    7
 10
63.6875
 20
159.1875
 11
61.9375
 21
159.1875
  0
LINE
  8
_0-1_作画層１
  6
CONTINUOUS
 62
    7
 10
65.875
 20
163.125
 11
65.875
 21
161.375
  0
LINE
  8
_0-1_作画層１
  6
CONTINUOUS
 62
    7
 10
59.75
 20
161.375
 11
59.75
 21
163.125
  0
ARC
  8
_0-1_作画層１
  6
CONTINUOUS
 62
    7
 10
61.237499999999983
 20
163.82500000000002
 40
0.700000000000024
 50
270.0000000000029
 51
359.99999999999767
  0
LINE
  8
_0-1_作画層１
  6
CONTINUOUS
 62
    7
 10
59.75
 20
161.375
 11
61.237500000000011
 21
161.375
  0
ARC
  8
_0-1_作画層１
  6
CONTINUOUS
 62
    7
 10
61.237499999999983
 20
160.67499999999998
 40
0.700000000000017
 50
0.0000000000023263
 51
89.999999999997101
  0
LINE
  8
_0-1_作画層１
  6
CONTINUOUS
 62
    7
 10
65.875
 20
163.125
 11
64.387499999999989
 21
163.125
  0
ARC
  8
_0-1_作画層１
  6
CONTINUOUS
 62
    7
 10
64.387500000000017
 20
163.82500000000002
 40
0.700000000000017
 50
180.0000000000023
 51
269.9999999999971
  0
LINE
  8
_0-1_作画層１
  6
CONTINUOUS
 62
    7
 10
61.237500089009643
 20
163.125
 11
59.75
 21
163.125
  0
LINE
  8
_0-1_作画層１
  6
CONTINUOUS
 62
    7
 10
65.875
 20
161.375
 11
64.387499999999989
 21
161.375
  0
LINE
  8
_0-1_作画層１
  6
CONTINUOUS
 62
    7
 10
63.6875
 20
159.1875
 11
63.6875
 21
160.67500000000001
  0
ARC
  8
_0-1_作画層１
  6
CONTINUOUS
 62
    7
 10
64.387500000000017
 20
160.67499999999998
 40
0.700000000000017
 50
90.000000000002913
 51
179.9999999999977
  0
LINE
  8
_0-1_作画層１
  6
CONTINUOUS
 62
    7
 10
61.9375
 20
163.82499999999999
 11
61.9375
 21
165.3125
  0
LINE
  8
_0-1_作画層１
  6
CONTINUOUS
 62
    7
 10
61.9375
 20
160.67500000000001
 11
61.9375
 21
159.1875
  0
LINE
  8
_0-1_作画層１
  6
CONTINUOUS
 62
    7
 10
63.6875
 20
163.82499999999999
 11
63.6875
 21
165.3125
  0
CIRCLE
  8
_0-1_作画層１
  6
CONTINUOUS
 62
    7
 10
72.399999999999977
 20
162.25
 40
3.5
  0
LINE
  8
_0-1_作画層１
  6
CONTINUOUS
 62
    7
 10
71.524999999999977
 20
165.3125
 11
73.274999999999977
 21
165.3125
  0
LINE
  8
_0-1_作画層１
  6
CONTINUOUS
 62
    7
 10
73.274999999999977
 20
159.1875
 11
71.524999999999977
 21
159.1875
  0
LINE
  8
_0-1_作画層１
  6
CONTINUOUS
 62
    7
 10
75.462499999999977
 20
163.125
 11
75.462499999999977
 21
161.375
  0
LINE
  8
_0-1_作画層１
  6
CONTINUOUS
 62
    7
 10
69.337499999999977
 20
161.375
 11
69.337499999999977
 21
163.125
  0
ARC
  8
_0-1_作画層１
  6
CONTINUOUS
 62
    7
 10
70.824999999999932
 20
163.82500000000002
 40
0.7000000000000311
 50
270.00000000000347
 51
359.99999999999767
  0
LINE
  8
_0-1_作画層１
  6
CONTINUOUS
 62
    7
 10
69.337499999999977
 20
161.375
 11
70.824999999999989
 21
161.375
  0
ARC
  8
_0-1_作画層１
  6
CONTINUOUS
 62
    7
 10
70.824999999999932
 20
160.67499999999998
 40
0.700000000000017
 50
0.0000000000023263
 51
89.999999999996504
  0
LINE
  8
_0-1_作画層１
  6
CONTINUOUS
 62
    7
 10
75.462499999999977
 20
163.125
 11
73.974999999999966
 21
163.125
  0
ARC
  8
_0-1_作画層１
  6
CONTINUOUS
 62
    7
 10
73.975000000000023
 20
163.82500000000002
 40
0.700000000000017
 50
180.0000000000023
 51
269.99999999999648
  0
LINE
  8
_0-1_作画層１
  6
CONTINUOUS
 62
    7
 10
70.82500008900962
 20
163.125
 11
69.337499999999977
 21
163.125
  0
LINE
  8
_0-1_作画層１
  6
CONTINUOUS
 62
    7
 10
75.462499999999977
 20
161.375
 11
73.974999999999966
 21
161.375
  0
LINE
  8
_0-1_作画層１
  6
CONTINUOUS
 62
    7
 10
73.274999999999977
 20
159.1875
 11
73.274999999999977
 21
160.67500000000001
  0
ARC
  8
_0-1_作画層１
  6
CONTINUOUS
 62
    7
 10
73.975000000000023
 20
160.67499999999998
 40
0.700000000000017
 50
90.000000000003496
 51
179.9999999999977
  0
LINE
  8
_0-1_作画層１
  6
CONTINUOUS
 62
    7
 10
71.524999999999977
 20
163.82499999999999
 11
71.524999999999977
 21
165.3125
  0
LINE
  8
_0-1_作画層１
  6
CONTINUOUS
 62
    7
 10
71.524999999999977
 20
160.67500000000001
 11
71.524999999999977
 21
159.1875
  0
LINE
  8
_0-1_作画層１
  6
CONTINUOUS
 62
    7
 10
73.274999999999977
 20
163.82499999999999
 11
73.274999999999977
 21
165.3125
  0
CIRCLE
  8
_0-1_作画層１
  6
CONTINUOUS
 62
    7
 10
81.987499999999955
 20
162.25
 40
3.5
  0
LINE
  8
_0-1_作画層１
  6
CONTINUOUS
 62
    7
 10
81.112499999999955
 20
165.3125
 11
82.862499999999955
 21
165.3125
  0
LINE
  8
_0-1_作画層１
  6
CONTINUOUS
 62
    7
 10
82.862499999999955
 20
159.1875
 11
81.112499999999955
 21
159.1875
  0
LINE
  8
_0-1_作画層１
  6
CONTINUOUS
 62
    7
 10
85.049999999999955
 20
163.125
 11
85.049999999999955
 21
161.375
  0
LINE
  8
_0-1_作画層１
  6
CONTINUOUS
 62
    7
 10
78.924999999999955
 20
161.375
 11
78.924999999999955
 21
163.125
  0
ARC
  8
_0-1_作画層１
  6
CONTINUOUS
 62
    7
 10
80.412499999999909
 20
163.82500000000002
 40
0.7000000000000311
 50
270.00000000000347
 51
359.99999999999767
  0
LINE
  8
_0-1_作画層１
  6
CONTINUOUS
 62
    7
 10
78.924999999999955
 20
161.375
 11
80.412499999999966
 21
161.375
  0
ARC
  8
_0-1_作画層１
  6
CONTINUOUS
 62
    7
 10
80.412499999999909
 20
160.67499999999998
 40
0.700000000000017
 50
0.0000000000023263
 51
89.999999999996504
  0
LINE
  8
_0-1_作画層１
  6
CONTINUOUS
 62
    7
 10
85.049999999999955
 20
163.125
 11
83.562499999999943
 21
163.125
  0
ARC
  8
_0-1_作画層１
  6
CONTINUOUS
 62
    7
 10
83.562499999999986
 20
163.82500000000002
 40
0.700000000000017
 50
180.0000000000023
 51
269.99999999999648
  0
LINE
  8
_0-1_作画層１
  6
CONTINUOUS
 62
    7
 10
80.412500089009598
 20
163.125
 11
78.924999999999955
 21
163.125
  0
LINE
  8
_0-1_作画層１
  6
CONTINUOUS
 62
    7
 10
85.049999999999955
 20
161.375
 11
83.562499999999943
 21
161.375
  0
LINE
  8
_0-1_作画層１
  6
CONTINUOUS
 62
    7
 10
82.862499999999955
 20
159.1875
 11
82.862499999999955
 21
160.67500000000001
  0
ARC
  8
_0-1_作画層１
  6
CONTINUOUS
 62
    7
 10
83.562499999999986
 20
160.67499999999998
 40
0.700000000000017
 50
90.000000000003496
 51
179.9999999999977
  0
LINE
  8
_0-1_作画層１
  6
CONTINUOUS
 62
    7
 10
81.112499999999955
 20
163.82499999999999
 11
81.112499999999955
 21
165.3125
  0
LINE
  8
_0-1_作画層１
  6
CONTINUOUS
 62
    7
 10
81.112499999999955
 20
160.67500000000001
 11
81.112499999999955
 21
159.1875
  0
LINE
  8
_0-1_作画層１
  6
CONTINUOUS
 62
    7
 10
82.862499999999955
 20
163.82499999999999
 11
82.862499999999955
 21
165.3125
  0
CIRCLE
  8
_0-1_作画層１
  6
CONTINUOUS
 62
    7
 10
91.574999999999932
 20
162.25
 40
3.5
  0
LINE
  8
_0-1_作画層１
  6
CONTINUOUS
 62
    7
 10
90.699999999999932
 20
165.3125
 11
92.449999999999932
 21
165.3125
  0
LINE
  8
_0-1_作画層１
  6
CONTINUOUS
 62
    7
 10
92.449999999999932
 20
159.1875
 11
90.699999999999932
 21
159.1875
  0
LINE
  8
_0-1_作画層１
  6
CONTINUOUS
 62
    7
 10
94.637499999999932
 20
163.125
 11
94.637499999999932
 21
161.375
  0
LINE
  8
_0-1_作画層１
  6
CONTINUOUS
 62
    7
 10
88.512499999999932
 20
161.375
 11
88.512499999999932
 21
163.125
  0
ARC
  8
_0-1_作画層１
  6
CONTINUOUS
 62
    7
 10
89.999999999999901
 20
163.82500000000002
 40
0.7000000000000311
 50
270.00000000000347
 51
359.99999999999767
  0
LINE
  8
_0-1_作画層１
  6
CONTINUOUS
 62
    7
 10
88.512499999999932
 20
161.375
 11
89.999999999999943
 21
161.375
  0
ARC
  8
_0-1_作画層１
  6
CONTINUOUS
 62
    7
 10
89.999999999999901
 20
160.67499999999998
 40
0.700000000000017
 50
0.0000000000023263
 51
89.999999999996504
  0
LINE
  8
_0-1_作画層１
  6
CONTINUOUS
 62
    7
 10
94.637499999999932
 20
163.125
 11
93.14999999999992
 21
163.125
  0
ARC
  8
_0-1_作画層１
  6
CONTINUOUS
 62
    7
 10
93.149999999999963
 20
163.82500000000002
 40
0.700000000000017
 50
180.0000000000023
 51
269.99999999999648
  0
LINE
  8
_0-1_作画層１
  6
CONTINUOUS
 62
    7
 10
90.000000089009575
 20
163.125
 11
88.512499999999932
 21
163.125
  0
LINE
  8
_0-1_作画層１
  6
CONTINUOUS
 62
    7
 10
94.637499999999932
 20
161.375
 11
93.14999999999992
 21
161.375
  0
LINE
  8
_0-1_作画層１
  6
CONTINUOUS
 62
    7
 10
92.449999999999932
 20
159.1875
 11
92.449999999999932
 21
160.67500000000001
  0
ARC
  8
_0-1_作画層１
  6
CONTINUOUS
 62
    7
 10
93.149999999999963
 20
160.67499999999998
 40
0.700000000000017
 50
90.000000000003496
 51
179.9999999999977
  0
LINE
  8
_0-1_作画層１
  6
CONTINUOUS
 62
    7
 10
90.699999999999932
 20
163.82499999999999
 11
90.699999999999932
 21
165.3125
  0
LINE
  8
_0-1_作画層１
  6
CONTINUOUS
 62
    7
 10
90.699999999999932
 20
160.67500000000001
 11
90.699999999999932
 21
159.1875
  0
LINE
  8
_0-1_作画層１
  6
CONTINUOUS
 62
    7
 10
92.449999999999932
 20
163.82499999999999
 11
92.449999999999932
 21
165.3125
  0
LINE
  8
_0-1_作画層１
  6
CONTINUOUS
 62
    7
 10
58.900000000000006
 20
168.25
 11
58.900000000000006
 21
152.25
  0
LINE
  8
_0-1_作画層１
  6
CENTER
 62
    7
 10
77.25
 20
168.25
 11
77.25
 21
161.875
  0
LINE
  8
_0-1_作画層１
  6
CONTINUOUS
 62
    7
 10
95.899999999999977
 20
168.25
 11
95.899999999999977
 21
152.25
  0
LINE
  8
_0-1_作画層１
  6
CONTINUOUS
 62
    7
 10
53.25
 20
152.25
 11
101.25000000000001
 21
152.25
  0
LINE
  8
_0-1_作画層１
  6
CONTINUOUS
 62
    7
 10
58.900000000000006
 20
156
 11
95.899999999999977
 21
156
  0
LINE
  8
_0-1_作画層１
  6
CONTINUOUS
 62
    7
 10
66.524999999999977
 20
156
 11
66.524999999999977
 21
168.25
  0
LINE
  8
_0-1_作画層１
  6
CONTINUOUS
 62
    7
 10
68.274999999999977
 20
156
 11
68.274999999999977
 21
168.25
  0
LINE
  8
_0-1_作画層１
  6
CONTINUOUS
 62
    7
 10
86.524999999999977
 20
156
 11
86.524999999999977
 21
168.25
  0
LINE
  8
_0-1_作画層１
  6
CONTINUOUS
 62
    7
 10
88.274999999999977
 20
156
 11
88.274999999999977
 21
168.25
  0
LINE
  8
_0-1_作画層１
  6
CONTINUOUS
 62
    7
 10
78.340983005625048
 20
156
 11
78.340983005625048
 21
168.25
  0
LINE
  8
_0-1_作画層１
  6
CONTINUOUS
 62
    7
 10
76.341941738241587
 20
156
 11
76.341941738241587
 21
168.25
  0
ARC
  8
_0-1_作画層１
  6
CONTINUOUS
 62
    7
 10
101.25000000000001
 20
169.24999999999997
 40
0.9999999999999713
 50
269.9999999999992
 51
0.0000000000016284
  0
LINE
  8
_0-1_作画層１
  6
CONTINUOUS
 62
    7
 10
53.449999999999989
 20
168.875
 11
101.05
 21
168.875
  0
LINE
  8
_0-1_作画層１
  6
CONTINUOUS
 62
    7
 10
99.849999999999994
 20
169.875
 11
54.650000000000006
 21
169.875
  0
LINE
  8
_0-1_作画層１
  6
CONTINUOUS
 62
    7
 10
101.25
 20
168.25
 11
53.25
 21
168.25
  0
ARC
  8
_0-1_作画層１
  6
CONTINUOUS
 62
    7
 10
53.25
 20
169.25
 40
0.9999999999999855
 50
180
 51
270.0000000000008
  0
CIRCLE
  8
_0-1_作画層１
  6
CONTINUOUS
 62
    7
 10
77.25
 20
240.05000000000001
 40
3
  0
LINE
  8
_0-1_作画層１
  6
CONTINUOUS
 62
    7
 10
80.25
 20
240.05000000000001
 11
102.25
 21
240.05000000000001
  0
LINE
  8
_0-1_作画層１
  6
CONTINUOUS
 62
    7
 10
74.25
 20
240.05000000000001
 11
52.25
 21
240.05000000000001
  0
TEXT
  8
_0-7_注記層１
 62
    7
 10
301.125
 20
28
 40
3.5
 41
1
 50
0
  1
1/1
  0
TEXT
  8
_0-7_注記層１
 62
    7
 10
318.5
 20
28
 40
3.5
 41
1
 50
0
  1
ゴトウ
  0
TEXT
  8
_0-7_注記層１
 62
    7
 10
335.25
 20
30.5
 40
3.5
 41
1
 50
0
  1
承認
  0
TEXT
  8
_0-7_注記層１
 62
    7
 10
273.75
 20
17.25
 40
5
 41
1
 50
0
  1
スナオ電気株式会社
  0
LINE
  8
_0-1_作画層１
  6
CONTINUOUS
 62
    7
 10
268.75
 20
34.75
 11
268.75
 21
14.75
  0
LINE
  8
_0-1_作画層１
  6
CONTINUOUS
 62
    7
 10
293.75
 20
34.75
 11
293.75
 21
24.75
  0
LINE
  8
_0-1_作画層１
  6
CONTINUOUS
 62
    7
 10
313.75
 20
34.75
 11
313.75
 21
24.75
  0
LINE
  8
_0-1_作画層１
  6
CONTINUOUS
 62
    7
 10
333.75
 20
34.75
 11
333.75
 21
24.75
  0
LINE
  8
_0-1_作画層１
  6
CONTINUOUS
 62
    7
 10
358.75
 20
14.75
 11
358.75
 21
34.75
  0
TEXT
  8
_0-7_注記層１
 62
    7
 10
363.75
 20
28
 40
3.5
 41
1
 50
0
  1
カレンダータイマー
  0
LINE
  8
_0-1_作画層１
  6
CONTINUOUS
 62
    7
 10
16.25
 20
292.25
 11
16.25
 21
14.75
  0
LINE
  8
_0-1_作画層１
  6
CONTINUOUS
 62
    7
 10
413.75
 20
292.25
 11
16.25
 21
292.25
  0
LINE
  8
_0-1_作画層１
  6
CONTINUOUS
 62
    7
 10
413.75
 20
14.75
 11
413.75
 21
292.25
  0
LINE
  8
_0-1_作画層１
  6
CONTINUOUS
 62
    7
 10
413.75
 20
34.75
 11
268.75
 21
34.75
  0
LINE
  8
_0-1_作画層１
  6
CONTINUOUS
 62
    7
 10
413.75
 20
24.75
 11
268.75
 21
24.75
  0
LINE
  8
_0-1_作画層１
  6
CONTINUOUS
 62
    7
 10
413.75
 20
14.75
 11
16.25
 21
14.75
  0
TEXT
  8
_0-7_注記層１
 62
    7
 10
57
 20
185.625
 40
2.5
 41
1
 50
0
  1
SSC-502S
  0
TEXT
  8
_0-7_注記層１
 62
    7
 10
59.300000000000011
 20
203.75
 40
2.6000000000000001
 41
1
 50
0
  1
SUN
  0
TEXT
  8
_0-7_注記層１
 62
    7
 10
64.800000000000011
 20
203.75
 40
2.6000000000000001
 41
1
 50
0
  1
MON
  0
TEXT
  8
_0-7_注記層１
 62
    7
 10
70.300000000000011
 20
203.75
 40
2.6000000000000001
 41
1
 50
0
  1
TUE
  0
TEXT
  8
_0-7_注記層１
 62
    7
 10
75.550000000000011
 20
203.75
 40
2.6000000000000001
 41
1
 50
0
  1
WED
  0
TEXT
  8
_0-7_注記層１
 62
    7
 10
80.800000000000011
 20
203.75
 40
2.6000000000000001
 41
1
 50
0
  1
THU
  0
TEXT
  8
_0-7_注記層１
 62
    7
 10
85.799999999999997
 20
203.75
 40
2.6000000000000001
 41
1
 50
0
  1
FRI
  0
TEXT
  8
_0-7_注記層１
 62
    7
 10
91.049999999999997
 20
203.75
 40
2.6000000000000001
 41
1
 50
0
  1
SAT
  0
INSERT
  2
-000-_D0
  8
_0-9_寸法線層１
 10
6.25
 20
4.75
 41
1
 42
1
 50
0
  0
INSERT
  2
-001-_D1
  8
_0-9_寸法線層１
 10
6.25
 20
4.75
 41
1
 42
1
 50
0
  0
LINE
  8
_0-1_作画層１
  6
CENTER
 62
    7
 10
108.75
 20
202.25
 11
46.25
 21
202.25
  0
ARC
  8
_0-1_作画層１
  6
CONTINUOUS
 62
    7
 10
58.349999999999966
 20
229.37500000000003
 40
0.9999999999999713
 50
89.999999999998778
 51
180.00000000000162
  0
LINE
  8
_0-1_作画層１
  6
CONTINUOUS
 62
    7
 10
58.349999999999994
 20
230.375
 11
96.600000000000009
 21
230.375
  0
ARC
  8
_0-1_作画層１
  6
CONTINUOUS
 62
    7
 10
96.600000000000037
 20
229.37500000000006
 40
0.9999999999999571
 50
359.99999999999676
 51
90.000000000001634
  0
LINE
  8
_0-1_作画層１
  6
CONTINUOUS
 62
    7
 10
101.04999999999998
 20
235.25
 11
53.449999999999989
 21
235.25
  0
LINE
  8
_0-1_作画層１
  6
CONTINUOUS
 62
    7
 10
99.849999999999994
 20
234.05000000000001
 11
54.650000000000006
 21
234.05000000000001
  0
LINE
  8
_0-1_作画層１
  6
CONTINUOUS
 62
    7
 10
57.349999999999994
 20
229.37427782126389
 11
57.349999999999994
 21
209.55000000000001
  0
LINE
  8
_0-1_作画層１
  6
CONTINUOUS
 62
    7
 10
97.600000000000009
 20
229.37500000000006
 11
97.600000000000009
 21
209.55000000000001
  0
LINE
  8
_0-1_作画層１
  6
CONTINUOUS
 62
    7
 10
99.849999999999994
 20
234.05000000000001
 11
99.849999999999994
 21
169.875
  0
LINE
  8
_0-1_作画層１
  6
CONTINUOUS
 62
    7
 10
101.05
 20
235.25
 11
101.05
 21
168.875
  0
LINE
  8
_0-1_作画層１
  6
CONTINUOUS
 62
    7
 10
54.650000000000006
 20
234.05000000000001
 11
54.650000000000006
 21
169.875
  0
LINE
  8
_0-1_作画層１
  6
CONTINUOUS
 62
    7
 10
53.449999999999989
 20
235.25
 11
53.449999999999989
 21
168.875
  0
ARC
  8
_0-1_作画層１
  6
CONTINUOUS
 62
    7
 10
53.25
 20
235.25
 40
1
 50
89.99999999999919
 51
180
  0
LINE
  8
_0-1_作画層１
  6
CONTINUOUS
 62
    7
 10
53.25
 20
236.25
 11
101.25
 21
236.25
  0
ARC
  8
_0-1_作画層１
  6
CONTINUOUS
 62
    7
 10
101.25000000000001
 20
235.25000000000003
 40
0.9999999999999713
 50
359.99999999999835
 51
90.00000000000081
  0
LINE
  8
_0-1_作画層１
  6
CONTINUOUS
 62
    7
 10
102.25
 20
251.24999999709246
 11
102.25
 21
153.24999999709246
  0
LINE
  8
_0-1_作画層１
  6
CONTINUOUS
 62
    7
 10
52.25
 20
251.25000000290754
 11
52.25
 21
153.2500000029076
  0
TEXT
  8
_0-7_注記層１
 62
    7
 10
306.25
 20
263
 40
3.5
 41
1
 50
0
  1
SSC-502S
  0
LINE
  8
_0-1_作画層１
  6
CONTINUOUS
 62
    7
 10
72.350000000000023
 20
144.25
 11
72.350000000000023
 21
152.25
  0
LINE
  8
_0-1_作画層１
  6
CONTINUOUS
 62
    7
 10
82.150000000000006
 20
144.25
 11
82.150000000000006
 21
152.25
  0
LINE
  8
_0-1_作画層１
  6
CONTINUOUS
 62
    7
 10
82.150000000000006
 20
144.25
 11
72.350000000000023
 21
144.25
  0
LINE
  8
_0-1_作画層１
  6
CONTINUOUS
 62
    7
 10
73.350000000000023
 20
144.25
 11
73.350000000000023
 21
152.25
  0
LINE
  8
_0-1_作画層１
  6
CONTINUOUS
 62
    7
 10
81.150000000000006
 20
144.25
 11
81.150000000000006
 21
152.25
  0
ARC
  8
_0-1_作画層１
  6
CONTINUOUS
 62
    7
 10
77.251124192582125
 20
147.85201620832265
 40
2.0980517158902772
 50
28.403092282267664
 51
151.54471518641617
  0
ARC
  8
_0-1_作画層１
  6
CONTINUOUS
 62
    7
 10
77.244866373881933
 20
147.84152776505641
 40
2.0914573781816617
 50
208.29976609588428
 51
331.68856639210856
  0
LINE
  8
_0-1_作画層１
  6
CONTINUOUS
 62
    7
 10
74.350000000000023
 20
148.84999999999999
 11
74.350000000000023
 21
146.84999999999999
  0
LINE
  8
_0-1_作画層１
  6
CONTINUOUS
 62
    7
 10
80.150000000000006
 20
146.84999999999999
 11
80.150000000000006
 21
148.84999999999999
  0
LINE
  8
_0-1_作画層１
  6
CONTINUOUS
 62
    7
 10
79.086351279025791
 20
146.84999999999999
 11
80.150000000000006
 21
146.84999999999999
  0
LINE
  8
_0-1_作画層１
  6
CONTINUOUS
 62
    7
 10
75.403381468738075
 20
146.84999999999999
 11
74.350000000000023
 21
146.84999999999999
  0
LINE
  8
_0-1_作画層１
  6
CONTINUOUS
 62
    7
 10
75.405629853902269
 20
148.84999999999999
 11
74.350000000000023
 21
148.84999999999999
  0
LINE
  8
_0-1_作画層１
  6
CONTINUOUS
 62
    7
 10
79.096618531261981
 20
148.84999999999999
 11
80.150000000000006
 21
148.84999999999999
  0
LINE
  8
_0-1_作画層１
  6
CENTER
 62
    7
 10
77.25
 20
139.25
 11
77.25
 21
257.25
  0
INSERT
  2
-002-_D2
  8
_0-9_寸法線層１
 10
6.25
 20
4.75
 41
1
 42
1
 50
0
  0
TEXT
  8
_0-7_注記層１
 62
    7
 10
306.25
 20
164.75
 40
5
 41
1
 50
0
  1
取付寸法図
  0
LINE
  8
_0-1_作画層１
  6
CONTINUOUS
 62
    7
 10
303.75
 20
164.75
 11
333.75
 21
164.75
  0
ARC
  8
_0-1_作画層１
  6
CONTINUOUS
 62
    7
 10
295.75
 20
55.749999999999972
 40
1
 50
179.99999999999878
 51
270
  0
ARC
  8
_0-1_作画層１
  6
CONTINUOUS
 62
    7
 10
343.75
 20
55.749999999999972
 40
0.9999999999999784
 50
270
 51
0.0000000000011958
  0
ARC
  8
_0-1_作画層１
  6
CONTINUOUS
 62
    7
 10
343.75
 20
153.75000000000003
 40
0.9999999999999713
 50
359.99999999999835
 51
90.000000000000014
  0
LINE
  8
_0-1_作画層１
  6
CONTINUOUS
 62
    7
 10
343.75
 20
154.75
 11
295.75
 21
154.75
  0
ARC
  8
_0-1_作画層１
  6
CONTINUOUS
 62
    7
 10
295.75
 20
153.75000000000003
 40
0.9999999999999713
 50
90
 51
180.00000000000162
  0
LINE
  8
_0-1_作画層１
  6
CONTINUOUS
 62
    7
 10
326.75
 20
147.75
 11
340.75
 21
147.75
  0
LINE
  8
_0-1_作画層１
  6
CONTINUOUS
 62
    7
 10
326.75
 20
144.75
 11
340.75
 21
144.75
  0
LINE
  8
_0-1_作画層１
  6
CONTINUOUS
 62
    7
 10
326.75
 20
144.75
 11
326.75
 21
147.75
  0
LINE
  8
_0-1_作画層１
  6
CONTINUOUS
 62
    7
 10
340.75
 20
144.75
 11
340.75
 21
147.75
  0
LINE
  8
_0-1_作画層１
  6
CONTINUOUS
 62
    7
 10
312.75
 20
147.75
 11
298.75
 21
147.75
  0
LINE
  8
_0-1_作画層１
  6
CONTINUOUS
 62
    7
 10
312.75
 20
144.75
 11
298.75
 21
144.75
  0
LINE
  8
_0-1_作画層１
  6
CONTINUOUS
 62
    7
 10
312.75
 20
144.75
 11
312.75
 21
147.75
  0
LINE
  8
_0-1_作画層１
  6
CONTINUOUS
 62
    7
 10
298.75
 20
144.75
 11
298.75
 21
147.75
  0
LINE
  8
_0-1_作画層１
  6
CONTINUOUS
 62
    7
 10
340.75
 20
120.25
 11
332.75
 21
120.25
  0
LINE
  8
_0-1_作画層１
  6
CONTINUOUS
 62
    7
 10
332.75
 20
120.25
 11
332.75
 21
122.25
  0
LINE
  8
_0-1_作画層１
  6
CONTINUOUS
 62
    7
 10
340.75
 20
120.25
 11
340.75
 21
122.25
  0
LINE
  8
_0-1_作画層１
  6
CONTINUOUS
 62
    7
 10
298.75
 20
120.25000000000001
 11
306.75
 21
120.25000000000001
  0
LINE
  8
_0-1_作画層１
  6
CONTINUOUS
 62
    7
 10
306.75
 20
120.25000000000001
 11
306.75
 21
122.25000000000001
  0
LINE
  8
_0-1_作画層１
  6
CONTINUOUS
 62
    7
 10
298.75
 20
120.25000000000001
 11
298.75
 21
122.25000000000001
  0
CIRCLE
  8
_0-1_作画層１
  6
CONTINUOUS
 62
    7
 10
319.75
 20
142.55000000000001
 40
2
  0
CIRCLE
  8
_0-1_作画層１
  6
CONTINUOUS
 62
    7
 10
319.75
 20
142.55000000000001
 40
4
  0
LINE
  8
_0-1_作画層１
  6
CONTINUOUS
 62
    7
 10
326.75
 20
61.75
 11
340.75
 21
61.75
  0
LINE
  8
_0-1_作画層１
  6
CONTINUOUS
 62
    7
 10
326.75
 20
64.75
 11
340.75
 21
64.75
  0
LINE
  8
_0-1_作画層１
  6
CONTINUOUS
 62
    7
 10
326.75
 20
64.75
 11
326.75
 21
61.75
  0
LINE
  8
_0-1_作画層１
  6
CONTINUOUS
 62
    7
 10
340.75
 20
64.75
 11
340.75
 21
61.75
  0
LINE
  8
_0-1_作画層１
  6
CONTINUOUS
 62
    7
 10
312.75
 20
61.75
 11
298.75
 21
61.75
  0
LINE
  8
_0-1_作画層１
  6
CONTINUOUS
 62
    7
 10
312.75
 20
64.75
 11
298.75
 21
64.75
  0
LINE
  8
_0-1_作画層１
  6
CONTINUOUS
 62
    7
 10
312.75
 20
64.75
 11
312.75
 21
61.75
  0
LINE
  8
_0-1_作画層１
  6
CONTINUOUS
 62
    7
 10
298.75
 20
64.75
 11
298.75
 21
61.75
  0
ARC
  8
_0-1_作画層１
  6
CONTINUOUS
 62
    7
 10
343.75
 20
60.749999999999986
 40
0.9999999999999855
 50
270
 51
0.0000000000008014
  0
ARC
  8
_0-1_作画層１
  6
CONTINUOUS
 62
    7
 10
295.75
 20
60.749999999999986
 40
0.9999999999999855
 50
179.99999999999918
 51
270
  0
ARC
  8
_0-1_作画層１
  6
CONTINUOUS
 62
    7
 10
343.75
 20
148.75000000000003
 40
0.9999999999999713
 50
359.99999999999835
 51
90.000000000000014
  0
LINE
  8
_0-1_作画層１
  6
CONTINUOUS
 62
    7
 10
343.75
 20
149.75
 11
295.75
 21
149.75
  0
ARC
  8
_0-1_作画層１
  6
CONTINUOUS
 62
    7
 10
295.75
 20
148.75000000000003
 40
0.9999999999999713
 50
90
 51
180.00000000000162
  0
LINE
  8
_0-1_作画層１
  6
CONTINUOUS
 62
    7
 10
344.75
 20
153.74999999743636
 11
344.75
 21
55.749999997436333
  0
LINE
  8
_0-1_作画層１
  6
CONTINUOUS
 62
    7
 10
294.75
 20
153.75000000256364
 11
294.75
 21
55.750000002563596
  0
LINE
  8
_0-1_作画層１
  6
CONTINUOUS
 62
    7
 10
324.64999999999998
 20
46.75
 11
314.85000000000002
 21
46.75
  0
ARC
  8
_0-1_作画層１
  6
CONTINUOUS
 62
    7
 10
319.75112419258215
 20
50.352016208322652
 40
2.0980517158902363
 50
28.403092282268048
 51
151.54471518641691
  0
ARC
  8
_0-1_作画層１
  6
CONTINUOUS
 62
    7
 10
319.74486637388191
 20
50.341527765056384
 40
2.0914573781816075
 50
208.299766095884
 51
331.68856639210935
  0
LINE
  8
_0-1_作画層１
  6
CONTINUOUS
 62
    7
 10
316.85000000000002
 20
51.349999999999994
 11
316.85000000000002
 21
49.349999999999994
  0
LINE
  8
_0-1_作画層１
  6
CONTINUOUS
 62
    7
 10
322.64999999999998
 20
49.349999999999994
 11
322.64999999999998
 21
51.349999999999994
  0
LINE
  8
_0-1_作画層１
  6
CONTINUOUS
 62
    7
 10
321.58635127902579
 20
49.349999999999994
 11
322.64999999999998
 21
49.349999999999994
  0
LINE
  8
_0-1_作画層１
  6
CONTINUOUS
 62
    7
 10
317.90338146873808
 20
49.349999999999994
 11
316.85000000000002
 21
49.349999999999994
  0
LINE
  8
_0-1_作画層１
  6
CONTINUOUS
 62
    7
 10
317.90562985390227
 20
51.349999999999994
 11
316.85000000000002
 21
51.349999999999994
  0
LINE
  8
_0-1_作画層１
  6
CONTINUOUS
 62
    7
 10
321.59661853126198
 20
51.349999999999994
 11
322.64999999999998
 21
51.349999999999994
  0
LINE
  8
_0-1_作画層１
  6
CENTER
 62
    7
 10
319.75
 20
41.75
 11
319.75
 21
159.75
  0
LINE
  8
_0-1_作画層１
  6
CONTINUOUS
 62
    7
 10
315.85000000000002
 20
64.75
 11
315.85000000000002
 21
46.75
  0
LINE
  8
_0-1_作画層１
  6
CONTINUOUS
 62
    7
 10
315.85000000000002
 20
64.75
 11
314.85000000000002
 21
64.75
  0
LINE
  8
_0-1_作画層１
  6
CONTINUOUS
 62
    7
 10
323.64999999999998
 20
64.75
 11
324.64999999999998
 21
64.75
  0
LINE
  8
_0-1_作画層１
  6
CONTINUOUS
 62
    7
 10
323.64999999999998
 20
64.75
 11
323.64999999999998
 21
46.75
  0
LINE
  8
_0-1_作画層１
  6
CONTINUOUS
 62
    7
 10
300.25
 20
84.549999999999997
 11
304.75
 21
84.549999999999997
  0
LINE
  8
_0-1_作画層１
  6
CONTINUOUS
 62
    7
 10
304.75
 20
84.549999999999997
 11
304.75
 21
81.75
  0
LINE
  8
_0-1_作画層１
  6
CONTINUOUS
 62
    7
 10
314.75
 20
83.549999999999997
 11
300.25
 21
83.549999999999997
  0
LINE
  8
_0-1_作画層１
  6
CONTINUOUS
 62
    7
 10
314.75
 20
87.75
 11
319.75
 21
87.75
  0
LINE
  8
_0-1_作画層１
  6
CONTINUOUS
 62
    7
 10
314.75
 20
83.549999999999997
 11
314.75
 21
87.75
  0
LINE
  8
_0-1_作画層１
  6
CONTINUOUS
 62
    7
 10
339.25
 20
84.549999999999997
 11
334.75
 21
84.549999999999997
  0
LINE
  8
_0-1_作画層１
  6
CONTINUOUS
 62
    7
 10
324.75
 20
83.549999999999997
 11
339.25
 21
83.549999999999997
  0
LINE
  8
_0-1_作画層１
  6
CONTINUOUS
 62
    7
 10
324.75
 20
87.75
 11
319.75
 21
87.75
  0
LINE
  8
_0-1_作画層１
  6
CONTINUOUS
 62
    7
 10
324.75
 20
83.549999999999997
 11
324.75
 21
87.75
  0
LINE
  8
_0-1_作画層１
  6
CONTINUOUS
 62
    7
 10
322.64999999999998
 20
82.25
 11
316.85000000000002
 21
82.25
  0
LINE
  8
_0-1_作画層１
  6
CONTINUOUS
 62
    7
 10
314.85000000000002
 20
81.75
 11
314.85000000000002
 21
46.75
  0
LINE
  8
_0-1_作画層１
  6
CONTINUOUS
 62
    7
 10
324.64999999999998
 20
81.75
 11
324.64999999999998
 21
46.75
  0
LINE
  8
_0-1_作画層１
  6
CONTINUOUS
 62
    7
 10
314.85000000000002
 20
59.75
 11
295.75
 21
59.75
  0
LINE
  8
_0-1_作画層１
  6
CONTINUOUS
 62
    7
 10
324.64999999999998
 20
59.75
 11
343.75
 21
59.75
  0
LINE
  8
_0-1_作画層１
  6
CONTINUOUS
 62
    7
 10
324.64999999999998
 20
54.75
 11
343.75
 21
54.75
  0
LINE
  8
_0-1_作画層１
  6
CONTINUOUS
 62
    7
 10
314.85000000000002
 20
54.75
 11
295.75
 21
54.75
  0
LINE
  8
_0-1_作画層１
  6
CONTINUOUS
 62
    7
 10
339.25
 20
82.75
 11
344.75
 21
82.75
  0
LINE
  8
_0-1_作画層１
  6
CONTINUOUS
 62
    7
 10
294.75
 20
82.75
 11
300.25
 21
82.75
  0
INSERT
  2
-003-_D3
  8
_0-9_寸法線層１
 10
6.25
 20
4.75
 41
1
 42
1
 50
0
  0
LINE
  8
_0-7_注記層１
  6
CONTINUOUS
 62
    7
 10
323.75
 20
72.25
 11
356.25
 21
82.25
  0
LINE
  8
_0-7_注記層１
  6
CONTINUOUS
 62
    7
 10
356.25
 20
82.25
 11
386.25
 21
82.25
  0
LINE
  8
_0-7_注記層１
  6
CONTINUOUS
 62
    7
 10
323.75
 20
72.25
 11
326.37912748860748
 21
73.906438543577352
  0
LINE
  8
_0-7_注記層１
  6
CONTINUOUS
 62
    7
 10
323.75
 20
72.25
 11
326.85554656372426
 21
72.358076549447787
  0
TEXT
  8
_0-7_注記層１
 62
    7
 10
366.25
 20
85.5
 40
3.5
 41
1
 50
0
  1
DINレール
  0
TEXT
  8
_0-7_注記層１
 62
    7
 10
366.25
 20
82
 40
3.5
 41
1
 50
0
  1
ストッパー
  0
TEXT
  8
_0-7_注記層１
 62
    7
 10
271.25
 20
238
 40
3.5
 41
1
 50
0
  1
使 用 周 囲 温 度
  0
TEXT
  8
_0-7_注記層１
 62
    7
 10
271.25
 20
233
 40
3.5
 41
1
 50
0
  1
使 用 周 囲 湿 度
  0
TEXT
  8
_0-7_注記層１
 62
    7
 10
271.25
 20
228
 40
3.5
 41
1
 50
0
  1
接　点　定　格
  0
TEXT
  8
_0-7_注記層１
 62
    7
 10
271.25
 20
223
 40
3.5
 41
1
 50
0
  1
出　　　　　力
  0
TEXT
  8
_0-7_注記層１
 62
    7
 10
271.25
 20
218
 40
3.5
 41
1
 50
0
  1
設　定　回　数
  0
TEXT
  8
_0-7_注記層１
 62
    7
 10
271.25
 20
213
 40
3.5
 41
1
 50
0
  1
最 小 設 定 時 間
  0
TEXT
  8
_0-7_注記層１
 62
    7
 10
271.25
 20
208
 40
3.5
 41
1
 50
0
  1
時　間　精　度
  0
TEXT
  8
_0-7_注記層１
 62
    7
 10
271.25
 20
203
 40
3.5
 41
1
 50
0
  1
消　費　電　力　
  0
TEXT
  8
_0-7_注記層１
 62
    7
 10
271.25
 20
198
 40
3.5
 41
1
 50
0
  1
重　　　  　量
  0
TEXT
  8
_0-7_注記層１
 62
    7
 10
271.25
 20
193
 40
3.5
 41
1
 50
0
  1
外　形　寸　法
  0
TEXT
  8
_0-7_注記層１
 62
    7
 10
306.25
 20
238
 40
3.5
 41
1
 50
0
  1
-10℃～50℃
  0
TEXT
  8
_0-7_注記層１
 62
    7
 10
306.25
 20
223
 40
3.5
 41
1
 50
0
  1
接点出力（1a）
  0
TEXT
  8
_0-7_注記層１
 62
    7
 10
306.25
 20
213
 40
3.5
 41
1
 50
0
  1
1分又は、1秒
  0
TEXT
  8
_0-7_注記層１
 62
    7
 10
306.25
 20
208
 40
3.5
 41
1
 50
0
  1
±15秒／月（25℃）
  0
LINE
  8
_0-1_作画層１
  6
CONTINUOUS
 62
    7
 10
371.25
 20
242.25
 11
268.75
 21
242.25
  0
LINE
  8
_0-1_作画層１
  6
CONTINUOUS
 62
    7
 10
371.25
 20
237.25
 11
268.75
 21
237.25
  0
LINE
  8
_0-1_作画層１
  6
CONTINUOUS
 62
    7
 10
371.25
 20
232.25
 11
268.75
 21
232.25
  0
LINE
  8
_0-1_作画層１
  6
CONTINUOUS
 62
    7
 10
371.25
 20
227.25
 11
268.75
 21
227.25
  0
LINE
  8
_0-1_作画層１
  6
CONTINUOUS
 62
    7
 10
371.25
 20
222.25
 11
268.75
 21
222.25
  0
LINE
  8
_0-1_作画層１
  6
CONTINUOUS
 62
    7
 10
371.25
 20
217.25
 11
268.75
 21
217.25
  0
LINE
  8
_0-1_作画層１
  6
CONTINUOUS
 62
    7
 10
371.25
 20
212.25
 11
268.75
 21
212.25
  0
LINE
  8
_0-1_作画層１
  6
CONTINUOUS
 62
    7
 10
371.25
 20
207.25
 11
268.75
 21
207.25
  0
LINE
  8
_0-1_作画層１
  6
CONTINUOUS
 62
    7
 10
371.25
 20
202.25
 11
268.75
 21
202.25
  0
LINE
  8
_0-1_作画層１
  6
CONTINUOUS
 62
    7
 10
371.25
 20
197.25
 11
268.75
 21
197.25
  0
LINE
  8
_0-1_作画層１
  6
CONTINUOUS
 62
    7
 10
371.25
 20
192.25
 11
268.75
 21
192.25
  0
LINE
  8
_0-1_作画層１
  6
CONTINUOUS
 62
    7
 10
334.75
 20
77.950000000000003
 11
324.64999999999998
 21
77.950000000000003
  0
LINE
  8
_0-1_作画層１
  6
CONTINUOUS
 62
    7
 10
334.75
 20
77.950000000000003
 11
334.75
 21
84.549999999999997
  0
LINE
  8
_0-1_作画層１
  6
CONTINUOUS
 62
    7
 10
304.75
 20
77.950000000000003
 11
314.85000000000002
 21
77.950000000000003
  0
LINE
  8
_0-1_作画層１
  6
CONTINUOUS
 62
    7
 10
304.75
 20
77.950000000000003
 11
304.75
 21
84.549999999999997
  0
LINE
  8
_0-1_作画層１
  6
CONTINUOUS
 62
    7
 10
304.75
 20
81.75
 11
314.85000000000002
 21
81.75
  0
LINE
  8
_0-1_作画層１
  6
CONTINUOUS
 62
    7
 10
300.25
 20
82.75
 11
300.25
 21
84.549999999999997
  0
LINE
  8
_0-1_作画層１
  6
CONTINUOUS
 62
    7
 10
339.25
 20
82.75
 11
339.25
 21
84.549999999999997
  0
LINE
  8
_0-1_作画層１
  6
CONTINUOUS
 62
    7
 10
334.75
 20
81.75
 11
324.64999999999998
 21
81.75
  0
LINE
  8
_0-1_作画層１
  6
CONTINUOUS
 62
    7
 10
318.05000000000001
 20
74.549999999999997
 11
321.44999999999999
 21
74.549999999999997
  0
LINE
  8
_0-1_作画層１
  6
CONTINUOUS
 62
    7
 10
321.44999999999999
 20
81.75
 11
322.64999999999998
 21
81.75
  0
LINE
  8
_0-1_作画層１
  6
CONTINUOUS
 62
    7
 10
318.05000000000001
 20
81.75
 11
316.85000000000002
 21
81.75
  0
LINE
  8
_0-1_作画層１
  6
CONTINUOUS
 62
    7
 10
318.05000000000001
 20
81.75
 11
318.05000000000001
 21
74.549999999999997
  0
LINE
  8
_0-1_作画層１
  6
CONTINUOUS
 62
    7
 10
321.44999999999999
 20
81.75
 11
321.44999999999999
 21
74.549999999999997
  0
LINE
  8
_0-1_作画層１
  6
CONTINUOUS
 62
    7
 10
322.64999999999998
 20
62.25
 11
316.85000000000002
 21
62.25
  0
LINE
  8
_0-1_作画層１
  6
CONTINUOUS
 62
    7
 10
322.64999999999998
 20
62.25
 11
322.64999999999998
 21
82.25
  0
LINE
  8
_0-1_作画層１
  6
CONTINUOUS
 62
    7
 10
316.85000000000002
 20
62.25
 11
316.85000000000002
 21
82.25
  0
LINE
  8
_0-1_作画層１
  6
CONTINUOUS
 62
    7
 10
294.75
 20
122.25
 11
298.75
 21
122.25
  0
LINE
  8
_0-1_作画層１
  6
CONTINUOUS
 62
    7
 10
340.75
 20
122.25
 11
344.75
 21
122.25
  0
LINE
  8
_0-1_作画層１
  6
CONTINUOUS
 62
    7
 10
306.75
 20
122.25
 11
332.75
 21
122.25
  0
ARC
  8
_0-1_作画層１
  6
CONTINUOUS
 62
    7
 10
130.75
 20
169.24999999999997
 40
0.9999999999999855
 50
179.99999999999838
 51
270.0000000000008
  0
LINE
  8
_0-1_作画層１
  6
CONTINUOUS
 62
    7
 10
129.75
 20
169.25
 11
129.75
 21
235.25
  0
ARC
  8
_0-1_作画層１
  6
CONTINUOUS
 62
    7
 10
130.75
 20
235.25000000000003
 40
0.9999999999999855
 50
89.99999999999919
 51
180.00000000000162
  0
LINE
  8
_0-1_作画層１
  6
CONTINUOUS
 62
    7
 10
138.25
 20
235.25
 11
130.94999999999999
 21
235.25
  0
LINE
  8
_0-1_作画層１
  6
CONTINUOUS
 62
    7
 10
138.25
 20
236.25
 11
130.75
 21
236.25
  0
LINE
  8
_0-1_作画層１
  6
CONTINUOUS
 62
    7
 10
138.25
 20
242.25
 11
148.25
 21
252.25
  0
LINE
  8
_0-1_作画層１
  6
CONTINUOUS
 62
    7
 10
138.25
 20
168.25
 11
138.25
 21
242.25
  0
LINE
  8
_0-1_作画層１
  6
CONTINUOUS
 62
    7
 10
179.25
 20
152.25
 11
184.25
 21
157.25
  0
LINE
  8
_0-1_作画層１
  6
CONTINUOUS
 62
    7
 10
184.25
 20
157.25
 11
198.25
 21
157.25
  0
LINE
  8
_0-1_作画層１
  6
CONTINUOUS
 62
    7
 10
177.25
 20
152.25
 11
177.25
 21
252.25
  0
LINE
  8
_0-1_作画層１
  6
CONTINUOUS
 62
    7
 10
179.25
 20
252.25
 11
184.25
 21
247.25
  0
LINE
  8
_0-1_作画層１
  6
CONTINUOUS
 62
    7
 10
184.25
 20
247.25
 11
198.25
 21
247.25
  0
LINE
  8
_0-1_作画層１
  6
CONTINUOUS
 62
    7
 10
179.25
 20
252.25
 11
148.25
 21
252.25
  0
LINE
  8
_0-1_作画層１
  6
CENTER
 62
    7
 10
206.25
 20
202.25
 11
123.75
 21
202.25
  0
LINE
  8
_0-1_作画層１
  6
CONTINUOUS
 62
    7
 10
193.25
 20
219.75
 11
198.25
 21
219.75
  0
LINE
  8
_0-1_作画層１
  6
CONTINUOUS
 62
    7
 10
198.25
 20
217.75
 11
198.25
 21
247.25
  0
LINE
  8
_0-1_作画層１
  6
CONTINUOUS
 62
    7
 10
196.25
 20
219.75
 11
196.25
 21
217.75
  0
LINE
  8
_0-1_作画層１
  6
CONTINUOUS
 62
    7
 10
196.25
 20
217.75
 11
198.25
 21
217.75
  0
ARC
  8
_0-1_作画層１
  6
CONTINUOUS
 62
    7
 10
130.75
 20
169.24999999999997
 40
0.9999999999999855
 50
179.99999999999838
 51
270.0000000000008
  0
LINE
  8
_0-1_作画層１
  6
CONTINUOUS
 62
    7
 10
138.25
 20
169.25
 11
130.94999999999999
 21
169.25
  0
LINE
  8
_0-1_作画層１
  6
CONTINUOUS
 62
    7
 10
138.25
 20
168.25
 11
130.75
 21
168.25
  0
LINE
  8
_0-1_作画層１
  6
CONTINUOUS
 62
    7
 10
130.94999999999999
 20
169.25
 11
130.94999999999999
 21
235.25
  0
LINE
  8
_0-1_作画層１
  6
CONTINUOUS
 62
    7
 10
133.25
 20
169.25
 11
133.25
 21
235.25
  0
LINE
  8
_0-1_作画層１
  6
CONTINUOUS
 62
    7
 10
156.25
 20
168.25
 11
156.25
 21
154.25
  0
ARC
  8
_0-1_作画層１
  6
CONTINUOUS
 62
    7
 10
158.24999999999997
 20
154.24999999999997
 40
1.9999999999999716
 50
179.99999999999918
 51
270.0000000000008
  0
LINE
  8
_0-1_作画層１
  6
CONTINUOUS
 62
    7
 10
158.25000002384184
 20
152.25
 11
179.25
 21
152.25
  0
LINE
  8
_0-1_作画層１
  6
CONTINUOUS
 62
    7
 10
156.25
 20
168.25
 11
138.25
 21
168.25
  0
INSERT
  2
-004-_D4
  8
_0-9_寸法線層１
 10
6.25
 20
4.75
 41
1
 42
1
 50
0
  0
INSERT
  2
-005-_D5
  8
_0-9_寸法線層１
 10
6.25
 20
4.75
 41
1
 42
1
 50
0
  0
LINE
  8
_0-1_作画層１
  6
CONTINUOUS
 62
    7
 10
193.25
 20
180.25
 11
198.25
 21
180.25
  0
LINE
  8
_0-1_作画層１
  6
CONTINUOUS
 62
    7
 10
196.65000000000001
 20
182.25
 11
198.25
 21
180.25
  0
LINE
  8
_0-1_作画層１
  6
CONTINUOUS
 62
    7
 10
194.92999999999998
 20
182.25
 11
194.44999999999999
 21
180.25
  0
LINE
  8
_0-1_作画層１
  6
CONTINUOUS
 62
    7
 10
194.92999999999998
 20
182.25
 11
196.65000000000001
 21
182.25
  0
LINE
  8
_0-1_作画層１
  6
CONTINUOUS
 62
    7
 10
193.25
 20
180.25
 11
193.25
 21
219.75
  0
INSERT
  2
-006-_D6
  8
_0-9_寸法線層１
 10
6.25
 20
4.75
 41
1
 42
1
 50
0
  0
TEXT
  8
_0-7_注記層１
 62
    7
 10
213.75
 20
168
 40
3.5
 41
1
 50
0
  1
DINレール取付溝
  0
LINE
  8
_0-7_注記層１
  6
CONTINUOUS
 62
    7
 10
196.25
 20
189.75
 11
211.25
 21
167.25
  0
LINE
  8
_0-7_注記層１
  6
CONTINUOUS
 62
    7
 10
211.25
 20
167.25
 11
241.25
 21
167.25
  0
LINE
  8
_0-7_注記層１
  6
CONTINUOUS
 62
    7
 10
196.25000000000003
 20
189.75
 11
198.58806132708935
 21
187.7031562759289
  0
LINE
  8
_0-7_注記層１
  6
CONTINUOUS
 62
    7
 10
196.25000000000003
 20
189.75
 11
197.24013985026204
 21
186.80454195804404
  0
LINE
  8
_0-1_作画層１
  6
CONTINUOUS
 62
    7
 10
142.5
 20
174.75
 11
172.5
 21
174.75
  0
LINE
  8
_0-1_作画層１
  6
CONTINUOUS
 62
    7
 10
172.5
 20
174.75
 11
172.5
 21
234.75
  0
LINE
  8
_0-1_作画層１
  6
CONTINUOUS
 62
    7
 10
172.5
 20
234.75
 11
142.5
 21
234.75
  0
LINE
  8
_0-1_作画層１
  6
CONTINUOUS
 62
    7
 10
142.5
 20
234.75
 11
142.5
 21
174.75
  0
LINE
  8
_0-1_作画層１
  6
CONTINUOUS
 62
    7
 10
155
 20
177.25
 11
167.5
 21
177.25
  0
LINE
  8
_0-1_作画層１
  6
CONTINUOUS
 62
    7
 10
167.5
 20
177.25
 11
167.5
 21
232.25
  0
LINE
  8
_0-1_作画層１
  6
CONTINUOUS
 62
    7
 10
167.5
 20
232.25
 11
155
 21
232.25
  0
LINE
  8
_0-1_作画層１
  6
CONTINUOUS
 62
    7
 10
155
 20
232.25
 11
155
 21
177.25
  0
TEXT
  8
_0-7_注記層１
 62
    7
 10
171.15000000000001
 20
178.90000000000001
 40
2.2999999999999998
 41
1
 50
90
  1
製造年月
  0
TEXT
  8
_0-7_注記層１
 62
    7
 10
148.65000000000001
 20
177.25
 40
2.2999999999999998
 41
1
 50
90
  1
カレンダータイマー　　　SSC-502S
  0
TEXT
  8
_0-7_注記層１
 62
    7
 10
150.95000000000002
 20
177.25
 40
2.2999999999999998
 41
1
 50
90
  1
操作電圧　 AC100～200V   50/60Hz共用
  0
INSERT
  2
-007-_D7
  8
_0-9_寸法線層１
 10
6.25
 20
4.75
 41
1
 42
1
 50
0
  0
LINE
  8
_0-1_作画層１
  6
CONTINUOUS
 62
    7
 10
193.25
 20
144.25
 11
198.25
 21
144.25
  0
LINE
  8
_0-1_作画層１
  6
CONTINUOUS
 62
    7
 10
193.25
 20
157.25
 11
193.25
 21
144.25
  0
LINE
  8
_0-1_作画層１
  6
CONTINUOUS
 62
    7
 10
198.25
 20
183.44999999999999
 11
193.74999999999989
 21
185.25000000000003
  0
LINE
  8
_0-1_作画層１
  6
CONTINUOUS
 62
    7
 10
198.25
 20
183.44999999999999
 11
198.25
 21
144.25
  0
LINE
  8
_0-1_作画層１
  6
CONTINUOUS
 62
    7
 10
193.74999999999994
 20
185.25
 11
193.25
 21
185.25
  0
INSERT
  2
-008-_D8
  8
_0-9_寸法線層１
 10
6.25
 20
4.75
 41
1
 42
1
 50
0
  0
INSERT
  2
-009-_D9
  8
_0-9_寸法線層１
 10
6.25
 20
4.75
 41
1
 42
1
 50
0
  0
INSERT
  2
-010-_D10
  8
_0-9_寸法線層１
 10
6.25
 20
4.75
 41
1
 42
1
 50
0
  0
LINE
  8
_0-1_作画層１
  6
CONTINUOUS
 62
    7
 10
53.75
 20
116.75
 11
53.75
 21
124.25
  0
ARC
  8
_0-1_作画層１
  6
CONTINUOUS
 62
    7
 10
54.75
 20
124.25000000000001
 40
0.9999999999999855
 50
89.999999999999588
 51
180.0000000000008
  0
LINE
  8
_0-1_作画層１
  6
CONTINUOUS
 62
    7
 10
54.75
 20
125.25
 11
99.75
 21
125.25
  0
LINE
  8
_0-1_作画層１
  6
CONTINUOUS
 62
    7
 10
100.75
 20
116.75
 11
100.75
 21
124.25
  0
ARC
  8
_0-1_作画層１
  6
CONTINUOUS
 62
    7
 10
99.750000000000014
 20
124.25000000000001
 40
0.9999999999999855
 50
359.9999999999992
 51
90.000000000000782
  0
LINE
  8
_0-1_作画層１
  6
CONTINUOUS
 62
    7
 10
99.75
 20
116.75
 11
99.75
 21
124.25
  0
LINE
  8
_0-1_作画層１
  6
CONTINUOUS
 62
    7
 10
54.75
 20
116.75
 11
54.75
 21
124.25
  0
LINE
  8
_0-1_作画層１
  6
CONTINUOUS
 62
    7
 10
99.75
 20
124.25
 11
54.75
 21
124.25
  0
LINE
  8
_0-1_作画層１
  6
CONTINUOUS
 62
    7
 10
99.75
 20
121.75000000000001
 11
54.75
 21
121.75
  0
LINE
  8
_0-1_作画層１
  6
CONTINUOUS
 62
    7
 10
102.25
 20
76.750000000000028
 11
52.25
 21
76.75
  0
LINE
  8
_0-1_作画層１
  6
CONTINUOUS
 62
    7
 10
102.25
 20
74.250000000000028
 11
52.25
 21
74.25
  0
LINE
  8
_0-1_作画層１
  6
CONTINUOUS
 62
    7
 10
102.25
 20
69.250000000000014
 11
52.25
 21
69.25
  0
ARC
  8
_0-1_作画層１
  6
CONTINUOUS
 62
    7
 10
52.75
 20
116.25000000000001
 40
0.4999999999999856
 50
89.99999999999919
 51
180.00000000000162
  0
ARC
  8
_0-1_作画層１
  6
CONTINUOUS
 62
    7
 10
52.75
 20
98.250000000000014
 40
0.4999999999999856
 50
89.99999999999919
 51
180.00000000000162
  0
LINE
  8
_0-1_作画層１
  6
CONTINUOUS
 62
    7
 10
52.75
 20
116.75
 11
101.75
 21
116.75
  0
ARC
  8
_0-1_作画層１
  6
CONTINUOUS
 62
    7
 10
101.75000000000001
 20
116.25000000000001
 40
0.4999999999999856
 50
359.99999999999835
 51
90.000000000001663
  0
LINE
  8
_0-1_作画層１
  6
CONTINUOUS
 62
    7
 10
52.75
 20
98.75
 11
101.75
 21
98.75
  0
ARC
  8
_0-1_作画層１
  6
CONTINUOUS
 62
    7
 10
101.75000000000001
 20
98.250000000000014
 40
0.4999999999999856
 50
359.99999999999835
 51
90.000000000001663
  0
LINE
  8
_0-1_作画層１
  6
CONTINUOUS
 62
    7
 10
68.899999999999977
 20
95.950000000000017
 11
68.899999999999977
 21
88.25
  0
LINE
  8
_0-1_作画層１
  6
CONTINUOUS
 62
    7
 10
65.599999999999994
 20
95.950000000000017
 11
65.599999999999994
 21
88.25
  0
LINE
  8
_0-1_作画層１
  6
CONTINUOUS
 62
    7
 10
58.899999999999977
 20
95.950000000000017
 11
58.899999999999977
 21
88.25
  0
LINE
  8
_0-1_作画層１
  6
CONTINUOUS
 62
    7
 10
88.899999999999991
 20
95.950000000000017
 11
88.899999999999991
 21
88.250000000000014
  0
LINE
  8
_0-1_作画層１
  6
CONTINUOUS
 62
    7
 10
85.599999999999994
 20
95.950000000000017
 11
85.599999999999994
 21
88.250000000000014
  0
LINE
  8
_0-1_作画層１
  6
CONTINUOUS
 62
    7
 10
95.599999999999994
 20
95.950000000000017
 11
95.599999999999994
 21
88.250000000000028
  0
LINE
  8
_0-1_作画層１
  6
CONTINUOUS
 62
    7
 10
78.899999999999977
 20
95.950000000000017
 11
78.899999999999977
 21
88.250000000000014
  0
LINE
  8
_0-1_作画層１
  6
CONTINUOUS
 62
    7
 10
75.599999999999994
 20
95.950000000000017
 11
75.599999999999994
 21
88.250000000000014
  0
ARC
  8
_0-1_作画層１
  6
CONTINUOUS
 62
    7
 10
90.675000000000026
 20
90.790499999999994
 40
1.5000000000000142
 50
90.00000000000054
 51
179.99999999999943
  0
LINE
  8
_0-1_作画層１
  6
CONTINUOUS
 62
    7
 10
90.675000000000011
 20
92.290500000000009
 11
93.925000000000011
 21
92.290500000000009
  0
ARC
  8
_0-1_作画層１
  6
CONTINUOUS
 62
    7
 10
93.924999999999997
 20
90.790499999999994
 40
1.5000000000000142
 50
0.0000000000005428
 51
89.99999999999946
  0
LINE
  8
_0-1_作画層１
  6
CONTINUOUS
 62
    7
 10
89.175000000000011
 20
90.790500000000009
 11
89.175000000000011
 21
90.290500000000009
  0
ARC
  8
_0-1_作画層１
  6
CONTINUOUS
 62
    7
 10
89.674999999999997
 20
90.290499999999994
 40
0.4999999999999856
 50
179.99999999999838
 51
270.00000000000159
  0
LINE
  8
_0-1_作画層１
  6
CONTINUOUS
 62
    7
 10
89.675000000000011
 20
89.790500000000009
 11
94.925000000000011
 21
89.790500000000009
  0
LINE
  8
_0-1_作画層１
  6
CONTINUOUS
 62
    7
 10
95.425000000000011
 20
90.790500000000009
 11
95.425000000000011
 21
90.290500000000009
  0
ARC
  8
_0-1_作画層１
  6
CONTINUOUS
 62
    7
 10
94.925000000000026
 20
90.290499999999994
 40
0.4999999999999856
 50
269.99999999999835
 51
0.0000000000016666
  0
ARC
  8
_0-1_作画層１
  6
CONTINUOUS
 62
    7
 10
89.369364676220485
 20
89.938100000000134
 40
0.5000000000001421
 50
270.00000000000489
 51
296.58704853183519
  0
ARC
  8
_0-1_作画層１
  6
CONTINUOUS
 62
    7
 10
89.718787279233553
 20
89.312499999998792
 40
0.499999999998792
 50
269.99999999998209
 51
288.45144842303034
  0
LINE
  8
_0-1_作画層１
  6
CONTINUOUS
 62
    7
 10
89.877037752961684
 20
88.838203903068177
 11
90.660462247038367
 21
89.099596096931833
  0
ARC
  8
_0-1_作画層１
  6
CONTINUOUS
 62
    7
 10
90.818712720766712
 20
88.625299999999612
 40
0.5000000000003842
 50
90.000000000004903
 51
108.45144842299523
  0
LINE
  8
_0-1_作画層１
  6
CONTINUOUS
 62
    7
 10
89.593143154532939
 20
89.490972285980632
 11
90.006856845467084
 21
89.698027714019361
  0
ARC
  8
_0-1_作画層１
  6
CONTINUOUS
 62
    7
 10
90.230635323779538
 20
89.250899999999859
 40
0.5000000000001423
 50
90.000000000004903
 51
116.58704853183521
  0
LINE
  8
_0-1_作画層１
  6
CONTINUOUS
 62
    7
 10
90.818712720766669
 20
89.125299999999996
 11
93.781287279233396
 21
89.125299999999996
  0
ARC
  8
_0-1_作画層１
  6
CONTINUOUS
 62
    7
 10
93.781287279233339
 20
88.625299999999612
 40
0.5000000000003834
 50
71.548551577004758
 51
89.999999999993506
  0
LINE
  8
_0-1_作画層１
  6
CONTINUOUS
 62
    7
 10
93.939537752961684
 20
89.099596096931833
 11
94.722962247038367
 21
88.838203903068163
  0
ARC
  8
_0-1_作画層１
  6
CONTINUOUS
 62
    7
 10
94.881212720766541
 20
89.312499999999318
 40
0.4999999999993193
 50
251.54855157698466
 51
270.00000000001302
  0
ARC
  8
_0-1_作画層１
  6
CONTINUOUS
 62
    7
 10
94.918135323779538
 20
89.938100000000134
 40
0.5000000000001421
 50
243.41295146816481
 51
269.99999999999511
  0
LINE
  8
_0-1_作画層１
  6
CONTINUOUS
 62
    7
 10
94.694356845467084
 20
89.490972285980632
 11
94.280643154532925
 21
89.698027714019361
  0
LINE
  8
_0-1_作画層１
  6
CONTINUOUS
 62
    7
 10
90.230635323779495
 20
89.750900000000001
 11
94.056864676220513
 21
89.750900000000001
  0
ARC
  8
_0-1_作画層１
  6
CONTINUOUS
 62
    7
 10
94.056864676220499
 20
89.250899999999973
 40
0.5000000000000277
 50
63.412951468161879
 51
89.999999999998352
  0
ARC
  8
_0-1_作画層１
  6
CONTINUOUS
 62
    7
 10
80.675000000000011
 20
90.790499999999994
 40
1.5000000000000142
 50
90.00000000000054
 51
179.99999999999943
  0
LINE
  8
_0-1_作画層１
  6
CONTINUOUS
 62
    7
 10
80.675000000000011
 20
92.290500000000009
 11
83.925000000000011
 21
92.290500000000009
  0
ARC
  8
_0-1_作画層１
  6
CONTINUOUS
 62
    7
 10
83.924999999999997
 20
90.790499999999994
 40
1.5000000000000142
 50
0.0000000000005428
 51
89.99999999999946
  0
LINE
  8
_0-1_作画層１
  6
CONTINUOUS
 62
    7
 10
79.175000000000011
 20
90.790500000000009
 11
79.175000000000011
 21
90.290500000000009
  0
ARC
  8
_0-1_作画層１
  6
CONTINUOUS
 62
    7
 10
79.675000000000011
 20
90.290499999999994
 40
0.4999999999999856
 50
179.99999999999838
 51
270.00000000000159
  0
LINE
  8
_0-1_作画層１
  6
CONTINUOUS
 62
    7
 10
79.675000000000011
 20
89.790500000000009
 11
84.925000000000011
 21
89.790500000000009
  0
LINE
  8
_0-1_作画層１
  6
CONTINUOUS
 62
    7
 10
85.425000000000011
 20
90.790500000000009
 11
85.425000000000011
 21
90.290500000000009
  0
ARC
  8
_0-1_作画層１
  6
CONTINUOUS
 62
    7
 10
84.925000000000026
 20
90.290499999999994
 40
0.4999999999999856
 50
269.99999999999835
 51
0.0000000000016666
  0
ARC
  8
_0-1_作画層１
  6
CONTINUOUS
 62
    7
 10
79.369364676220471
 20
89.938100000000134
 40
0.5000000000001421
 50
270.00000000000489
 51
296.58704853183519
  0
ARC
  8
_0-1_作画層１
  6
CONTINUOUS
 62
    7
 10
79.718787279233538
 20
89.312499999998792
 40
0.499999999998792
 50
269.99999999998209
 51
288.45144842303034
  0
LINE
  8
_0-1_作画層１
  6
CONTINUOUS
 62
    7
 10
79.877037752961684
 20
88.838203903068177
 11
80.660462247038367
 21
89.099596096931833
  0
ARC
  8
_0-1_作画層１
  6
CONTINUOUS
 62
    7
 10
80.818712720766712
 20
88.625299999999612
 40
0.5000000000003842
 50
90.000000000004903
 51
108.45144842299523
  0
LINE
  8
_0-1_作画層１
  6
CONTINUOUS
 62
    7
 10
79.593143154532925
 20
89.490972285980632
 11
80.006856845467098
 21
89.698027714019361
  0
ARC
  8
_0-1_作画層１
  6
CONTINUOUS
 62
    7
 10
80.230635323779552
 20
89.250899999999859
 40
0.5000000000001423
 50
90.000000000004903
 51
116.58704853183521
  0
LINE
  8
_0-1_作画層１
  6
CONTINUOUS
 62
    7
 10
80.818712720766655
 20
89.125299999999996
 11
83.781287279233396
 21
89.125299999999996
  0
ARC
  8
_0-1_作画層１
  6
CONTINUOUS
 62
    7
 10
83.781287279233339
 20
88.625299999999612
 40
0.5000000000003834
 50
71.548551577004758
 51
89.999999999993506
  0
LINE
  8
_0-1_作画層１
  6
CONTINUOUS
 62
    7
 10
83.939537752961684
 20
89.099596096931833
 11
84.722962247038367
 21
88.838203903068163
  0
ARC
  8
_0-1_作画層１
  6
CONTINUOUS
 62
    7
 10
84.881212720766541
 20
89.312499999999318
 40
0.4999999999993193
 50
251.54855157698466
 51
270.00000000001302
  0
ARC
  8
_0-1_作画層１
  6
CONTINUOUS
 62
    7
 10
84.918135323779538
 20
89.938100000000134
 40
0.5000000000001421
 50
243.41295146816481
 51
269.99999999999511
  0
LINE
  8
_0-1_作画層１
  6
CONTINUOUS
 62
    7
 10
84.694356845467084
 20
89.490972285980632
 11
84.280643154532925
 21
89.698027714019361
  0
LINE
  8
_0-1_作画層１
  6
CONTINUOUS
 62
    7
 10
80.230635323779495
 20
89.750900000000001
 11
84.056864676220513
 21
89.750900000000001
  0
ARC
  8
_0-1_作画層１
  6
CONTINUOUS
 62
    7
 10
84.056864676220499
 20
89.250899999999973
 40
0.5000000000000277
 50
63.412951468161879
 51
89.999999999998352
  0
ARC
  8
_0-1_作画層１
  6
CONTINUOUS
 62
    7
 10
70.675000000000011
 20
90.790499999999994
 40
1.5000000000000142
 50
90.00000000000054
 51
179.99999999999943
  0
LINE
  8
_0-1_作画層１
  6
CONTINUOUS
 62
    7
 10
70.675000000000011
 20
92.290500000000009
 11
73.925000000000011
 21
92.290500000000009
  0
ARC
  8
_0-1_作画層１
  6
CONTINUOUS
 62
    7
 10
73.925000000000011
 20
90.790499999999994
 40
1.5000000000000142
 50
0.0000000000005428
 51
89.99999999999946
  0
LINE
  8
_0-1_作画層１
  6
CONTINUOUS
 62
    7
 10
69.175000000000011
 20
90.790500000000009
 11
69.175000000000011
 21
90.290500000000009
  0
ARC
  8
_0-1_作画層１
  6
CONTINUOUS
 62
    7
 10
69.675000000000011
 20
90.290499999999994
 40
0.4999999999999926
 50
179.99999999999838
 51
270.0000000000008
  0
LINE
  8
_0-1_作画層１
  6
CONTINUOUS
 62
    7
 10
69.675000000000011
 20
89.790500000000009
 11
74.925000000000011
 21
89.790500000000009
  0
LINE
  8
_0-1_作画層１
  6
CONTINUOUS
 62
    7
 10
75.425000000000011
 20
90.790500000000009
 11
75.425000000000011
 21
90.290500000000009
  0
ARC
  8
_0-1_作画層１
  6
CONTINUOUS
 62
    7
 10
74.925000000000011
 20
90.290499999999994
 40
0.4999999999999856
 50
269.99999999999835
 51
0.0000000000016666
  0
ARC
  8
_0-1_作画層１
  6
CONTINUOUS
 62
    7
 10
69.369364676220471
 20
89.938100000000134
 40
0.5000000000001421
 50
270.00000000000489
 51
296.58704853183519
  0
ARC
  8
_0-1_作画層１
  6
CONTINUOUS
 62
    7
 10
69.718787279233567
 20
89.312499999998792
 40
0.499999999998792
 50
269.99999999998124
 51
288.45144842302955
  0
LINE
  8
_0-1_作画層１
  6
CONTINUOUS
 62
    7
 10
69.877037752961684
 20
88.838203903068177
 11
70.660462247038367
 21
89.099596096931833
  0
ARC
  8
_0-1_作画層１
  6
CONTINUOUS
 62
    7
 10
70.818712720766712
 20
88.625299999999612
 40
0.5000000000003842
 50
90.000000000004903
 51
108.45144842299523
  0
LINE
  8
_0-1_作画層１
  6
CONTINUOUS
 62
    7
 10
69.593143154532925
 20
89.490972285980632
 11
70.006856845467098
 21
89.698027714019361
  0
ARC
  8
_0-1_作画層１
  6
CONTINUOUS
 62
    7
 10
70.230635323779552
 20
89.250899999999859
 40
0.5000000000001423
 50
90.000000000004903
 51
116.58704853183521
  0
LINE
  8
_0-1_作画層１
  6
CONTINUOUS
 62
    7
 10
70.818712720766655
 20
89.125299999999996
 11
73.781287279233396
 21
89.125299999999996
  0
ARC
  8
_0-1_作画層１
  6
CONTINUOUS
 62
    7
 10
73.781287279233339
 20
88.625299999999612
 40
0.5000000000003834
 50
71.548551577004758
 51
89.999999999993506
  0
LINE
  8
_0-1_作画層１
  6
CONTINUOUS
 62
    7
 10
73.939537752961684
 20
89.099596096931833
 11
74.722962247038367
 21
88.838203903068163
  0
ARC
  8
_0-1_作画層１
  6
CONTINUOUS
 62
    7
 10
74.881212720766541
 20
89.312499999999318
 40
0.4999999999993193
 50
251.54855157698466
 51
270.00000000001302
  0
ARC
  8
_0-1_作画層１
  6
CONTINUOUS
 62
    7
 10
74.918135323779552
 20
89.938100000000134
 40
0.5000000000001421
 50
243.41295146816481
 51
269.99999999999511
  0
LINE
  8
_0-1_作画層１
  6
CONTINUOUS
 62
    7
 10
74.694356845467098
 20
89.490972285980632
 11
74.280643154532925
 21
89.698027714019361
  0
LINE
  8
_0-1_作画層１
  6
CONTINUOUS
 62
    7
 10
70.230635323779495
 20
89.750900000000001
 11
74.056864676220528
 21
89.750900000000001
  0
ARC
  8
_0-1_作画層１
  6
CONTINUOUS
 62
    7
 10
74.056864676220499
 20
89.250899999999973
 40
0.5000000000000277
 50
63.412951468161879
 51
89.999999999998352
  0
ARC
  8
_0-1_作画層１
  6
CONTINUOUS
 62
    7
 10
60.67500000000004
 20
90.790499999999994
 40
1.5000000000000213
 50
90.00000000000081
 51
179.99999999999946
  0
LINE
  8
_0-1_作画層１
  6
CONTINUOUS
 62
    7
 10
60.675000000000011
 20
92.290500000000009
 11
63.925000000000011
 21
92.290500000000009
  0
ARC
  8
_0-1_作画層１
  6
CONTINUOUS
 62
    7
 10
63.924999999999983
 20
90.790499999999994
 40
1.5000000000000142
 50
0.0000000000005428
 51
89.999999999999204
  0
LINE
  8
_0-1_作画層１
  6
CONTINUOUS
 62
    7
 10
59.175000000000011
 20
90.790500000000009
 11
59.175000000000011
 21
90.290500000000009
  0
ARC
  8
_0-1_作画層１
  6
CONTINUOUS
 62
    7
 10
59.675000000000011
 20
90.290499999999994
 40
0.4999999999999926
 50
179.99999999999838
 51
270.0000000000008
  0
LINE
  8
_0-1_作画層１
  6
CONTINUOUS
 62
    7
 10
59.675000000000011
 20
89.790500000000009
 11
64.925000000000011
 21
89.790500000000009
  0
LINE
  8
_0-1_作画層１
  6
CONTINUOUS
 62
    7
 10
65.425000000000011
 20
90.790500000000009
 11
65.425000000000011
 21
90.290500000000009
  0
ARC
  8
_0-1_作画層１
  6
CONTINUOUS
 62
    7
 10
64.925000000000011
 20
90.290499999999994
 40
0.4999999999999856
 50
269.9999999999992
 51
0.0000000000016284
  0
ARC
  8
_0-1_作画層１
  6
CONTINUOUS
 62
    7
 10
59.369364676220471
 20
89.938100000000134
 40
0.5000000000001421
 50
270.00000000000489
 51
296.58704853183519
  0
ARC
  8
_0-1_作画層１
  6
CONTINUOUS
 62
    7
 10
59.718787279233567
 20
89.312499999998792
 40
0.499999999998792
 50
269.99999999998124
 51
288.45144842302955
  0
LINE
  8
_0-1_作画層１
  6
CONTINUOUS
 62
    7
 10
59.877037752961684
 20
88.838203903068177
 11
60.660462247038367
 21
89.099596096931833
  0
ARC
  8
_0-1_作画層１
  6
CONTINUOUS
 62
    7
 10
60.818712720766712
 20
88.625299999999612
 40
0.5000000000003842
 50
90.000000000004903
 51
108.45144842299523
  0
LINE
  8
_0-1_作画層１
  6
CONTINUOUS
 62
    7
 10
59.593143154532925
 20
89.490972285980632
 11
60.006856845467098
 21
89.698027714019361
  0
ARC
  8
_0-1_作画層１
  6
CONTINUOUS
 62
    7
 10
60.230635323779552
 20
89.250899999999859
 40
0.5000000000001423
 50
90.000000000004903
 51
116.58704853183521
  0
LINE
  8
_0-1_作画層１
  6
CONTINUOUS
 62
    7
 10
60.818712720766655
 20
89.125299999999996
 11
63.781287279233396
 21
89.125299999999996
  0
ARC
  8
_0-1_作画層１
  6
CONTINUOUS
 62
    7
 10
63.781287279233339
 20
88.625299999999612
 40
0.5000000000003834
 50
71.548551577004758
 51
89.999999999993506
  0
LINE
  8
_0-1_作画層１
  6
CONTINUOUS
 62
    7
 10
63.939537752961684
 20
89.099596096931833
 11
64.722962247038367
 21
88.838203903068163
  0
ARC
  8
_0-1_作画層１
  6
CONTINUOUS
 62
    7
 10
64.881212720766541
 20
89.312499999999318
 40
0.4999999999993171
 50
251.54855157698535
 51
270.00000000001381
  0
ARC
  8
_0-1_作画層１
  6
CONTINUOUS
 62
    7
 10
64.918135323779552
 20
89.938100000000134
 40
0.5000000000001421
 50
243.41295146816481
 51
269.99999999999511
  0
LINE
  8
_0-1_作画層１
  6
CONTINUOUS
 62
    7
 10
64.694356845467098
 20
89.490972285980632
 11
64.280643154532925
 21
89.698027714019361
  0
LINE
  8
_0-1_作画層１
  6
CONTINUOUS
 62
    7
 10
60.230635323779495
 20
89.750900000000001
 11
64.056864676220528
 21
89.750900000000001
  0
ARC
  8
_0-1_作画層１
  6
CONTINUOUS
 62
    7
 10
64.056864676220499
 20
89.250899999999973
 40
0.5000000000000277
 50
63.412951468161879
 51
89.999999999998352
  0
LINE
  8
_0-1_作画層１
  6
CONTINUOUS
 62
    7
 10
58.899999999999977
 20
89.438099999999991
 11
59.369364676220528
 21
89.438099999999991
  0
LINE
  8
_0-1_作画層１
  6
CONTINUOUS
 62
    7
 10
58.899999999999977
 20
88.8125
 11
59.718787279233396
 21
88.8125
  0
LINE
  8
_0-1_作画層１
  6
CONTINUOUS
 62
    7
 10
65.599999999999994
 20
89.438099999999991
 11
64.918135323779495
 21
89.438099999999991
  0
LINE
  8
_0-1_作画層１
  6
CONTINUOUS
 62
    7
 10
65.599999999999994
 20
88.8125
 11
64.881212720766655
 21
88.8125
  0
LINE
  8
_0-1_作画層１
  6
CONTINUOUS
 62
    7
 10
68.899999999999977
 20
89.438099999999991
 11
69.369364676220528
 21
89.438099999999991
  0
LINE
  8
_0-1_作画層１
  6
CONTINUOUS
 62
    7
 10
68.899999999999977
 20
88.8125
 11
69.718787279233396
 21
88.8125
  0
LINE
  8
_0-1_作画層１
  6
CONTINUOUS
 62
    7
 10
75.599999999999994
 20
88.8125
 11
74.881212720766655
 21
88.8125
  0
LINE
  8
_0-1_作画層１
  6
CONTINUOUS
 62
    7
 10
75.599999999999994
 20
89.438099999999991
 11
74.918135323779495
 21
89.438099999999991
  0
LINE
  8
_0-1_作画層１
  6
CONTINUOUS
 62
    7
 10
78.899999999999977
 20
88.8125
 11
79.718787279233396
 21
88.8125
  0
LINE
  8
_0-1_作画層１
  6
CONTINUOUS
 62
    7
 10
78.899999999999977
 20
89.438099999999991
 11
79.369364676220528
 21
89.438099999999991
  0
LINE
  8
_0-1_作画層１
  6
CONTINUOUS
 62
    7
 10
85.599999999999994
 20
88.8125
 11
84.881212720766655
 21
88.8125
  0
LINE
  8
_0-1_作画層１
  6
CONTINUOUS
 62
    7
 10
85.599999999999994
 20
89.438099999999991
 11
84.918135323779495
 21
89.438099999999991
  0
LINE
  8
_0-1_作画層１
  6
CONTINUOUS
 62
    7
 10
88.899999999999991
 20
88.8125
 11
89.718787279233396
 21
88.8125
  0
LINE
  8
_0-1_作画層１
  6
CONTINUOUS
 62
    7
 10
88.899999999999991
 20
89.438099999999991
 11
89.369364676220528
 21
89.438099999999991
  0
LINE
  8
_0-1_作画層１
  6
CONTINUOUS
 62
    7
 10
95.599999999999994
 20
88.8125
 11
94.881212720766655
 21
88.8125
  0
LINE
  8
_0-1_作画層１
  6
CONTINUOUS
 62
    7
 10
95.599999999999994
 20
89.438099999999991
 11
94.918135323779495
 21
89.438099999999991
  0
LINE
  8
_0-1_作画層１
  6
CONTINUOUS
 62
    7
 10
85.599999999999994
 20
95.950000000000017
 11
88.899999999999991
 21
95.950000000000017
  0
LINE
  8
_0-1_作画層１
  6
CONTINUOUS
 62
    7
 10
75.599999999999994
 20
95.950000000000017
 11
78.899999999999977
 21
95.950000000000017
  0
LINE
  8
_0-1_作画層１
  6
CONTINUOUS
 62
    7
 10
68.899999999999977
 20
95.950000000000017
 11
65.599999999999994
 21
95.950000000000017
  0
LINE
  8
_0-1_作画層１
  6
CONTINUOUS
 62
    7
 10
97.399999999999991
 20
95.950000000000017
 11
95.599999999999994
 21
95.950000000000017
  0
LINE
  8
_0-1_作画層１
  6
CONTINUOUS
 62
    7
 10
57.099999999999994
 20
95.950000000000017
 11
58.899999999999977
 21
95.950000000000017
  0
LINE
  8
_0-1_作画層１
  6
CONTINUOUS
 62
    7
 10
57.099999999999994
 20
80.75
 11
57.099999999999994
 21
98.75
  0
LINE
  8
_0-1_作画層１
  6
CONTINUOUS
 62
    7
 10
97.399999999999991
 20
88.250000000000028
 11
57.099999999999994
 21
88.25
  0
LINE
  8
_0-1_作画層１
  6
CONTINUOUS
 62
    7
 10
97.399999999999991
 20
85.250000000000028
 11
57.099999999999994
 21
85.25
  0
LINE
  8
_0-1_作画層１
  6
CONTINUOUS
 62
    7
 10
97.399999999999991
 20
80.750000000000028
 11
97.399999999999991
 21
98.75
  0
LINE
  8
_0-1_作画層１
  6
CONTINUOUS
 62
    7
 10
57.099999999999994
 20
80.75
 11
97.399999999999991
 21
80.750000000000028
  0
LINE
  8
_0-1_作画層１
  6
CONTINUOUS
 62
    7
 10
102.25
 20
116.2499999971275
 11
102.25
 21
56.25
  0
ARC
  8
_0-1_作画層１
  6
CONTINUOUS
 62
    7
 10
101.75000000000001
 20
56.25
 40
0.4999999999999856
 50
269.99999999999835
 51
0.0000000000008142
  0
LINE
  8
_0-1_作画層１
  6
CONTINUOUS
 62
    7
 10
52.25
 20
116.25000000280494
 11
52.25
 21
56.25
  0
ARC
  8
_0-1_作画層１
  6
CONTINUOUS
 62
    7
 10
52.75
 20
56.25
 40
0.4999999999999926
 50
179.99999999999918
 51
270.0000000000008
  0
LINE
  8
_0-1_作画層１
  6
CONTINUOUS
 62
    7
 10
71.25
 20
64.25
 11
71.25
 21
60.75
  0
LINE
  8
_0-1_作画層１
  6
CONTINUOUS
 62
    7
 10
56.25
 20
64.25
 11
56.25
 21
60.75
  0
LINE
  8
_0-1_作画層１
  6
CONTINUOUS
 62
    7
 10
71.25
 20
60.75
 11
56.25
 21
60.75
  0
LINE
  8
_0-1_作画層１
  6
CONTINUOUS
 62
    7
 10
71.25
 20
64.25
 11
56.25
 21
64.25
  0
LINE
  8
_0-1_作画層１
  6
CONTINUOUS
 62
    7
 10
83.25
 20
64.25
 11
83.25
 21
60.75
  0
LINE
  8
_0-1_作画層１
  6
CONTINUOUS
 62
    7
 10
98.25
 20
64.25
 11
98.25
 21
60.75
  0
LINE
  8
_0-1_作画層１
  6
CONTINUOUS
 62
    7
 10
83.25
 20
60.75
 11
98.25
 21
60.75
  0
LINE
  8
_0-1_作画層１
  6
CONTINUOUS
 62
    7
 10
83.25
 20
64.25
 11
98.25
 21
64.25
  0
LINE
  8
_0-1_作画層１
  6
CONTINUOUS
 62
    7
 10
82.25
 20
60.75
 11
72.25
 21
60.75
  0
LINE
  8
_0-1_作画層１
  6
CONTINUOUS
 62
    7
 10
81.25
 20
55.75
 11
101.75
 21
55.75
  0
LINE
  8
_0-1_作画層１
  6
CONTINUOUS
 62
    7
 10
73.25
 20
57.75
 11
72.25
 21
57.75
  0
LINE
  8
_0-1_作画層１
  6
CONTINUOUS
 62
    7
 10
81.25
 20
57.75
 11
82.25
 21
57.75
  0
LINE
  8
_0-1_作画層１
  6
CONTINUOUS
 62
    7
 10
73.25
 20
57.75
 11
73.25
 21
55.75
  0
LINE
  8
_0-1_作画層１
  6
CONTINUOUS
 62
    7
 10
81.25
 20
57.75
 11
81.25
 21
55.75
  0
LINE
  8
_0-1_作画層１
  6
CONTINUOUS
 62
    7
 10
82.25
 20
57.75
 11
82.25
 21
60.75
  0
LINE
  8
_0-1_作画層１
  6
CONTINUOUS
 62
    7
 10
72.25
 20
57.75
 11
72.25
 21
60.75
  0
CIRCLE
  8
_0-1_作画層１
  6
CONTINUOUS
 62
    7
 10
66.5
 20
104.5
 40
3
  0
ARC
  8
_0-1_作画層１
  6
CONTINUOUS
 62
    7
 10
65.5625
 20
104.40401531990264
 40
0.9424008217384959
 50
5.8457823547354684
 51
174.15421764526454
  0
ARC
  8
_0-1_作画層１
  6
CONTINUOUS
 62
    7
 10
67.4375
 20
104.59598468009737
 40
0.9424008217384971
 50
185.84578235473631
 51
354.15421764526371
  0
LINE
  8
_0-1_作画層１
  6
CONTINUOUS
 62
    7
 10
63.5
 20
104.5
 11
61.25
 21
104.5
  0
LINE
  8
_0-1_作画層１
  6
CONTINUOUS
 62
    7
 10
71.75
 20
104.5
 11
69.5
 21
104.5
  0
CIRCLE
  8
_0-1_作画層１
  6
CONTINUOUS
 62
    7
 10
84.500000000000014
 20
104.5
 40
0.75
  0
CIRCLE
  8
_0-1_作画層１
  6
CONTINUOUS
 62
    7
 10
90.500000000000014
 20
104.5
 40
0.75
  0
LINE
  8
_0-1_作画層１
  6
CONTINUOUS
 62
    7
 10
83.750000000000014
 20
104.5
 11
82.25
 21
104.5
  0
LINE
  8
_0-1_作画層１
  6
CONTINUOUS
 62
    7
 10
91.250000000000014
 20
104.5
 11
92.750000000000014
 21
104.5
  0
LINE
  8
_0-1_作画層１
  6
CONTINUOUS
 62
    7
 10
85.215745344982366
 20
104.27592724142353
 11
91.250000000000014
 21
106
  0
LINE
  8
_0-1_作画層１
  6
CONTINUOUS
 62
    7
 10
61.25
 20
99.75
 11
61.25
 21
104.5
  0
LINE
  8
_0-1_作画層１
  6
CONTINUOUS
 62
    7
 10
71.75
 20
99.75
 11
71.75
 21
104.5
  0
LINE
  8
_0-1_作画層１
  6
CONTINUOUS
 62
    7
 10
82.25
 20
99.75
 11
82.25
 21
104.5
  0
LINE
  8
_0-1_作画層１
  6
CONTINUOUS
 62
    7
 10
92.750000000000014
 20
99.75
 11
92.750000000000014
 21
104.5
  0
LINE
  8
_0-1_作画層１
  6
CONTINUOUS
 62
    7
 10
53.75
 20
99.75
 11
101.25
 21
99.75
  0
LINE
  8
_0-1_作画層１
  6
CONTINUOUS
 62
    7
 10
101.25
 20
99.75
 11
101.25
 21
112.25
  0
LINE
  8
_0-1_作画層１
  6
CONTINUOUS
 62
    7
 10
101.25
 20
112.25
 11
53.75
 21
112.25
  0
LINE
  8
_0-1_作画層１
  6
CONTINUOUS
 62
    7
 10
53.75
 20
112.25
 11
53.75
 21
99.75
  0
TEXT
  8
_0-7_注記層１
 62
    7
 10
62.5
 20
108.25
 40
3
 41
1
 50
0
  1
POWER
  0
TEXT
  8
_0-7_注記層１
 62
    7
 10
84.5
 20
108.25
 40
3
 41
1
 50
0
  1
LOAD
  0
LINE
  8
_0-1_作画層１
  6
CENTER
 62
    7
 10
77.25
 20
49.75
 11
77.25
 21
134.75
  0
LINE
  8
_0-1_作画層１
  6
CONTINUOUS
 62
    7
 10
81.25
 20
55.75
 11
52.75
 21
55.75
  0
CIRCLE
  8
_0-1_作画層１
  6
CONTINUOUS
 62
    7
 10
156.25
 20
77.25
 40
5
  0
LINE
  8
_0-1_作画層１
  6
CONTINUOUS
 62
    7
 10
155
 20
81.625
 11
157.5
 21
81.625
  0
LINE
  8
_0-1_作画層１
  6
CONTINUOUS
 62
    7
 10
157.5
 20
72.875
 11
155
 21
72.875
  0
LINE
  8
_0-1_作画層１
  6
CONTINUOUS
 62
    7
 10
160.625
 20
78.5
 11
160.625
 21
76
  0
LINE
  8
_0-1_作画層１
  6
CONTINUOUS
 62
    7
 10
151.875
 20
76
 11
151.875
 21
78.5
  0
ARC
  8
_0-1_作画層１
  6
CONTINUOUS
 62
    7
 10
154.00000000000003
 20
79.499999999999986
 40
0.9999999999999713
 50
269.99999999999835
 51
0.0000000000008142
  0
LINE
  8
_0-1_作画層１
  6
CONTINUOUS
 62
    7
 10
151.875
 20
76
 11
154
 21
76
  0
ARC
  8
_0-1_作画層１
  6
CONTINUOUS
 62
    7
 10
154.00000000000003
 20
75.000000000000014
 40
0.9999999999999855
 50
359.9999999999992
 51
90.000000000001634
  0
LINE
  8
_0-1_作画層１
  6
CONTINUOUS
 62
    7
 10
160.625
 20
78.5
 11
158.5
 21
78.5
  0
ARC
  8
_0-1_作画層１
  6
CONTINUOUS
 62
    7
 10
158.49999999999997
 20
79.499999999999986
 40
0.9999999999999855
 50
179.99999999999918
 51
270.00000000000171
  0
LINE
  8
_0-1_作画層１
  6
CONTINUOUS
 62
    7
 10
154.0000001271566
 20
78.5
 11
151.875
 21
78.5
  0
LINE
  8
_0-1_作画層１
  6
CONTINUOUS
 62
    7
 10
160.625
 20
76
 11
158.5
 21
76
  0
LINE
  8
_0-1_作画層１
  6
CONTINUOUS
 62
    7
 10
157.5
 20
72.875
 11
157.5
 21
75
  0
ARC
  8
_0-1_作画層１
  6
CONTINUOUS
 62
    7
 10
158.49999999999997
 20
75.000000000000014
 40
0.9999999999999855
 50
89.99999999999838
 51
180.00000000000082
  0
LINE
  8
_0-1_作画層１
  6
CONTINUOUS
 62
    7
 10
155
 20
79.499999999999986
 11
155
 21
81.625
  0
LINE
  8
_0-1_作画層１
  6
CONTINUOUS
 62
    7
 10
155
 20
75.000000000000014
 11
155
 21
72.875
  0
LINE
  8
_0-1_作画層１
  6
CONTINUOUS
 62
    7
 10
157.5
 20
79.499999999999986
 11
157.5
 21
81.625
  0
CIRCLE
  8
_0-1_作画層１
  6
CONTINUOUS
 62
    7
 10
173.75
 20
77.25
 40
5
  0
LINE
  8
_0-1_作画層１
  6
CONTINUOUS
 62
    7
 10
172.5
 20
81.625
 11
175
 21
81.625
  0
LINE
  8
_0-1_作画層１
  6
CONTINUOUS
 62
    7
 10
175
 20
72.875
 11
172.5
 21
72.875
  0
LINE
  8
_0-1_作画層１
  6
CONTINUOUS
 62
    7
 10
178.125
 20
78.5
 11
178.125
 21
76
  0
LINE
  8
_0-1_作画層１
  6
CONTINUOUS
 62
    7
 10
169.375
 20
76
 11
169.375
 21
78.5
  0
ARC
  8
_0-1_作画層１
  6
CONTINUOUS
 62
    7
 10
171.50000000000003
 20
79.499999999999986
 40
0.9999999999999713
 50
269.99999999999835
 51
0.0000000000008142
  0
LINE
  8
_0-1_作画層１
  6
CONTINUOUS
 62
    7
 10
169.375
 20
76
 11
171.5
 21
76
  0
ARC
  8
_0-1_作画層１
  6
CONTINUOUS
 62
    7
 10
171.50000000000003
 20
75.000000000000014
 40
0.9999999999999855
 50
359.9999999999992
 51
90.000000000001634
  0
LINE
  8
_0-1_作画層１
  6
CONTINUOUS
 62
    7
 10
178.125
 20
78.5
 11
176
 21
78.5
  0
ARC
  8
_0-1_作画層１
  6
CONTINUOUS
 62
    7
 10
175.99999999999997
 20
79.499999999999986
 40
0.9999999999999855
 50
179.99999999999918
 51
270.00000000000171
  0
LINE
  8
_0-1_作画層１
  6
CONTINUOUS
 62
    7
 10
171.5000001271566
 20
78.5
 11
169.375
 21
78.5
  0
LINE
  8
_0-1_作画層１
  6
CONTINUOUS
 62
    7
 10
178.125
 20
76
 11
176
 21
76
  0
LINE
  8
_0-1_作画層１
  6
CONTINUOUS
 62
    7
 10
175
 20
72.875
 11
175
 21
75
  0
ARC
  8
_0-1_作画層１
  6
CONTINUOUS
 62
    7
 10
175.99999999999997
 20
75.000000000000014
 40
0.9999999999999855
 50
89.99999999999838
 51
180.00000000000082
  0
LINE
  8
_0-1_作画層１
  6
CONTINUOUS
 62
    7
 10
172.5
 20
79.499999999999986
 11
172.5
 21
81.625
  0
LINE
  8
_0-1_作画層１
  6
CONTINUOUS
 62
    7
 10
172.5
 20
75.000000000000014
 11
172.5
 21
72.875
  0
LINE
  8
_0-1_作画層１
  6
CONTINUOUS
 62
    7
 10
175
 20
79.499999999999986
 11
175
 21
81.625
  0
CIRCLE
  8
_0-1_作画層１
  6
CONTINUOUS
 62
    7
 10
191.25
 20
77.25
 40
5
  0
LINE
  8
_0-1_作画層１
  6
CONTINUOUS
 62
    7
 10
190
 20
81.625
 11
192.5
 21
81.625
  0
LINE
  8
_0-1_作画層１
  6
CONTINUOUS
 62
    7
 10
192.5
 20
72.875
 11
190
 21
72.875
  0
LINE
  8
_0-1_作画層１
  6
CONTINUOUS
 62
    7
 10
195.625
 20
78.5
 11
195.625
 21
76
  0
LINE
  8
_0-1_作画層１
  6
CONTINUOUS
 62
    7
 10
186.875
 20
76
 11
186.875
 21
78.5
  0
ARC
  8
_0-1_作画層１
  6
CONTINUOUS
 62
    7
 10
189.00000000000003
 20
79.499999999999986
 40
0.9999999999999713
 50
269.99999999999835
 51
0.0000000000008142
  0
LINE
  8
_0-1_作画層１
  6
CONTINUOUS
 62
    7
 10
186.875
 20
76
 11
189
 21
76
  0
ARC
  8
_0-1_作画層１
  6
CONTINUOUS
 62
    7
 10
189.00000000000003
 20
75.000000000000014
 40
0.9999999999999855
 50
359.9999999999992
 51
90.000000000001634
  0
LINE
  8
_0-1_作画層１
  6
CONTINUOUS
 62
    7
 10
195.625
 20
78.5
 11
193.5
 21
78.5
  0
ARC
  8
_0-1_作画層１
  6
CONTINUOUS
 62
    7
 10
193.49999999999997
 20
79.499999999999986
 40
0.9999999999999855
 50
179.99999999999918
 51
270.00000000000171
  0
LINE
  8
_0-1_作画層１
  6
CONTINUOUS
 62
    7
 10
189.0000001271566
 20
78.5
 11
186.875
 21
78.5
  0
LINE
  8
_0-1_作画層１
  6
CONTINUOUS
 62
    7
 10
195.625
 20
76
 11
193.5
 21
76
  0
LINE
  8
_0-1_作画層１
  6
CONTINUOUS
 62
    7
 10
192.5
 20
72.875
 11
192.5
 21
75
  0
ARC
  8
_0-1_作画層１
  6
CONTINUOUS
 62
    7
 10
193.49999999999997
 20
75.000000000000014
 40
0.9999999999999855
 50
89.99999999999838
 51
180.00000000000082
  0
LINE
  8
_0-1_作画層１
  6
CONTINUOUS
 62
    7
 10
190
 20
79.499999999999986
 11
190
 21
81.625
  0
LINE
  8
_0-1_作画層１
  6
CONTINUOUS
 62
    7
 10
190
 20
75.000000000000014
 11
190
 21
72.875
  0
LINE
  8
_0-1_作画層１
  6
CONTINUOUS
 62
    7
 10
192.5
 20
79.499999999999986
 11
192.5
 21
81.625
  0
CIRCLE
  8
_0-1_作画層１
  6
CONTINUOUS
 62
    7
 10
208.75
 20
77.25
 40
5
  0
LINE
  8
_0-1_作画層１
  6
CONTINUOUS
 62
    7
 10
207.5
 20
81.625
 11
210
 21
81.625
  0
LINE
  8
_0-1_作画層１
  6
CONTINUOUS
 62
    7
 10
210
 20
72.875
 11
207.5
 21
72.875
  0
LINE
  8
_0-1_作画層１
  6
CONTINUOUS
 62
    7
 10
213.125
 20
78.5
 11
213.125
 21
76
  0
LINE
  8
_0-1_作画層１
  6
CONTINUOUS
 62
    7
 10
204.375
 20
76
 11
204.375
 21
78.5
  0
ARC
  8
_0-1_作画層１
  6
CONTINUOUS
 62
    7
 10
206.50000000000003
 20
79.499999999999986
 40
0.9999999999999713
 50
269.99999999999835
 51
0.0000000000008142
  0
LINE
  8
_0-1_作画層１
  6
CONTINUOUS
 62
    7
 10
204.375
 20
76
 11
206.5
 21
76
  0
ARC
  8
_0-1_作画層１
  6
CONTINUOUS
 62
    7
 10
206.50000000000003
 20
75.000000000000014
 40
0.9999999999999855
 50
359.9999999999992
 51
90.000000000001634
  0
LINE
  8
_0-1_作画層１
  6
CONTINUOUS
 62
    7
 10
213.125
 20
78.5
 11
211
 21
78.5
  0
ARC
  8
_0-1_作画層１
  6
CONTINUOUS
 62
    7
 10
210.99999999999997
 20
79.499999999999986
 40
0.9999999999999855
 50
179.99999999999918
 51
270.00000000000171
  0
LINE
  8
_0-1_作画層１
  6
CONTINUOUS
 62
    7
 10
206.5000001271566
 20
78.5
 11
204.375
 21
78.5
  0
LINE
  8
_0-1_作画層１
  6
CONTINUOUS
 62
    7
 10
213.125
 20
76
 11
211
 21
76
  0
LINE
  8
_0-1_作画層１
  6
CONTINUOUS
 62
    7
 10
210
 20
72.875
 11
210
 21
75
  0
ARC
  8
_0-1_作画層１
  6
CONTINUOUS
 62
    7
 10
210.99999999999997
 20
75.000000000000014
 40
0.9999999999999855
 50
89.99999999999838
 51
180.00000000000082
  0
LINE
  8
_0-1_作画層１
  6
CONTINUOUS
 62
    7
 10
207.5
 20
79.499999999999986
 11
207.5
 21
81.625
  0
LINE
  8
_0-1_作画層１
  6
CONTINUOUS
 62
    7
 10
207.5
 20
75.000000000000014
 11
207.5
 21
72.875
  0
LINE
  8
_0-1_作画層１
  6
CONTINUOUS
 62
    7
 10
210
 20
79.499999999999986
 11
210
 21
81.625
  0
LINE
  8
_0-1_作画層１
  6
CONTINUOUS
 62
    7
 10
148.75
 20
84.75
 11
216.25
 21
84.75
  0
LINE
  8
_0-1_作画層１
  6
CONTINUOUS
 62
    7
 10
216.25
 20
84.75
 11
216.25
 21
69.75
  0
LINE
  8
_0-1_作画層１
  6
CONTINUOUS
 62
    7
 10
216.25
 20
69.75
 11
148.75
 21
69.75
  0
LINE
  8
_0-1_作画層１
  6
CONTINUOUS
 62
    7
 10
148.75
 20
69.75
 11
148.75
 21
84.75
  0
LINE
  8
_0-1_作画層１
  6
CONTINUOUS
 62
    7
 10
208.75
 20
62.25
 11
221.25
 21
62.25
  0
LINE
  8
_0-1_作画層１
  6
DASHED
 62
    7
 10
136.25
 20
109.75
 11
136.25
 21
77.25
  0
LINE
  8
_0-1_作画層１
  6
DASHED
 62
    7
 10
136.25
 20
77.25
 11
148.75
 21
77.25
  0
LINE
  8
_0-1_作画層１
  6
DASHED
 62
    7
 10
228.75
 20
109.75
 11
228.75
 21
77.25
  0
LINE
  8
_0-1_作画層１
  6
DASHED
 62
    7
 10
228.75
 20
77.25
 11
216.25
 21
77.25
  0
CIRCLE
  8
_0-1_作画層１
  6
CONTINUOUS
 62
    7
 10
165
 20
54.75
 40
5
  0
ARC
  8
_0-1_作画層１
  6
CONTINUOUS
 62
    7
 10
163.4375
 20
54.909974466828913
 40
1.5706680362308238
 50
185.84578235473452
 51
354.15421764526542
  0
ARC
  8
_0-1_作画層１
  6
CONTINUOUS
 62
    7
 10
166.5625
 20
54.590025533171058
 40
1.5706680362308283
 50
5.8457823547360706
 51
174.15421764526394
  0
LINE
  8
_0-1_作画層１
  6
CONTINUOUS
 62
    7
 10
160
 20
54.75
 11
156.25
 21
54.75
  0
LINE
  8
_0-1_作画層１
  6
CONTINUOUS
 62
    7
 10
173.75
 20
54.75
 11
170
 21
54.75
  0
LINE
  8
_0-1_作画層１
  6
CONTINUOUS
 62
    7
 10
193.75
 20
54.75
 11
191.25
 21
54.75
  0
TEXT
  8
_0-7_注記層１
 62
    7
 10
160.25
 20
45.5
 40
3.5
 41
1
 50
0
  1
電源
  0
TEXT
  8
_0-7_注記層１
 62
    7
 10
154.125
 20
42
 40
3.5
 41
1
 50
0
  1
AC100V-200V
  0
TEXT
  8
_0-7_注記層１
 62
    7
 10
195.25
 20
53
 40
3.5
 41
1
 50
0
  1
負荷
  0
LINE
  8
_0-1_作画層１
  6
CONTINUOUS
 62
    7
 10
193.75
 20
52.25
 11
203.75
 21
52.25
  0
LINE
  8
_0-1_作画層１
  6
CONTINUOUS
 62
    7
 10
203.75
 20
52.25
 11
203.75
 21
57.25
  0
LINE
  8
_0-1_作画層１
  6
CONTINUOUS
 62
    7
 10
203.75
 20
57.25
 11
193.75
 21
57.25
  0
LINE
  8
_0-1_作画層１
  6
CONTINUOUS
 62
    7
 10
193.75
 20
57.25
 11
193.75
 21
52.25
  0
LINE
  8
_0-1_作画層１
  6
CONTINUOUS
 62
    7
 10
203.75
 20
54.75
 11
221.25
 21
54.75
  0
CIRCLE
  8
_0-1_作画層１
  6
CONTINUOUS
 62
    7
 10
195
 20
99.75
 40
1.25
  0
CIRCLE
  8
_0-1_作画層１
  6
CONTINUOUS
 62
    7
 10
205
 20
99.75
 40
1.25
  0
LINE
  8
_0-1_作画層１
  6
CONTINUOUS
 62
    7
 10
193.75
 20
99.75
 11
191.25
 21
99.75
  0
LINE
  8
_0-1_作画層１
  6
CONTINUOUS
 62
    7
 10
206.25
 20
99.75
 11
208.75
 21
99.75
  0
TEXT
  8
_0-7_注記層１
 62
    7
 10
194.25
 20
105.5
 40
3.5
 41
1
 50
0
  1
接点出力
  0
TEXT
  8
_0-7_注記層１
 62
    7
 10
158
 20
98
 40
3.5
 41
1
 50
0
  1
内部回路
  0
LINE
  8
_0-1_作画層１
  6
CONTINUOUS
 62
    7
 10
153.75
 20
97.25
 11
176.25
 21
97.25
  0
LINE
  8
_0-1_作画層１
  6
CONTINUOUS
 62
    7
 10
176.25
 20
97.25
 11
176.25
 21
102.25
  0
LINE
  8
_0-1_作画層１
  6
CONTINUOUS
 62
    7
 10
176.25
 20
102.25
 11
153.75
 21
102.25
  0
LINE
  8
_0-1_作画層１
  6
CONTINUOUS
 62
    7
 10
153.75
 20
102.25
 11
153.75
 21
97.25
  0
LINE
  8
_0-1_作画層１
  6
CONTINUOUS
 62
    7
 10
191.25
 20
84.75
 11
191.25
 21
99.75
  0
LINE
  8
_0-1_作画層１
  6
CONTINUOUS
 62
    7
 10
208.75
 20
84.75
 11
208.75
 21
99.75
  0
LINE
  8
_0-1_作画層１
  6
CONTINUOUS
 62
    7
 10
156.25
 20
84.75
 11
156.25
 21
97.25
  0
LINE
  8
_0-1_作画層１
  6
CONTINUOUS
 62
    7
 10
173.75
 20
84.75
 11
173.75
 21
97.25
  0
LINE
  8
_0-1_作画層１
  6
CONTINUOUS
 62
    7
 10
156.25
 20
69.75
 11
156.25
 21
54.75
  0
LINE
  8
_0-1_作画層１
  6
CONTINUOUS
 62
    7
 10
173.75
 20
69.75
 11
173.75
 21
54.75
  0
LINE
  8
_0-1_作画層１
  6
CONTINUOUS
 62
    7
 10
208.75
 20
69.75
 11
208.75
 21
62.25
  0
LINE
  8
_0-1_作画層１
  6
CONTINUOUS
 62
    7
 10
191.25
 20
69.75
 11
191.25
 21
54.75
  0
TEXT
  8
_0-7_注記層１
 62
    7
 10
222.5
 20
57.25
 40
3.5
 41
1
 50
0
  1
負荷用電源
  0
LINE
  8
_0-1_作画層１
  6
CONTINUOUS
 62
    7
 10
156.25
 20
117.25
 11
181.25
 21
117.25
  0
TEXT
  8
_0-7_注記層１
 62
    7
 10
158.75
 20
117.25
 40
5
 41
1
 50
0
  1
端子接続
  0
LINE
  8
_0-1_作画層１
  6
CONTINUOUS
 62
    7
 10
161.125
 20
187.72334957055045
 11
158.47334957055045
 21
190.375
  0
LINE
  8
_0-1_作画層１
  6
CONTINUOUS
 62
    7
 10
158.47334957055045
 20
190.375
 11
161.125
 21
193.02665042944955
  0
LINE
  8
_0-1_作画層１
  6
CONTINUOUS
 62
    7
 10
161.125
 20
193.02665042944955
 11
163.77665042944955
 21
190.375
  0
LINE
  8
_0-1_作画層１
  6
CONTINUOUS
 62
    7
 10
163.77665042944955
 20
190.375
 11
161.125
 21
187.72334957055045
  0
TEXT
  8
_0-7_注記層１
 62
    7
 10
161.44999999999999
 20
189.42500000000001
 40
1.8999999999999999
 41
1
 50
90
  1
PS
  0
TEXT
  8
_0-7_注記層１
 62
    7
 10
163.34999999999999
 20
189.90000000000001
 40
1.8999999999999999
 41
1
 50
90
  1
E
  0
TEXT
  8
_0-7_注記層１
 62
    7
 10
164.625
 20
192
 40
2
 41
1
 50
90
  1
JET
  0
LINE
  8
_0-1_作画層１
  6
CONTINUOUS
 62
    7
 10
371.25
 20
183.5
 11
268.75
 21
183.5
  0
TEXT
  8
_0-7_注記層１
 62
    7
 10
271.25
 20
188
 40
3.5
 41
1
 50
0
  1
付　　属　　品
  0
LINE
  8
_0-1_作画層１
  6
CONTINUOUS
 62
    7
 10
268.75
 20
183.5
 11
268.75
 21
267.25
  0
LINE
  8
_0-1_作画層１
  6
CONTINUOUS
 62
    7
 10
303.75
 20
183.5
 11
303.75
 21
267.25
  0
LINE
  8
_0-1_作画層１
  6
CONTINUOUS
 62
    7
 10
371.25
 20
183.5
 11
371.25
 21
267.25
  0
TEXT
  8
_0-7_注記層１
 62
    7
 10
306.25
 20
188
 40
3.5
 41
1
 50
0
  1
前面カバー、端子台カバー、
  0
TEXT
  8
_0-7_注記層１
 62
    7
 10
306.25
 20
184.5
 40
3.5
 41
1
 50
0
  1
取付けビス２本、
  0
LINE
  8
_0-1_作画層１
  6
CONTINUOUS
 62
    7
 10
68.620000000000005
 20
223.01999999999998
 11
68.620000000000005
 21
219.71999999999997
  0
LINE
  8
_0-1_作画層１
  6
CONTINUOUS
 62
    7
 10
68.620000000000005
 20
223.01999999999998
 11
68.949999999999989
 21
223.34999999999997
  0
LINE
  8
_0-1_作画層１
  6
CONTINUOUS
 62
    7
 10
68.949999999999989
 20
223.34999999999997
 11
69.280000000000001
 21
223.01999999999998
  0
LINE
  8
_0-1_作画層１
  6
CONTINUOUS
 62
    7
 10
69.280000000000001
 20
223.01999999999998
 11
69.280000000000001
 21
219.71999999999997
  0
LINE
  8
_0-1_作画層１
  6
CONTINUOUS
 62
    7
 10
68.620000000000005
 20
219.71999999999997
 11
68.949999999999989
 21
219.38999999999996
  0
LINE
  8
_0-1_作画層１
  6
CONTINUOUS
 62
    7
 10
69.280000000000001
 20
219.71999999999997
 11
68.949999999999989
 21
219.38999999999996
  0
LINE
  8
_0-1_作画層１
  6
CONTINUOUS
 62
    7
 10
68.921690475583148
 20
219.41830952441683
 11
69.280000000000001
 21
219.77661904883365
  0
LINE
  8
_0-1_作画層１
  6
CONTINUOUS
 62
    7
 10
68.828352380466526
 20
219.51164761953342
 11
69.280000000000001
 21
219.96329523906689
  0
LINE
  8
_0-1_作画層１
  6
CONTINUOUS
 62
    7
 10
68.735014285349934
 20
219.60498571465004
 11
69.280000000000001
 21
220.14997142930011
  0
LINE
  8
_0-1_作画層１
  6
CONTINUOUS
 62
    7
 10
68.641676190233284
 20
219.69832380976669
 11
69.280000000000001
 21
220.33664761953341
  0
LINE
  8
_0-1_作画層１
  6
CONTINUOUS
 62
    7
 10
68.620000000000005
 20
219.86332380976665
 11
69.280000000000001
 21
220.52332380976659
  0
LINE
  8
_0-1_作画層１
  6
CONTINUOUS
 62
    7
 10
68.620000000000005
 20
220.04999999999987
 11
69.280000000000001
 21
220.70999999999987
  0
LINE
  8
_0-1_作画層１
  6
CONTINUOUS
 62
    7
 10
68.620000000000005
 20
220.23667619023308
 11
69.280000000000001
 21
220.89667619023311
  0
LINE
  8
_0-1_作画層１
  6
CONTINUOUS
 62
    7
 10
68.620000000000005
 20
220.42335238046635
 11
69.280000000000001
 21
221.08335238046629
  0
LINE
  8
_0-1_作画層１
  6
CONTINUOUS
 62
    7
 10
68.620000000000005
 20
220.61002857069951
 11
69.280000000000001
 21
221.27002857069957
  0
LINE
  8
_0-1_作画層１
  6
CONTINUOUS
 62
    7
 10
68.620000000000005
 20
220.79670476093278
 11
69.280000000000001
 21
221.45670476093272
  0
LINE
  8
_0-1_作画層１
  6
CONTINUOUS
 62
    7
 10
68.620000000000005
 20
220.98338095116605
 11
69.280000000000001
 21
221.64338095116605
  0
LINE
  8
_0-1_作画層１
  6
CONTINUOUS
 62
    7
 10
68.620000000000005
 20
221.17005714139927
 11
69.280000000000001
 21
221.83005714139927
  0
LINE
  8
_0-1_作画層１
  6
CONTINUOUS
 62
    7
 10
68.620000000000005
 20
221.35673333163254
 11
69.280000000000001
 21
222.01673333163254
  0
LINE
  8
_0-1_作画層１
  6
CONTINUOUS
 62
    7
 10
68.620000000000005
 20
221.54340952186575
 11
69.280000000000001
 21
222.20340952186581
  0
LINE
  8
_0-1_作画層１
  6
CONTINUOUS
 62
    7
 10
68.620000000000005
 20
221.73008571209903
 11
69.280000000000001
 21
222.39008571209902
  0
LINE
  8
_0-1_作画層１
  6
CONTINUOUS
 62
    7
 10
68.620000000000005
 20
221.9167619023323
 11
69.280000000000001
 21
222.57676190233229
  0
LINE
  8
_0-1_作画層１
  6
CONTINUOUS
 62
    7
 10
68.620000000000005
 20
222.10343809256545
 11
69.280000000000001
 21
222.76343809256545
  0
LINE
  8
_0-1_作画層１
  6
CONTINUOUS
 62
    7
 10
68.620000000000005
 20
222.29011428279873
 11
69.280000000000001
 21
222.95011428279872
  0
LINE
  8
_0-1_作画層１
  6
CONTINUOUS
 62
    7
 10
68.620000000000005
 20
222.47679047303194
 11
69.221604763483981
 21
223.078395236516
  0
LINE
  8
_0-1_作画層１
  6
CONTINUOUS
 62
    7
 10
68.620000000000005
 20
222.66346666326518
 11
69.12826666836736
 21
223.17173333163259
  0
LINE
  8
_0-1_作画層１
  6
CONTINUOUS
 62
    7
 10
68.620000000000005
 20
222.85014285349843
 11
69.034928573250738
 21
223.26507142674919
  0
LINE
  8
_0-1_作画層１
  6
CONTINUOUS
 62
    7
 10
68.620000000000005
 20
219.05999999999995
 11
68.620000000000005
 21
215.75999999999993
  0
LINE
  8
_0-1_作画層１
  6
CONTINUOUS
 62
    7
 10
68.620000000000005
 20
219.05999999999995
 11
68.949999999999989
 21
219.38999999999996
  0
LINE
  8
_0-1_作画層１
  6
CONTINUOUS
 62
    7
 10
68.949999999999989
 20
219.38999999999996
 11
69.280000000000001
 21
219.05999999999995
  0
LINE
  8
_0-1_作画層１
  6
CONTINUOUS
 62
    7
 10
69.280000000000001
 20
219.05999999999995
 11
69.280000000000001
 21
215.75999999999993
  0
LINE
  8
_0-1_作画層１
  6
CONTINUOUS
 62
    7
 10
68.620000000000005
 20
215.75999999999993
 11
68.949999999999989
 21
215.42999999999998
  0
LINE
  8
_0-1_作画層１
  6
CONTINUOUS
 62
    7
 10
69.280000000000001
 20
215.75999999999993
 11
68.949999999999989
 21
215.42999999999998
  0
LINE
  8
_0-1_作画層１
  6
CONTINUOUS
 62
    7
 10
68.921690475583148
 20
215.45830952441685
 11
69.280000000000001
 21
215.81661904883367
  0
LINE
  8
_0-1_作画層１
  6
CONTINUOUS
 62
    7
 10
68.828352380466526
 20
215.55164761953341
 11
69.280000000000001
 21
216.00329523906694
  0
LINE
  8
_0-1_作画層１
  6
CONTINUOUS
 62
    7
 10
68.735014285349934
 20
215.64498571465006
 11
69.280000000000001
 21
216.1899714293001
  0
LINE
  8
_0-1_作画層１
  6
CONTINUOUS
 62
    7
 10
68.641676190233284
 20
215.73832380976665
 11
69.280000000000001
 21
216.37664761953343
  0
LINE
  8
_0-1_作画層１
  6
CONTINUOUS
 62
    7
 10
68.620000000000005
 20
215.90332380976662
 11
69.280000000000001
 21
216.56332380976664
  0
LINE
  8
_0-1_作画層１
  6
CONTINUOUS
 62
    7
 10
68.620000000000005
 20
216.08999999999986
 11
69.280000000000001
 21
216.74999999999986
  0
LINE
  8
_0-1_作画層１
  6
CONTINUOUS
 62
    7
 10
68.620000000000005
 20
216.2766761902331
 11
69.280000000000001
 21
216.93667619023307
  0
LINE
  8
_0-1_作画層１
  6
CONTINUOUS
 62
    7
 10
68.620000000000005
 20
216.46335238046632
 11
69.280000000000001
 21
217.12335238046634
  0
LINE
  8
_0-1_作画層１
  6
CONTINUOUS
 62
    7
 10
68.620000000000005
 20
216.65002857069953
 11
69.280000000000001
 21
217.31002857069953
  0
LINE
  8
_0-1_作画層１
  6
CONTINUOUS
 62
    7
 10
68.620000000000005
 20
216.83670476093275
 11
69.280000000000001
 21
217.4967047609328
  0
LINE
  8
_0-1_作画層１
  6
CONTINUOUS
 62
    7
 10
68.620000000000005
 20
217.02338095116602
 11
69.280000000000001
 21
217.68338095116604
  0
LINE
  8
_0-1_作画層１
  6
CONTINUOUS
 62
    7
 10
68.620000000000005
 20
217.21005714139929
 11
69.280000000000001
 21
217.87005714139929
  0
LINE
  8
_0-1_作画層１
  6
CONTINUOUS
 62
    7
 10
68.620000000000005
 20
217.39673333163256
 11
69.280000000000001
 21
218.05673333163253
  0
LINE
  8
_0-1_作画層１
  6
CONTINUOUS
 62
    7
 10
68.620000000000005
 20
217.58340952186578
 11
69.280000000000001
 21
218.24340952186577
  0
LINE
  8
_0-1_作画層１
  6
CONTINUOUS
 62
    7
 10
68.620000000000005
 20
217.77008571209905
 11
69.280000000000001
 21
218.43008571209901
  0
LINE
  8
_0-1_作画層１
  6
CONTINUOUS
 62
    7
 10
68.620000000000005
 20
217.95676190233226
 11
69.280000000000001
 21
218.61676190233229
  0
LINE
  8
_0-1_作画層１
  6
CONTINUOUS
 62
    7
 10
68.620000000000005
 20
218.14343809256548
 11
69.280000000000001
 21
218.80343809256547
  0
LINE
  8
_0-1_作画層１
  6
CONTINUOUS
 62
    7
 10
68.620000000000005
 20
218.33011428279869
 11
69.280000000000001
 21
218.99011428279874
  0
LINE
  8
_0-1_作画層１
  6
CONTINUOUS
 62
    7
 10
68.620000000000005
 20
218.51679047303196
 11
69.221604763483981
 21
219.11839523651597
  0
LINE
  8
_0-1_作画層１
  6
CONTINUOUS
 62
    7
 10
68.620000000000005
 20
218.70346666326523
 11
69.12826666836736
 21
219.21173333163262
  0
LINE
  8
_0-1_作画層１
  6
CONTINUOUS
 62
    7
 10
68.620000000000005
 20
218.89014285349845
 11
69.034928573250738
 21
219.30507142674918
  0
LINE
  8
_0-1_作画層１
  6
CONTINUOUS
 62
    7
 10
71.620000000000005
 20
223.01999999999998
 11
71.620000000000005
 21
219.71999999999997
  0
LINE
  8
_0-1_作画層１
  6
CONTINUOUS
 62
    7
 10
72.280000000000001
 20
223.01999999999998
 11
72.280000000000001
 21
219.71999999999997
  0
LINE
  8
_0-1_作画層１
  6
CONTINUOUS
 62
    7
 10
71.620000000000005
 20
219.71999999999997
 11
71.949999999999989
 21
219.38999999999996
  0
LINE
  8
_0-1_作画層１
  6
CONTINUOUS
 62
    7
 10
72.280000000000001
 20
219.71999999999997
 11
71.949999999999989
 21
219.38999999999996
  0
LINE
  8
_0-1_作画層１
  6
CONTINUOUS
 62
    7
 10
71.921690475583148
 20
219.41830952441683
 11
72.280000000000001
 21
219.77661904883365
  0
LINE
  8
_0-1_作画層１
  6
CONTINUOUS
 62
    7
 10
71.828352380466526
 20
219.51164761953342
 11
72.280000000000001
 21
219.96329523906689
  0
LINE
  8
_0-1_作画層１
  6
CONTINUOUS
 62
    7
 10
71.735014285349934
 20
219.60498571465004
 11
72.280000000000001
 21
220.14997142930011
  0
LINE
  8
_0-1_作画層１
  6
CONTINUOUS
 62
    7
 10
71.641676190233255
 20
219.69832380976669
 11
72.280000000000001
 21
220.33664761953341
  0
LINE
  8
_0-1_作画層１
  6
CONTINUOUS
 62
    7
 10
71.620000000000005
 20
219.86332380976665
 11
72.280000000000001
 21
220.52332380976659
  0
LINE
  8
_0-1_作画層１
  6
CONTINUOUS
 62
    7
 10
71.620000000000005
 20
220.04999999999987
 11
72.280000000000001
 21
220.70999999999987
  0
LINE
  8
_0-1_作画層１
  6
CONTINUOUS
 62
    7
 10
71.620000000000005
 20
220.23667619023308
 11
72.280000000000001
 21
220.89667619023311
  0
LINE
  8
_0-1_作画層１
  6
CONTINUOUS
 62
    7
 10
71.620000000000005
 20
220.42335238046635
 11
72.280000000000001
 21
221.08335238046629
  0
LINE
  8
_0-1_作画層１
  6
CONTINUOUS
 62
    7
 10
71.620000000000005
 20
220.61002857069951
 11
72.280000000000001
 21
221.27002857069957
  0
LINE
  8
_0-1_作画層１
  6
CONTINUOUS
 62
    7
 10
71.620000000000005
 20
220.79670476093278
 11
72.280000000000001
 21
221.45670476093272
  0
LINE
  8
_0-1_作画層１
  6
CONTINUOUS
 62
    7
 10
71.620000000000005
 20
220.98338095116605
 11
72.280000000000001
 21
221.64338095116605
  0
LINE
  8
_0-1_作画層１
  6
CONTINUOUS
 62
    7
 10
71.620000000000005
 20
221.17005714139927
 11
72.280000000000001
 21
221.83005714139927
  0
LINE
  8
_0-1_作画層１
  6
CONTINUOUS
 62
    7
 10
71.620000000000005
 20
221.35673333163254
 11
72.280000000000001
 21
222.01673333163254
  0
LINE
  8
_0-1_作画層１
  6
CONTINUOUS
 62
    7
 10
71.620000000000005
 20
221.54340952186575
 11
72.280000000000001
 21
222.20340952186581
  0
LINE
  8
_0-1_作画層１
  6
CONTINUOUS
 62
    7
 10
71.620000000000005
 20
221.73008571209903
 11
72.280000000000001
 21
222.39008571209902
  0
LINE
  8
_0-1_作画層１
  6
CONTINUOUS
 62
    7
 10
71.620000000000005
 20
221.9167619023323
 11
72.280000000000001
 21
222.57676190233229
  0
LINE
  8
_0-1_作画層１
  6
CONTINUOUS
 62
    7
 10
71.620000000000005
 20
222.10343809256545
 11
72.280000000000001
 21
222.76343809256545
  0
LINE
  8
_0-1_作画層１
  6
CONTINUOUS
 62
    7
 10
71.620000000000005
 20
222.29011428279873
 11
72.280000000000001
 21
222.95011428279872
  0
LINE
  8
_0-1_作画層１
  6
CONTINUOUS
 62
    7
 10
71.620000000000005
 20
222.47679047303194
 11
72.221604763483981
 21
223.078395236516
  0
LINE
  8
_0-1_作画層１
  6
CONTINUOUS
 62
    7
 10
71.620000000000005
 20
222.66346666326518
 11
72.12826666836736
 21
223.17173333163259
  0
LINE
  8
_0-1_作画層１
  6
CONTINUOUS
 62
    7
 10
71.620000000000005
 20
222.85014285349843
 11
72.034928573250738
 21
223.26507142674919
  0
LINE
  8
_0-1_作画層１
  6
CONTINUOUS
 62
    7
 10
71.620000000000005
 20
219.05999999999995
 11
71.620000000000005
 21
215.75999999999993
  0
LINE
  8
_0-1_作画層１
  6
CONTINUOUS
 62
    7
 10
71.620000000000005
 20
219.05999999999995
 11
71.949999999999989
 21
219.38999999999996
  0
LINE
  8
_0-1_作画層１
  6
CONTINUOUS
 62
    7
 10
71.949999999999989
 20
219.38999999999996
 11
72.280000000000001
 21
219.05999999999995
  0
LINE
  8
_0-1_作画層１
  6
CONTINUOUS
 62
    7
 10
72.280000000000001
 20
219.05999999999995
 11
72.280000000000001
 21
215.75999999999993
  0
LINE
  8
_0-1_作画層１
  6
CONTINUOUS
 62
    7
 10
71.620000000000005
 20
215.75999999999993
 11
71.949999999999989
 21
215.42999999999998
  0
LINE
  8
_0-1_作画層１
  6
CONTINUOUS
 62
    7
 10
72.280000000000001
 20
215.75999999999993
 11
71.949999999999989
 21
215.42999999999998
  0
LINE
  8
_0-1_作画層１
  6
CONTINUOUS
 62
    7
 10
71.921690475583148
 20
215.45830952441685
 11
72.280000000000001
 21
215.81661904883367
  0
LINE
  8
_0-1_作画層１
  6
CONTINUOUS
 62
    7
 10
71.828352380466526
 20
215.55164761953341
 11
72.280000000000001
 21
216.00329523906694
  0
LINE
  8
_0-1_作画層１
  6
CONTINUOUS
 62
    7
 10
71.735014285349934
 20
215.64498571465006
 11
72.280000000000001
 21
216.1899714293001
  0
LINE
  8
_0-1_作画層１
  6
CONTINUOUS
 62
    7
 10
71.641676190233255
 20
215.73832380976665
 11
72.280000000000001
 21
216.37664761953343
  0
LINE
  8
_0-1_作画層１
  6
CONTINUOUS
 62
    7
 10
71.620000000000005
 20
215.90332380976662
 11
72.280000000000001
 21
216.56332380976664
  0
LINE
  8
_0-1_作画層１
  6
CONTINUOUS
 62
    7
 10
71.620000000000005
 20
216.08999999999986
 11
72.280000000000001
 21
216.74999999999986
  0
LINE
  8
_0-1_作画層１
  6
CONTINUOUS
 62
    7
 10
71.620000000000005
 20
216.2766761902331
 11
72.280000000000001
 21
216.93667619023307
  0
LINE
  8
_0-1_作画層１
  6
CONTINUOUS
 62
    7
 10
71.620000000000005
 20
216.46335238046632
 11
72.280000000000001
 21
217.12335238046634
  0
LINE
  8
_0-1_作画層１
  6
CONTINUOUS
 62
    7
 10
71.620000000000005
 20
216.65002857069953
 11
72.280000000000001
 21
217.31002857069953
  0
LINE
  8
_0-1_作画層１
  6
CONTINUOUS
 62
    7
 10
71.620000000000005
 20
216.83670476093275
 11
72.280000000000001
 21
217.4967047609328
  0
LINE
  8
_0-1_作画層１
  6
CONTINUOUS
 62
    7
 10
71.620000000000005
 20
217.02338095116602
 11
72.280000000000001
 21
217.68338095116604
  0
LINE
  8
_0-1_作画層１
  6
CONTINUOUS
 62
    7
 10
71.620000000000005
 20
217.21005714139929
 11
72.280000000000001
 21
217.87005714139929
  0
LINE
  8
_0-1_作画層１
  6
CONTINUOUS
 62
    7
 10
71.620000000000005
 20
217.39673333163256
 11
72.280000000000001
 21
218.05673333163253
  0
LINE
  8
_0-1_作画層１
  6
CONTINUOUS
 62
    7
 10
71.620000000000005
 20
217.58340952186578
 11
72.280000000000001
 21
218.24340952186577
  0
LINE
  8
_0-1_作画層１
  6
CONTINUOUS
 62
    7
 10
71.620000000000005
 20
217.77008571209905
 11
72.280000000000001
 21
218.43008571209901
  0
LINE
  8
_0-1_作画層１
  6
CONTINUOUS
 62
    7
 10
71.620000000000005
 20
217.95676190233226
 11
72.280000000000001
 21
218.61676190233229
  0
LINE
  8
_0-1_作画層１
  6
CONTINUOUS
 62
    7
 10
71.620000000000005
 20
218.14343809256548
 11
72.280000000000001
 21
218.80343809256547
  0
LINE
  8
_0-1_作画層１
  6
CONTINUOUS
 62
    7
 10
71.620000000000005
 20
218.33011428279869
 11
72.280000000000001
 21
218.99011428279874
  0
LINE
  8
_0-1_作画層１
  6
CONTINUOUS
 62
    7
 10
71.620000000000005
 20
218.51679047303196
 11
72.221604763483981
 21
219.11839523651597
  0
LINE
  8
_0-1_作画層１
  6
CONTINUOUS
 62
    7
 10
71.620000000000005
 20
218.70346666326523
 11
72.12826666836736
 21
219.21173333163262
  0
LINE
  8
_0-1_作画層１
  6
CONTINUOUS
 62
    7
 10
71.620000000000005
 20
218.89014285349845
 11
72.034928573250738
 21
219.30507142674918
  0
LINE
  8
_0-1_作画層１
  6
CONTINUOUS
 62
    7
 10
72.25
 20
223.34999999999997
 11
72.580000000000013
 21
223.01999999999998
  0
LINE
  8
_0-1_作画層１
  6
CONTINUOUS
 62
    7
 10
72.580000000000041
 20
223.02000000000004
 11
75.880000000000052
 21
223.02000000000004
  0
LINE
  8
_0-1_作画層１
  6
CONTINUOUS
 62
    7
 10
72.580000000000041
 20
223.02000000000004
 11
72.250000000000028
 21
223.34999999999999
  0
LINE
  8
_0-1_作画層１
  6
CONTINUOUS
 62
    7
 10
72.250000000000028
 20
223.34999999999999
 11
72.580000000000041
 21
223.68000000000001
  0
LINE
  8
_0-1_作画層１
  6
CONTINUOUS
 62
    7
 10
72.580000000000041
 20
223.68000000000001
 11
75.880000000000052
 21
223.68000000000001
  0
LINE
  8
_0-1_作画層１
  6
CONTINUOUS
 62
    7
 10
75.880000000000052
 20
223.02000000000004
 11
76.210000000000036
 21
223.34999999999999
  0
LINE
  8
_0-1_作画層１
  6
CONTINUOUS
 62
    7
 10
75.880000000000052
 20
223.68000000000001
 11
76.210000000000036
 21
223.34999999999999
  0
LINE
  8
_0-1_作画層１
  6
CONTINUOUS
 62
    7
 10
76.181690475583167
 20
223.32169047558318
 11
75.823380951166314
 21
223.68000000000001
  0
LINE
  8
_0-1_作画層１
  6
CONTINUOUS
 62
    7
 10
76.088352380466603
 20
223.22835238046656
 11
75.6367047609331
 21
223.68000000000001
  0
LINE
  8
_0-1_作画層１
  6
CONTINUOUS
 62
    7
 10
75.995014285349953
 20
223.13501428534991
 11
75.450028570699885
 21
223.68000000000001
  0
LINE
  8
_0-1_作画層１
  6
CONTINUOUS
 62
    7
 10
75.901676190233331
 20
223.04167619023329
 11
75.263352380466586
 21
223.68000000000001
  0
LINE
  8
_0-1_作画層１
  6
CONTINUOUS
 62
    7
 10
75.736676190233368
 20
223.02000000000004
 11
75.076676190233371
 21
223.68000000000001
  0
LINE
  8
_0-1_作画層１
  6
CONTINUOUS
 62
    7
 10
75.550000000000125
 20
223.02000000000004
 11
74.890000000000157
 21
223.68000000000001
  0
LINE
  8
_0-1_作画層１
  6
CONTINUOUS
 62
    7
 10
75.363323809766882
 20
223.02000000000004
 11
74.703323809766914
 21
223.68000000000001
  0
LINE
  8
_0-1_作画層１
  6
CONTINUOUS
 62
    7
 10
75.176647619533668
 20
223.02000000000004
 11
74.516647619533671
 21
223.68000000000001
  0
LINE
  8
_0-1_作画層１
  6
CONTINUOUS
 62
    7
 10
74.989971429300454
 20
223.02000000000004
 11
74.329971429300457
 21
223.68000000000001
  0
LINE
  8
_0-1_作画層１
  6
CONTINUOUS
 62
    7
 10
74.803295239067211
 20
223.02000000000004
 11
74.143295239067243
 21
223.68000000000001
  0
LINE
  8
_0-1_作画層１
  6
CONTINUOUS
 62
    7
 10
74.616619048833968
 20
223.02000000000004
 11
73.956619048833943
 21
223.68000000000001
  0
LINE
  8
_0-1_作画層１
  6
CONTINUOUS
 62
    7
 10
74.429942858600725
 20
223.02000000000004
 11
73.7699428586007
 21
223.68000000000001
  0
LINE
  8
_0-1_作画層１
  6
CONTINUOUS
 62
    7
 10
74.243266668367454
 20
223.02000000000004
 11
73.583266668367457
 21
223.68000000000001
  0
LINE
  8
_0-1_作画層１
  6
CONTINUOUS
 62
    7
 10
74.05659047813424
 20
223.02000000000004
 11
73.396590478134215
 21
223.68000000000001
  0
LINE
  8
_0-1_作画層１
  6
CONTINUOUS
 62
    7
 10
73.869914287900997
 20
223.02000000000004
 11
73.209914287900972
 21
223.68000000000001
  0
LINE
  8
_0-1_作画層１
  6
CONTINUOUS
 62
    7
 10
73.683238097667726
 20
223.02000000000004
 11
73.023238097667729
 21
223.68000000000001
  0
LINE
  8
_0-1_作画層１
  6
CONTINUOUS
 62
    7
 10
73.49656190743454
 20
223.02000000000004
 11
72.836561907434543
 21
223.68000000000001
  0
LINE
  8
_0-1_作画層１
  6
CONTINUOUS
 62
    7
 10
73.309885717201297
 20
223.02000000000004
 11
72.649885717201272
 21
223.68000000000001
  0
LINE
  8
_0-1_作画層１
  6
CONTINUOUS
 62
    7
 10
73.123209526968026
 20
223.02000000000004
 11
72.521604763484021
 21
223.62160476348399
  0
LINE
  8
_0-1_作画層１
  6
CONTINUOUS
 62
    7
 10
72.936533336734811
 20
223.02000000000004
 11
72.428266668367399
 21
223.52826666836739
  0
LINE
  8
_0-1_作画層１
  6
CONTINUOUS
 62
    7
 10
72.74985714650154
 20
223.02000000000004
 11
72.334928573250806
 21
223.43492857325072
  0
LINE
  8
_0-1_作画層１
  6
CONTINUOUS
 62
    7
 10
71.620000000000005
 20
223.01999999999998
 11
71.949999999999989
 21
223.34999999999997
  0
LINE
  8
_0-1_作画層１
  6
CONTINUOUS
 62
    7
 10
71.949999999999989
 20
223.34999999999997
 11
72.280000000000001
 21
223.01999999999998
  0
LINE
  8
_0-1_作画層１
  6
CONTINUOUS
 62
    7
 10
72.28000000000003
 20
223.02000000000004
 11
71.950000000000045
 21
223.34999999999999
  0
LINE
  8
_0-1_作画層１
  6
CONTINUOUS
 62
    7
 10
72.25
 20
215.54999999999995
 11
72.580000000000013
 21
215.21999999999997
  0
LINE
  8
_0-1_作画層１
  6
CONTINUOUS
 62
    7
 10
72.580000000000041
 20
215.22000000000003
 11
75.880000000000052
 21
215.22000000000003
  0
LINE
  8
_0-1_作画層１
  6
CONTINUOUS
 62
    7
 10
72.580000000000041
 20
215.22000000000003
 11
72.250000000000028
 21
215.55000000000001
  0
LINE
  8
_0-1_作画層１
  6
CONTINUOUS
 62
    7
 10
72.250000000000028
 20
215.55000000000001
 11
72.580000000000041
 21
215.88000000000002
  0
LINE
  8
_0-1_作画層１
  6
CONTINUOUS
 62
    7
 10
72.580000000000041
 20
215.88000000000002
 11
75.880000000000052
 21
215.88000000000002
  0
LINE
  8
_0-1_作画層１
  6
CONTINUOUS
 62
    7
 10
75.880000000000052
 20
215.22000000000003
 11
76.210000000000036
 21
215.55000000000001
  0
LINE
  8
_0-1_作画層１
  6
CONTINUOUS
 62
    7
 10
75.880000000000052
 20
215.88000000000002
 11
76.210000000000036
 21
215.55000000000001
  0
LINE
  8
_0-1_作画層１
  6
CONTINUOUS
 62
    7
 10
76.181690475583167
 20
215.52169047558317
 11
75.823380951166314
 21
215.88000000000002
  0
LINE
  8
_0-1_作画層１
  6
CONTINUOUS
 62
    7
 10
76.088352380466603
 20
215.42835238046655
 11
75.6367047609331
 21
215.88000000000002
  0
LINE
  8
_0-1_作画層１
  6
CONTINUOUS
 62
    7
 10
75.995014285349953
 20
215.33501428534993
 11
75.450028570699885
 21
215.88000000000002
  0
LINE
  8
_0-1_作画層１
  6
CONTINUOUS
 62
    7
 10
75.901676190233331
 20
215.24167619023328
 11
75.263352380466586
 21
215.88000000000002
  0
LINE
  8
_0-1_作画層１
  6
CONTINUOUS
 62
    7
 10
75.736676190233368
 20
215.22000000000003
 11
75.076676190233371
 21
215.88000000000002
  0
LINE
  8
_0-1_作画層１
  6
CONTINUOUS
 62
    7
 10
75.550000000000125
 20
215.22000000000003
 11
74.890000000000157
 21
215.88000000000002
  0
LINE
  8
_0-1_作画層１
  6
CONTINUOUS
 62
    7
 10
75.363323809766882
 20
215.22000000000003
 11
74.703323809766914
 21
215.88000000000002
  0
LINE
  8
_0-1_作画層１
  6
CONTINUOUS
 62
    7
 10
75.176647619533668
 20
215.22000000000003
 11
74.516647619533671
 21
215.88000000000002
  0
LINE
  8
_0-1_作画層１
  6
CONTINUOUS
 62
    7
 10
74.989971429300454
 20
215.22000000000003
 11
74.329971429300457
 21
215.88000000000002
  0
LINE
  8
_0-1_作画層１
  6
CONTINUOUS
 62
    7
 10
74.803295239067211
 20
215.22000000000003
 11
74.143295239067243
 21
215.88000000000002
  0
LINE
  8
_0-1_作画層１
  6
CONTINUOUS
 62
    7
 10
74.616619048833968
 20
215.22000000000003
 11
73.956619048833943
 21
215.88000000000002
  0
LINE
  8
_0-1_作画層１
  6
CONTINUOUS
 62
    7
 10
74.429942858600725
 20
215.22000000000003
 11
73.7699428586007
 21
215.88000000000002
  0
LINE
  8
_0-1_作画層１
  6
CONTINUOUS
 62
    7
 10
74.243266668367454
 20
215.22000000000003
 11
73.583266668367457
 21
215.88000000000002
  0
LINE
  8
_0-1_作画層１
  6
CONTINUOUS
 62
    7
 10
74.05659047813424
 20
215.22000000000003
 11
73.396590478134215
 21
215.88000000000002
  0
LINE
  8
_0-1_作画層１
  6
CONTINUOUS
 62
    7
 10
73.869914287900997
 20
215.22000000000003
 11
73.209914287900972
 21
215.88000000000002
  0
LINE
  8
_0-1_作画層１
  6
CONTINUOUS
 62
    7
 10
73.683238097667726
 20
215.22000000000003
 11
73.023238097667729
 21
215.88000000000002
  0
LINE
  8
_0-1_作画層１
  6
CONTINUOUS
 62
    7
 10
73.49656190743454
 20
215.22000000000003
 11
72.836561907434543
 21
215.88000000000002
  0
LINE
  8
_0-1_作画層１
  6
CONTINUOUS
 62
    7
 10
73.309885717201297
 20
215.22000000000003
 11
72.649885717201272
 21
215.88000000000002
  0
LINE
  8
_0-1_作画層１
  6
CONTINUOUS
 62
    7
 10
73.123209526968026
 20
215.22000000000003
 11
72.521604763484021
 21
215.821604763484
  0
LINE
  8
_0-1_作画層１
  6
CONTINUOUS
 62
    7
 10
72.936533336734811
 20
215.22000000000003
 11
72.428266668367399
 21
215.72826666836741
  0
LINE
  8
_0-1_作画層１
  6
CONTINUOUS
 62
    7
 10
72.74985714650154
 20
215.22000000000003
 11
72.334928573250806
 21
215.63492857325073
  0
LINE
  8
_0-1_作画層１
  6
CONTINUOUS
 62
    7
 10
76.120000000000005
 20
223.01999999999998
 11
76.120000000000005
 21
219.71999999999997
  0
LINE
  8
_0-1_作画層１
  6
CONTINUOUS
 62
    7
 10
76.780000000000001
 20
223.01999999999998
 11
76.780000000000001
 21
219.71999999999997
  0
LINE
  8
_0-1_作画層１
  6
CONTINUOUS
 62
    7
 10
76.120000000000005
 20
219.71999999999997
 11
76.449999999999989
 21
219.38999999999996
  0
LINE
  8
_0-1_作画層１
  6
CONTINUOUS
 62
    7
 10
76.780000000000001
 20
219.71999999999997
 11
76.449999999999989
 21
219.38999999999996
  0
LINE
  8
_0-1_作画層１
  6
CONTINUOUS
 62
    7
 10
76.421690475583148
 20
219.41830952441683
 11
76.780000000000001
 21
219.77661904883365
  0
LINE
  8
_0-1_作画層１
  6
CONTINUOUS
 62
    7
 10
76.328352380466526
 20
219.51164761953342
 11
76.780000000000001
 21
219.96329523906689
  0
LINE
  8
_0-1_作画層１
  6
CONTINUOUS
 62
    7
 10
76.235014285349934
 20
219.60498571465004
 11
76.780000000000001
 21
220.14997142930011
  0
LINE
  8
_0-1_作画層１
  6
CONTINUOUS
 62
    7
 10
76.141676190233255
 20
219.69832380976669
 11
76.780000000000001
 21
220.33664761953341
  0
LINE
  8
_0-1_作画層１
  6
CONTINUOUS
 62
    7
 10
76.120000000000005
 20
219.86332380976665
 11
76.780000000000001
 21
220.52332380976659
  0
LINE
  8
_0-1_作画層１
  6
CONTINUOUS
 62
    7
 10
76.120000000000005
 20
220.04999999999987
 11
76.780000000000001
 21
220.70999999999987
  0
LINE
  8
_0-1_作画層１
  6
CONTINUOUS
 62
    7
 10
76.120000000000005
 20
220.23667619023308
 11
76.780000000000001
 21
220.89667619023311
  0
LINE
  8
_0-1_作画層１
  6
CONTINUOUS
 62
    7
 10
76.120000000000005
 20
220.42335238046635
 11
76.780000000000001
 21
221.08335238046629
  0
LINE
  8
_0-1_作画層１
  6
CONTINUOUS
 62
    7
 10
76.120000000000005
 20
220.61002857069951
 11
76.780000000000001
 21
221.27002857069957
  0
LINE
  8
_0-1_作画層１
  6
CONTINUOUS
 62
    7
 10
76.120000000000005
 20
220.79670476093278
 11
76.780000000000001
 21
221.45670476093272
  0
LINE
  8
_0-1_作画層１
  6
CONTINUOUS
 62
    7
 10
76.120000000000005
 20
220.98338095116605
 11
76.780000000000001
 21
221.64338095116605
  0
LINE
  8
_0-1_作画層１
  6
CONTINUOUS
 62
    7
 10
76.120000000000005
 20
221.17005714139927
 11
76.780000000000001
 21
221.83005714139927
  0
LINE
  8
_0-1_作画層１
  6
CONTINUOUS
 62
    7
 10
76.120000000000005
 20
221.35673333163254
 11
76.780000000000001
 21
222.01673333163254
  0
LINE
  8
_0-1_作画層１
  6
CONTINUOUS
 62
    7
 10
76.120000000000005
 20
221.54340952186575
 11
76.780000000000001
 21
222.20340952186581
  0
LINE
  8
_0-1_作画層１
  6
CONTINUOUS
 62
    7
 10
76.120000000000005
 20
221.73008571209903
 11
76.780000000000001
 21
222.39008571209902
  0
LINE
  8
_0-1_作画層１
  6
CONTINUOUS
 62
    7
 10
76.120000000000005
 20
221.9167619023323
 11
76.780000000000001
 21
222.57676190233229
  0
LINE
  8
_0-1_作画層１
  6
CONTINUOUS
 62
    7
 10
76.120000000000005
 20
222.10343809256545
 11
76.780000000000001
 21
222.76343809256545
  0
LINE
  8
_0-1_作画層１
  6
CONTINUOUS
 62
    7
 10
76.120000000000005
 20
222.29011428279873
 11
76.780000000000001
 21
222.95011428279872
  0
LINE
  8
_0-1_作画層１
  6
CONTINUOUS
 62
    7
 10
76.120000000000005
 20
222.47679047303194
 11
76.721604763483981
 21
223.078395236516
  0
LINE
  8
_0-1_作画層１
  6
CONTINUOUS
 62
    7
 10
76.120000000000005
 20
222.66346666326518
 11
76.62826666836736
 21
223.17173333163259
  0
LINE
  8
_0-1_作画層１
  6
CONTINUOUS
 62
    7
 10
76.120000000000005
 20
222.85014285349843
 11
76.534928573250738
 21
223.26507142674919
  0
LINE
  8
_0-1_作画層１
  6
CONTINUOUS
 62
    7
 10
76.120000000000005
 20
223.01999999999998
 11
76.449999999999989
 21
223.34999999999997
  0
LINE
  8
_0-1_作画層１
  6
CONTINUOUS
 62
    7
 10
76.449999999999989
 20
223.34999999999997
 11
76.780000000000001
 21
223.01999999999998
  0
LINE
  8
_0-1_作画層１
  6
CONTINUOUS
 62
    7
 10
76.78000000000003
 20
223.02000000000004
 11
76.450000000000045
 21
223.34999999999999
  0
LINE
  8
_0-1_作画層１
  6
CONTINUOUS
 62
    7
 10
76.120000000000005
 20
219.11999999999998
 11
76.120000000000005
 21
215.81999999999999
  0
LINE
  8
_0-1_作画層１
  6
CONTINUOUS
 62
    7
 10
76.780000000000001
 20
219.11999999999998
 11
76.780000000000001
 21
215.81999999999999
  0
LINE
  8
_0-1_作画層１
  6
CONTINUOUS
 62
    7
 10
76.120000000000005
 20
215.81999999999999
 11
76.449999999999989
 21
215.48999999999995
  0
LINE
  8
_0-1_作画層１
  6
CONTINUOUS
 62
    7
 10
76.780000000000001
 20
215.81999999999999
 11
76.449999999999989
 21
215.48999999999995
  0
LINE
  8
_0-1_作画層１
  6
CONTINUOUS
 62
    7
 10
76.421690475583148
 20
215.51830952441682
 11
76.780000000000001
 21
215.87661904883367
  0
LINE
  8
_0-1_作画層１
  6
CONTINUOUS
 62
    7
 10
76.328352380466526
 20
215.61164761953341
 11
76.780000000000001
 21
216.06329523906689
  0
LINE
  8
_0-1_作画層１
  6
CONTINUOUS
 62
    7
 10
76.235014285349934
 20
215.70498571465004
 11
76.780000000000001
 21
216.2499714293001
  0
LINE
  8
_0-1_作画層１
  6
CONTINUOUS
 62
    7
 10
76.141676190233255
 20
215.79832380976669
 11
76.780000000000001
 21
216.4366476195334
  0
LINE
  8
_0-1_作画層１
  6
CONTINUOUS
 62
    7
 10
76.120000000000005
 20
215.96332380976665
 11
76.780000000000001
 21
216.62332380976659
  0
LINE
  8
_0-1_作画層１
  6
CONTINUOUS
 62
    7
 10
76.120000000000005
 20
216.14999999999986
 11
76.780000000000001
 21
216.80999999999986
  0
LINE
  8
_0-1_作画層１
  6
CONTINUOUS
 62
    7
 10
76.120000000000005
 20
216.33667619023308
 11
76.780000000000001
 21
216.99667619023313
  0
LINE
  8
_0-1_作画層１
  6
CONTINUOUS
 62
    7
 10
76.120000000000005
 20
216.52335238046635
 11
76.780000000000001
 21
217.18335238046629
  0
LINE
  8
_0-1_作画層１
  6
CONTINUOUS
 62
    7
 10
76.120000000000005
 20
216.71002857069954
 11
76.780000000000001
 21
217.37002857069956
  0
LINE
  8
_0-1_作画層１
  6
CONTINUOUS
 62
    7
 10
76.120000000000005
 20
216.89670476093278
 11
76.780000000000001
 21
217.55670476093275
  0
LINE
  8
_0-1_作画層１
  6
CONTINUOUS
 62
    7
 10
76.120000000000005
 20
217.08338095116605
 11
76.780000000000001
 21
217.74338095116605
  0
LINE
  8
_0-1_作画層１
  6
CONTINUOUS
 62
    7
 10
76.120000000000005
 20
217.27005714139926
 11
76.780000000000001
 21
217.93005714139926
  0
LINE
  8
_0-1_作画層１
  6
CONTINUOUS
 62
    7
 10
76.120000000000005
 20
217.45673333163253
 11
76.780000000000001
 21
218.11673333163253
  0
LINE
  8
_0-1_作画層１
  6
CONTINUOUS
 62
    7
 10
76.120000000000005
 20
217.64340952186575
 11
76.780000000000001
 21
218.3034095218658
  0
LINE
  8
_0-1_作画層１
  6
CONTINUOUS
 62
    7
 10
76.120000000000005
 20
217.83008571209902
 11
76.780000000000001
 21
218.49008571209902
  0
LINE
  8
_0-1_作画層１
  6
CONTINUOUS
 62
    7
 10
76.120000000000005
 20
218.01676190233229
 11
76.780000000000001
 21
218.67676190233229
  0
LINE
  8
_0-1_作画層１
  6
CONTINUOUS
 62
    7
 10
76.120000000000005
 20
218.20343809256548
 11
76.780000000000001
 21
218.86343809256545
  0
LINE
  8
_0-1_作画層１
  6
CONTINUOUS
 62
    7
 10
76.120000000000005
 20
218.39011428279872
 11
76.780000000000001
 21
219.05011428279872
  0
LINE
  8
_0-1_作画層１
  6
CONTINUOUS
 62
    7
 10
76.120000000000005
 20
218.57679047303196
 11
76.721604763483981
 21
219.178395236516
  0
LINE
  8
_0-1_作画層１
  6
CONTINUOUS
 62
    7
 10
76.120000000000005
 20
218.76346666326518
 11
76.62826666836736
 21
219.27173333163259
  0
LINE
  8
_0-1_作画層１
  6
CONTINUOUS
 62
    7
 10
76.120000000000005
 20
218.95014285349845
 11
76.534928573250738
 21
219.36507142674918
  0
LINE
  8
_0-1_作画層１
  6
CONTINUOUS
 62
    7
 10
76.120000000000005
 20
219.11999999999998
 11
76.449999999999989
 21
219.44999999999996
  0
LINE
  8
_0-1_作画層１
  6
CONTINUOUS
 62
    7
 10
76.449999999999989
 20
219.44999999999996
 11
76.780000000000001
 21
219.11999999999998
  0
LINE
  8
_0-1_作画層１
  6
CONTINUOUS
 62
    7
 10
76.78000000000003
 20
219.12000000000003
 11
76.450000000000045
 21
219.44999999999999
  0
LINE
  8
_0-1_作画層１
  6
CONTINUOUS
 62
    7
 10
83.950000000000003
 20
223.34999999999997
 11
84.280000000000001
 21
223.01999999999998
  0
LINE
  8
_0-1_作画層１
  6
CONTINUOUS
 62
    7
 10
84.280000000000044
 20
223.02000000000004
 11
87.580000000000041
 21
223.02000000000004
  0
LINE
  8
_0-1_作画層１
  6
CONTINUOUS
 62
    7
 10
84.280000000000044
 20
223.02000000000004
 11
83.950000000000031
 21
223.34999999999999
  0
LINE
  8
_0-1_作画層１
  6
CONTINUOUS
 62
    7
 10
83.950000000000031
 20
223.34999999999999
 11
84.280000000000044
 21
223.68000000000001
  0
LINE
  8
_0-1_作画層１
  6
CONTINUOUS
 62
    7
 10
84.280000000000044
 20
223.68000000000001
 11
87.580000000000041
 21
223.68000000000001
  0
LINE
  8
_0-1_作画層１
  6
CONTINUOUS
 62
    7
 10
87.580000000000041
 20
223.02000000000004
 11
87.910000000000053
 21
223.34999999999999
  0
LINE
  8
_0-1_作画層１
  6
CONTINUOUS
 62
    7
 10
87.580000000000041
 20
223.68000000000001
 11
87.910000000000053
 21
223.34999999999999
  0
LINE
  8
_0-1_作画層１
  6
CONTINUOUS
 62
    7
 10
87.88169047558317
 20
223.32169047558318
 11
87.523380951166331
 21
223.68000000000001
  0
LINE
  8
_0-1_作画層１
  6
CONTINUOUS
 62
    7
 10
87.788352380466591
 20
223.22835238046656
 11
87.336704760933102
 21
223.68000000000001
  0
LINE
  8
_0-1_作画層１
  6
CONTINUOUS
 62
    7
 10
87.695014285349956
 20
223.13501428534991
 11
87.150028570699888
 21
223.68000000000001
  0
LINE
  8
_0-1_作画層１
  6
CONTINUOUS
 62
    7
 10
87.601676190233349
 20
223.04167619023329
 11
86.963352380466603
 21
223.68000000000001
  0
LINE
  8
_0-1_作画層１
  6
CONTINUOUS
 62
    7
 10
87.436676190233356
 20
223.02000000000004
 11
86.776676190233374
 21
223.68000000000001
  0
LINE
  8
_0-1_作画層１
  6
CONTINUOUS
 62
    7
 10
87.250000000000142
 20
223.02000000000004
 11
86.59000000000016
 21
223.68000000000001
  0
LINE
  8
_0-1_作画層１
  6
CONTINUOUS
 62
    7
 10
87.063323809766885
 20
223.02000000000004
 11
86.403323809766903
 21
223.68000000000001
  0
LINE
  8
_0-1_作画層１
  6
CONTINUOUS
 62
    7
 10
86.876647619533657
 20
223.02000000000004
 11
86.216647619533688
 21
223.68000000000001
  0
LINE
  8
_0-1_作画層１
  6
CONTINUOUS
 62
    7
 10
86.689971429300442
 20
223.02000000000004
 11
86.02997142930046
 21
223.68000000000001
  0
LINE
  8
_0-1_作画層１
  6
CONTINUOUS
 62
    7
 10
86.503295239067228
 20
223.02000000000004
 11
85.843295239067245
 21
223.68000000000001
  0
LINE
  8
_0-1_作画層１
  6
CONTINUOUS
 62
    7
 10
86.316619048833971
 20
223.02000000000004
 11
85.65661904883396
 21
223.68000000000001
  0
LINE
  8
_0-1_作画層１
  6
CONTINUOUS
 62
    7
 10
86.129942858600714
 20
223.02000000000004
 11
85.469942858600703
 21
223.68000000000001
  0
LINE
  8
_0-1_作画層１
  6
CONTINUOUS
 62
    7
 10
85.943266668367457
 20
223.02000000000004
 11
85.283266668367446
 21
223.68000000000001
  0
LINE
  8
_0-1_作画層１
  6
CONTINUOUS
 62
    7
 10
85.756590478134243
 20
223.02000000000004
 11
85.096590478134232
 21
223.68000000000001
  0
LINE
  8
_0-1_作画層１
  6
CONTINUOUS
 62
    7
 10
85.569914287900986
 20
223.02000000000004
 11
84.909914287900975
 21
223.68000000000001
  0
LINE
  8
_0-1_作画層１
  6
CONTINUOUS
 62
    7
 10
85.383238097667729
 20
223.02000000000004
 11
84.723238097667718
 21
223.68000000000001
  0
LINE
  8
_0-1_作画層１
  6
CONTINUOUS
 62
    7
 10
85.196561907434543
 20
223.02000000000004
 11
84.536561907434532
 21
223.68000000000001
  0
LINE
  8
_0-1_作画層１
  6
CONTINUOUS
 62
    7
 10
85.009885717201286
 20
223.02000000000004
 11
84.349885717201275
 21
223.68000000000001
  0
LINE
  8
_0-1_作画層１
  6
CONTINUOUS
 62
    7
 10
84.823209526968043
 20
223.02000000000004
 11
84.221604763484009
 21
223.62160476348399
  0
LINE
  8
_0-1_作画層１
  6
CONTINUOUS
 62
    7
 10
84.636533336734814
 20
223.02000000000004
 11
84.128266668367402
 21
223.52826666836739
  0
LINE
  8
_0-1_作画層１
  6
CONTINUOUS
 62
    7
 10
84.449857146501529
 20
223.02000000000004
 11
84.034928573250795
 21
223.43492857325072
  0
LINE
  8
_0-1_作画層１
  6
CONTINUOUS
 62
    7
 10
83.950000000000003
 20
215.54999999999995
 11
84.280000000000001
 21
215.21999999999997
  0
LINE
  8
_0-1_作画層１
  6
CONTINUOUS
 62
    7
 10
84.280000000000044
 20
215.22000000000003
 11
87.580000000000041
 21
215.22000000000003
  0
LINE
  8
_0-1_作画層１
  6
CONTINUOUS
 62
    7
 10
84.280000000000044
 20
215.22000000000003
 11
83.950000000000031
 21
215.55000000000001
  0
LINE
  8
_0-1_作画層１
  6
CONTINUOUS
 62
    7
 10
83.950000000000031
 20
215.55000000000001
 11
84.280000000000044
 21
215.88000000000002
  0
LINE
  8
_0-1_作画層１
  6
CONTINUOUS
 62
    7
 10
84.280000000000044
 20
215.88000000000002
 11
87.580000000000041
 21
215.88000000000002
  0
LINE
  8
_0-1_作画層１
  6
CONTINUOUS
 62
    7
 10
87.580000000000041
 20
215.22000000000003
 11
87.910000000000053
 21
215.55000000000001
  0
LINE
  8
_0-1_作画層１
  6
CONTINUOUS
 62
    7
 10
87.580000000000041
 20
215.88000000000002
 11
87.910000000000053
 21
215.55000000000001
  0
LINE
  8
_0-1_作画層１
  6
CONTINUOUS
 62
    7
 10
87.88169047558317
 20
215.52169047558317
 11
87.523380951166331
 21
215.88000000000002
  0
LINE
  8
_0-1_作画層１
  6
CONTINUOUS
 62
    7
 10
87.788352380466591
 20
215.42835238046655
 11
87.336704760933102
 21
215.88000000000002
  0
LINE
  8
_0-1_作画層１
  6
CONTINUOUS
 62
    7
 10
87.695014285349956
 20
215.33501428534993
 11
87.150028570699888
 21
215.88000000000002
  0
LINE
  8
_0-1_作画層１
  6
CONTINUOUS
 62
    7
 10
87.601676190233349
 20
215.24167619023328
 11
86.963352380466603
 21
215.88000000000002
  0
LINE
  8
_0-1_作画層１
  6
CONTINUOUS
 62
    7
 10
87.436676190233356
 20
215.22000000000003
 11
86.776676190233374
 21
215.88000000000002
  0
LINE
  8
_0-1_作画層１
  6
CONTINUOUS
 62
    7
 10
87.250000000000142
 20
215.22000000000003
 11
86.59000000000016
 21
215.88000000000002
  0
LINE
  8
_0-1_作画層１
  6
CONTINUOUS
 62
    7
 10
87.063323809766885
 20
215.22000000000003
 11
86.403323809766903
 21
215.88000000000002
  0
LINE
  8
_0-1_作画層１
  6
CONTINUOUS
 62
    7
 10
86.876647619533657
 20
215.22000000000003
 11
86.216647619533688
 21
215.88000000000002
  0
LINE
  8
_0-1_作画層１
  6
CONTINUOUS
 62
    7
 10
86.689971429300442
 20
215.22000000000003
 11
86.02997142930046
 21
215.88000000000002
  0
LINE
  8
_0-1_作画層１
  6
CONTINUOUS
 62
    7
 10
86.503295239067228
 20
215.22000000000003
 11
85.843295239067245
 21
215.88000000000002
  0
LINE
  8
_0-1_作画層１
  6
CONTINUOUS
 62
    7
 10
86.316619048833971
 20
215.22000000000003
 11
85.65661904883396
 21
215.88000000000002
  0
LINE
  8
_0-1_作画層１
  6
CONTINUOUS
 62
    7
 10
86.129942858600714
 20
215.22000000000003
 11
85.469942858600703
 21
215.88000000000002
  0
LINE
  8
_0-1_作画層１
  6
CONTINUOUS
 62
    7
 10
85.943266668367457
 20
215.22000000000003
 11
85.283266668367446
 21
215.88000000000002
  0
LINE
  8
_0-1_作画層１
  6
CONTINUOUS
 62
    7
 10
85.756590478134243
 20
215.22000000000003
 11
85.096590478134232
 21
215.88000000000002
  0
LINE
  8
_0-1_作画層１
  6
CONTINUOUS
 62
    7
 10
85.569914287900986
 20
215.22000000000003
 11
84.909914287900975
 21
215.88000000000002
  0
LINE
  8
_0-1_作画層１
  6
CONTINUOUS
 62
    7
 10
85.383238097667729
 20
215.22000000000003
 11
84.723238097667718
 21
215.88000000000002
  0
LINE
  8
_0-1_作画層１
  6
CONTINUOUS
 62
    7
 10
85.196561907434543
 20
215.22000000000003
 11
84.536561907434532
 21
215.88000000000002
  0
LINE
  8
_0-1_作画層１
  6
CONTINUOUS
 62
    7
 10
85.009885717201286
 20
215.22000000000003
 11
84.349885717201275
 21
215.88000000000002
  0
LINE
  8
_0-1_作画層１
  6
CONTINUOUS
 62
    7
 10
84.823209526968043
 20
215.22000000000003
 11
84.221604763484009
 21
215.821604763484
  0
LINE
  8
_0-1_作画層１
  6
CONTINUOUS
 62
    7
 10
84.636533336734814
 20
215.22000000000003
 11
84.128266668367402
 21
215.72826666836741
  0
LINE
  8
_0-1_作画層１
  6
CONTINUOUS
 62
    7
 10
84.449857146501529
 20
215.22000000000003
 11
84.034928573250795
 21
215.63492857325073
  0
LINE
  8
_0-1_作画層１
  6
CONTINUOUS
 62
    7
 10
87.819999999999993
 20
223.01999999999998
 11
87.819999999999993
 21
219.71999999999997
  0
LINE
  8
_0-1_作画層１
  6
CONTINUOUS
 62
    7
 10
88.480000000000004
 20
223.01999999999998
 11
88.480000000000004
 21
219.71999999999997
  0
LINE
  8
_0-1_作画層１
  6
CONTINUOUS
 62
    7
 10
87.819999999999993
 20
219.71999999999997
 11
88.150000000000006
 21
219.38999999999996
  0
LINE
  8
_0-1_作画層１
  6
CONTINUOUS
 62
    7
 10
88.480000000000004
 20
219.71999999999997
 11
88.150000000000006
 21
219.38999999999996
  0
LINE
  8
_0-1_作画層１
  6
CONTINUOUS
 62
    7
 10
88.121690475583151
 20
219.41830952441683
 11
88.480000000000004
 21
219.77661904883365
  0
LINE
  8
_0-1_作画層１
  6
CONTINUOUS
 62
    7
 10
88.028352380466544
 20
219.51164761953342
 11
88.480000000000004
 21
219.96329523906689
  0
LINE
  8
_0-1_作画層１
  6
CONTINUOUS
 62
    7
 10
87.935014285349936
 20
219.60498571465004
 11
88.480000000000004
 21
220.14997142930011
  0
LINE
  8
_0-1_作画層１
  6
CONTINUOUS
 62
    7
 10
87.841676190233258
 20
219.69832380976669
 11
88.480000000000004
 21
220.33664761953341
  0
LINE
  8
_0-1_作画層１
  6
CONTINUOUS
 62
    7
 10
87.819999999999993
 20
219.86332380976665
 11
88.480000000000004
 21
220.52332380976659
  0
LINE
  8
_0-1_作画層１
  6
CONTINUOUS
 62
    7
 10
87.819999999999993
 20
220.04999999999987
 11
88.480000000000004
 21
220.70999999999987
  0
LINE
  8
_0-1_作画層１
  6
CONTINUOUS
 62
    7
 10
87.819999999999993
 20
220.23667619023308
 11
88.480000000000004
 21
220.89667619023311
  0
LINE
  8
_0-1_作画層１
  6
CONTINUOUS
 62
    7
 10
87.819999999999993
 20
220.42335238046635
 11
88.480000000000004
 21
221.08335238046629
  0
LINE
  8
_0-1_作画層１
  6
CONTINUOUS
 62
    7
 10
87.819999999999993
 20
220.61002857069951
 11
88.480000000000004
 21
221.27002857069957
  0
LINE
  8
_0-1_作画層１
  6
CONTINUOUS
 62
    7
 10
87.819999999999993
 20
220.79670476093278
 11
88.480000000000004
 21
221.45670476093272
  0
LINE
  8
_0-1_作画層１
  6
CONTINUOUS
 62
    7
 10
87.819999999999993
 20
220.98338095116605
 11
88.480000000000004
 21
221.64338095116605
  0
LINE
  8
_0-1_作画層１
  6
CONTINUOUS
 62
    7
 10
87.819999999999993
 20
221.17005714139927
 11
88.480000000000004
 21
221.83005714139927
  0
LINE
  8
_0-1_作画層１
  6
CONTINUOUS
 62
    7
 10
87.819999999999993
 20
221.35673333163254
 11
88.480000000000004
 21
222.01673333163254
  0
LINE
  8
_0-1_作画層１
  6
CONTINUOUS
 62
    7
 10
87.819999999999993
 20
221.54340952186575
 11
88.480000000000004
 21
222.20340952186581
  0
LINE
  8
_0-1_作画層１
  6
CONTINUOUS
 62
    7
 10
87.819999999999993
 20
221.73008571209903
 11
88.480000000000004
 21
222.39008571209902
  0
LINE
  8
_0-1_作画層１
  6
CONTINUOUS
 62
    7
 10
87.819999999999993
 20
221.9167619023323
 11
88.480000000000004
 21
222.57676190233229
  0
LINE
  8
_0-1_作画層１
  6
CONTINUOUS
 62
    7
 10
87.819999999999993
 20
222.10343809256545
 11
88.480000000000004
 21
222.76343809256545
  0
LINE
  8
_0-1_作画層１
  6
CONTINUOUS
 62
    7
 10
87.819999999999993
 20
222.29011428279873
 11
88.480000000000004
 21
222.95011428279872
  0
LINE
  8
_0-1_作画層１
  6
CONTINUOUS
 62
    7
 10
87.819999999999993
 20
222.47679047303194
 11
88.421604763483984
 21
223.078395236516
  0
LINE
  8
_0-1_作画層１
  6
CONTINUOUS
 62
    7
 10
87.819999999999993
 20
222.66346666326518
 11
88.328266668367377
 21
223.17173333163259
  0
LINE
  8
_0-1_作画層１
  6
CONTINUOUS
 62
    7
 10
87.819999999999993
 20
222.85014285349843
 11
88.234928573250755
 21
223.26507142674919
  0
LINE
  8
_0-1_作画層１
  6
CONTINUOUS
 62
    7
 10
87.819999999999993
 20
223.01999999999998
 11
88.150000000000006
 21
223.34999999999997
  0
LINE
  8
_0-1_作画層１
  6
CONTINUOUS
 62
    7
 10
88.150000000000006
 20
223.34999999999997
 11
88.480000000000004
 21
223.01999999999998
  0
LINE
  8
_0-1_作画層１
  6
CONTINUOUS
 62
    7
 10
88.480000000000047
 20
223.02000000000004
 11
88.150000000000034
 21
223.34999999999999
  0
LINE
  8
_0-1_作画層１
  6
CONTINUOUS
 62
    7
 10
87.819999999999993
 20
219.11999999999998
 11
87.819999999999993
 21
215.81999999999999
  0
LINE
  8
_0-1_作画層１
  6
CONTINUOUS
 62
    7
 10
88.480000000000004
 20
219.11999999999998
 11
88.480000000000004
 21
215.81999999999999
  0
LINE
  8
_0-1_作画層１
  6
CONTINUOUS
 62
    7
 10
87.819999999999993
 20
215.81999999999999
 11
88.150000000000006
 21
215.48999999999995
  0
LINE
  8
_0-1_作画層１
  6
CONTINUOUS
 62
    7
 10
88.480000000000004
 20
215.81999999999999
 11
88.150000000000006
 21
215.48999999999995
  0
LINE
  8
_0-1_作画層１
  6
CONTINUOUS
 62
    7
 10
88.121690475583151
 20
215.51830952441682
 11
88.480000000000004
 21
215.87661904883367
  0
LINE
  8
_0-1_作画層１
  6
CONTINUOUS
 62
    7
 10
88.028352380466544
 20
215.61164761953341
 11
88.480000000000004
 21
216.06329523906689
  0
LINE
  8
_0-1_作画層１
  6
CONTINUOUS
 62
    7
 10
87.935014285349936
 20
215.70498571465004
 11
88.480000000000004
 21
216.2499714293001
  0
LINE
  8
_0-1_作画層１
  6
CONTINUOUS
 62
    7
 10
87.841676190233258
 20
215.79832380976669
 11
88.480000000000004
 21
216.4366476195334
  0
LINE
  8
_0-1_作画層１
  6
CONTINUOUS
 62
    7
 10
87.819999999999993
 20
215.96332380976665
 11
88.480000000000004
 21
216.62332380976659
  0
LINE
  8
_0-1_作画層１
  6
CONTINUOUS
 62
    7
 10
87.819999999999993
 20
216.14999999999986
 11
88.480000000000004
 21
216.80999999999986
  0
LINE
  8
_0-1_作画層１
  6
CONTINUOUS
 62
    7
 10
87.819999999999993
 20
216.33667619023308
 11
88.480000000000004
 21
216.99667619023313
  0
LINE
  8
_0-1_作画層１
  6
CONTINUOUS
 62
    7
 10
87.819999999999993
 20
216.52335238046635
 11
88.480000000000004
 21
217.18335238046629
  0
LINE
  8
_0-1_作画層１
  6
CONTINUOUS
 62
    7
 10
87.819999999999993
 20
216.71002857069954
 11
88.480000000000004
 21
217.37002857069956
  0
LINE
  8
_0-1_作画層１
  6
CONTINUOUS
 62
    7
 10
87.819999999999993
 20
216.89670476093278
 11
88.480000000000004
 21
217.55670476093275
  0
LINE
  8
_0-1_作画層１
  6
CONTINUOUS
 62
    7
 10
87.819999999999993
 20
217.08338095116605
 11
88.480000000000004
 21
217.74338095116605
  0
LINE
  8
_0-1_作画層１
  6
CONTINUOUS
 62
    7
 10
87.819999999999993
 20
217.27005714139926
 11
88.480000000000004
 21
217.93005714139926
  0
LINE
  8
_0-1_作画層１
  6
CONTINUOUS
 62
    7
 10
87.819999999999993
 20
217.45673333163253
 11
88.480000000000004
 21
218.11673333163253
  0
LINE
  8
_0-1_作画層１
  6
CONTINUOUS
 62
    7
 10
87.819999999999993
 20
217.64340952186575
 11
88.480000000000004
 21
218.3034095218658
  0
LINE
  8
_0-1_作画層１
  6
CONTINUOUS
 62
    7
 10
87.819999999999993
 20
217.83008571209902
 11
88.480000000000004
 21
218.49008571209902
  0
LINE
  8
_0-1_作画層１
  6
CONTINUOUS
 62
    7
 10
87.819999999999993
 20
218.01676190233229
 11
88.480000000000004
 21
218.67676190233229
  0
LINE
  8
_0-1_作画層１
  6
CONTINUOUS
 62
    7
 10
87.819999999999993
 20
218.20343809256548
 11
88.480000000000004
 21
218.86343809256545
  0
LINE
  8
_0-1_作画層１
  6
CONTINUOUS
 62
    7
 10
87.819999999999993
 20
218.39011428279872
 11
88.480000000000004
 21
219.05011428279872
  0
LINE
  8
_0-1_作画層１
  6
CONTINUOUS
 62
    7
 10
87.819999999999993
 20
218.57679047303196
 11
88.421604763483984
 21
219.178395236516
  0
LINE
  8
_0-1_作画層１
  6
CONTINUOUS
 62
    7
 10
87.819999999999993
 20
218.76346666326518
 11
88.328266668367377
 21
219.27173333163259
  0
LINE
  8
_0-1_作画層１
  6
CONTINUOUS
 62
    7
 10
87.819999999999993
 20
218.95014285349845
 11
88.234928573250755
 21
219.36507142674918
  0
LINE
  8
_0-1_作画層１
  6
CONTINUOUS
 62
    7
 10
87.819999999999993
 20
219.11999999999998
 11
88.150000000000006
 21
219.44999999999996
  0
LINE
  8
_0-1_作画層１
  6
CONTINUOUS
 62
    7
 10
88.150000000000006
 20
219.44999999999996
 11
88.480000000000004
 21
219.11999999999998
  0
LINE
  8
_0-1_作画層１
  6
CONTINUOUS
 62
    7
 10
88.480000000000047
 20
219.12000000000003
 11
88.150000000000034
 21
219.44999999999999
  0
LINE
  8
_0-1_作画層１
  6
CONTINUOUS
 62
    7
 10
91.11999999999999
 20
223.01999999999998
 11
91.11999999999999
 21
219.71999999999997
  0
LINE
  8
_0-1_作画層１
  6
CONTINUOUS
 62
    7
 10
91.780000000000001
 20
223.01999999999998
 11
91.780000000000001
 21
219.71999999999997
  0
LINE
  8
_0-1_作画層１
  6
CONTINUOUS
 62
    7
 10
91.11999999999999
 20
219.71999999999997
 11
91.450000000000003
 21
219.38999999999996
  0
LINE
  8
_0-1_作画層１
  6
CONTINUOUS
 62
    7
 10
91.780000000000001
 20
219.71999999999997
 11
91.450000000000003
 21
219.38999999999996
  0
LINE
  8
_0-1_作画層１
  6
CONTINUOUS
 62
    7
 10
91.421690475583148
 20
219.41830952441683
 11
91.780000000000001
 21
219.77661904883365
  0
LINE
  8
_0-1_作画層１
  6
CONTINUOUS
 62
    7
 10
91.328352380466541
 20
219.51164761953342
 11
91.780000000000001
 21
219.96329523906689
  0
LINE
  8
_0-1_作画層１
  6
CONTINUOUS
 62
    7
 10
91.235014285349934
 20
219.60498571465004
 11
91.780000000000001
 21
220.14997142930011
  0
LINE
  8
_0-1_作画層１
  6
CONTINUOUS
 62
    7
 10
91.141676190233255
 20
219.69832380976669
 11
91.780000000000001
 21
220.33664761953341
  0
LINE
  8
_0-1_作画層１
  6
CONTINUOUS
 62
    7
 10
91.11999999999999
 20
219.86332380976665
 11
91.780000000000001
 21
220.52332380976659
  0
LINE
  8
_0-1_作画層１
  6
CONTINUOUS
 62
    7
 10
91.11999999999999
 20
220.04999999999987
 11
91.780000000000001
 21
220.70999999999987
  0
LINE
  8
_0-1_作画層１
  6
CONTINUOUS
 62
    7
 10
91.11999999999999
 20
220.23667619023308
 11
91.780000000000001
 21
220.89667619023311
  0
LINE
  8
_0-1_作画層１
  6
CONTINUOUS
 62
    7
 10
91.11999999999999
 20
220.42335238046635
 11
91.780000000000001
 21
221.08335238046629
  0
LINE
  8
_0-1_作画層１
  6
CONTINUOUS
 62
    7
 10
91.11999999999999
 20
220.61002857069951
 11
91.780000000000001
 21
221.27002857069957
  0
LINE
  8
_0-1_作画層１
  6
CONTINUOUS
 62
    7
 10
91.11999999999999
 20
220.79670476093278
 11
91.780000000000001
 21
221.45670476093272
  0
LINE
  8
_0-1_作画層１
  6
CONTINUOUS
 62
    7
 10
91.11999999999999
 20
220.98338095116605
 11
91.780000000000001
 21
221.64338095116605
  0
LINE
  8
_0-1_作画層１
  6
CONTINUOUS
 62
    7
 10
91.11999999999999
 20
221.17005714139927
 11
91.780000000000001
 21
221.83005714139927
  0
LINE
  8
_0-1_作画層１
  6
CONTINUOUS
 62
    7
 10
91.11999999999999
 20
221.35673333163254
 11
91.780000000000001
 21
222.01673333163254
  0
LINE
  8
_0-1_作画層１
  6
CONTINUOUS
 62
    7
 10
91.11999999999999
 20
221.54340952186575
 11
91.780000000000001
 21
222.20340952186581
  0
LINE
  8
_0-1_作画層１
  6
CONTINUOUS
 62
    7
 10
91.11999999999999
 20
221.73008571209903
 11
91.780000000000001
 21
222.39008571209902
  0
LINE
  8
_0-1_作画層１
  6
CONTINUOUS
 62
    7
 10
91.11999999999999
 20
221.9167619023323
 11
91.780000000000001
 21
222.57676190233229
  0
LINE
  8
_0-1_作画層１
  6
CONTINUOUS
 62
    7
 10
91.11999999999999
 20
222.10343809256545
 11
91.780000000000001
 21
222.76343809256545
  0
LINE
  8
_0-1_作画層１
  6
CONTINUOUS
 62
    7
 10
91.11999999999999
 20
222.29011428279873
 11
91.780000000000001
 21
222.95011428279872
  0
LINE
  8
_0-1_作画層１
  6
CONTINUOUS
 62
    7
 10
91.11999999999999
 20
222.47679047303194
 11
91.721604763483981
 21
223.078395236516
  0
LINE
  8
_0-1_作画層１
  6
CONTINUOUS
 62
    7
 10
91.11999999999999
 20
222.66346666326518
 11
91.628266668367374
 21
223.17173333163259
  0
LINE
  8
_0-1_作画層１
  6
CONTINUOUS
 62
    7
 10
91.11999999999999
 20
222.85014285349843
 11
91.534928573250752
 21
223.26507142674919
  0
LINE
  8
_0-1_作画層１
  6
CONTINUOUS
 62
    7
 10
91.11999999999999
 20
219.05999999999995
 11
91.11999999999999
 21
215.75999999999993
  0
LINE
  8
_0-1_作画層１
  6
CONTINUOUS
 62
    7
 10
91.11999999999999
 20
219.05999999999995
 11
91.450000000000003
 21
219.38999999999996
  0
LINE
  8
_0-1_作画層１
  6
CONTINUOUS
 62
    7
 10
91.450000000000003
 20
219.38999999999996
 11
91.780000000000001
 21
219.05999999999995
  0
LINE
  8
_0-1_作画層１
  6
CONTINUOUS
 62
    7
 10
91.780000000000001
 20
219.05999999999995
 11
91.780000000000001
 21
215.75999999999993
  0
LINE
  8
_0-1_作画層１
  6
CONTINUOUS
 62
    7
 10
91.11999999999999
 20
215.75999999999993
 11
91.450000000000003
 21
215.42999999999998
  0
LINE
  8
_0-1_作画層１
  6
CONTINUOUS
 62
    7
 10
91.780000000000001
 20
215.75999999999993
 11
91.450000000000003
 21
215.42999999999998
  0
LINE
  8
_0-1_作画層１
  6
CONTINUOUS
 62
    7
 10
91.421690475583148
 20
215.45830952441685
 11
91.780000000000001
 21
215.81661904883367
  0
LINE
  8
_0-1_作画層１
  6
CONTINUOUS
 62
    7
 10
91.328352380466541
 20
215.55164761953341
 11
91.780000000000001
 21
216.00329523906694
  0
LINE
  8
_0-1_作画層１
  6
CONTINUOUS
 62
    7
 10
91.235014285349934
 20
215.64498571465006
 11
91.780000000000001
 21
216.1899714293001
  0
LINE
  8
_0-1_作画層１
  6
CONTINUOUS
 62
    7
 10
91.141676190233255
 20
215.73832380976665
 11
91.780000000000001
 21
216.37664761953343
  0
LINE
  8
_0-1_作画層１
  6
CONTINUOUS
 62
    7
 10
91.11999999999999
 20
215.90332380976662
 11
91.780000000000001
 21
216.56332380976664
  0
LINE
  8
_0-1_作画層１
  6
CONTINUOUS
 62
    7
 10
91.11999999999999
 20
216.08999999999986
 11
91.780000000000001
 21
216.74999999999986
  0
LINE
  8
_0-1_作画層１
  6
CONTINUOUS
 62
    7
 10
91.11999999999999
 20
216.2766761902331
 11
91.780000000000001
 21
216.93667619023307
  0
LINE
  8
_0-1_作画層１
  6
CONTINUOUS
 62
    7
 10
91.11999999999999
 20
216.46335238046632
 11
91.780000000000001
 21
217.12335238046634
  0
LINE
  8
_0-1_作画層１
  6
CONTINUOUS
 62
    7
 10
91.11999999999999
 20
216.65002857069953
 11
91.780000000000001
 21
217.31002857069953
  0
LINE
  8
_0-1_作画層１
  6
CONTINUOUS
 62
    7
 10
91.11999999999999
 20
216.83670476093275
 11
91.780000000000001
 21
217.4967047609328
  0
LINE
  8
_0-1_作画層１
  6
CONTINUOUS
 62
    7
 10
91.11999999999999
 20
217.02338095116602
 11
91.780000000000001
 21
217.68338095116604
  0
LINE
  8
_0-1_作画層１
  6
CONTINUOUS
 62
    7
 10
91.11999999999999
 20
217.21005714139929
 11
91.780000000000001
 21
217.87005714139929
  0
LINE
  8
_0-1_作画層１
  6
CONTINUOUS
 62
    7
 10
91.11999999999999
 20
217.39673333163256
 11
91.780000000000001
 21
218.05673333163253
  0
LINE
  8
_0-1_作画層１
  6
CONTINUOUS
 62
    7
 10
91.11999999999999
 20
217.58340952186578
 11
91.780000000000001
 21
218.24340952186577
  0
LINE
  8
_0-1_作画層１
  6
CONTINUOUS
 62
    7
 10
91.11999999999999
 20
217.77008571209905
 11
91.780000000000001
 21
218.43008571209901
  0
LINE
  8
_0-1_作画層１
  6
CONTINUOUS
 62
    7
 10
91.11999999999999
 20
217.95676190233226
 11
91.780000000000001
 21
218.61676190233229
  0
LINE
  8
_0-1_作画層１
  6
CONTINUOUS
 62
    7
 10
91.11999999999999
 20
218.14343809256548
 11
91.780000000000001
 21
218.80343809256547
  0
LINE
  8
_0-1_作画層１
  6
CONTINUOUS
 62
    7
 10
91.11999999999999
 20
218.33011428279869
 11
91.780000000000001
 21
218.99011428279874
  0
LINE
  8
_0-1_作画層１
  6
CONTINUOUS
 62
    7
 10
91.11999999999999
 20
218.51679047303196
 11
91.721604763483981
 21
219.11839523651597
  0
LINE
  8
_0-1_作画層１
  6
CONTINUOUS
 62
    7
 10
91.11999999999999
 20
218.70346666326523
 11
91.628266668367374
 21
219.21173333163262
  0
LINE
  8
_0-1_作画層１
  6
CONTINUOUS
 62
    7
 10
91.11999999999999
 20
218.89014285349845
 11
91.534928573250752
 21
219.30507142674918
  0
LINE
  8
_0-1_作画層１
  6
CONTINUOUS
 62
    7
 10
91.75
 20
223.34999999999997
 11
92.080000000000013
 21
223.01999999999998
  0
LINE
  8
_0-1_作画層１
  6
CONTINUOUS
 62
    7
 10
92.080000000000041
 20
223.02000000000004
 11
95.380000000000038
 21
223.02000000000004
  0
LINE
  8
_0-1_作画層１
  6
CONTINUOUS
 62
    7
 10
92.080000000000041
 20
223.02000000000004
 11
91.750000000000028
 21
223.34999999999999
  0
LINE
  8
_0-1_作画層１
  6
CONTINUOUS
 62
    7
 10
91.750000000000028
 20
223.34999999999999
 11
92.080000000000041
 21
223.68000000000001
  0
LINE
  8
_0-1_作画層１
  6
CONTINUOUS
 62
    7
 10
92.080000000000041
 20
223.68000000000001
 11
95.380000000000038
 21
223.68000000000001
  0
LINE
  8
_0-1_作画層１
  6
CONTINUOUS
 62
    7
 10
95.380000000000038
 20
223.02000000000004
 11
95.710000000000051
 21
223.34999999999999
  0
LINE
  8
_0-1_作画層１
  6
CONTINUOUS
 62
    7
 10
95.380000000000038
 20
223.68000000000001
 11
95.710000000000051
 21
223.34999999999999
  0
LINE
  8
_0-1_作画層１
  6
CONTINUOUS
 62
    7
 10
95.681690475583167
 20
223.32169047558318
 11
95.323380951166328
 21
223.68000000000001
  0
LINE
  8
_0-1_作画層１
  6
CONTINUOUS
 62
    7
 10
95.588352380466603
 20
223.22835238046656
 11
95.1367047609331
 21
223.68000000000001
  0
LINE
  8
_0-1_作画層１
  6
CONTINUOUS
 62
    7
 10
95.495014285349953
 20
223.13501428534991
 11
94.950028570699885
 21
223.68000000000001
  0
LINE
  8
_0-1_作画層１
  6
CONTINUOUS
 62
    7
 10
95.401676190233346
 20
223.04167619023329
 11
94.7633523804666
 21
223.68000000000001
  0
LINE
  8
_0-1_作画層１
  6
CONTINUOUS
 62
    7
 10
95.236676190233354
 20
223.02000000000004
 11
94.576676190233371
 21
223.68000000000001
  0
LINE
  8
_0-1_作画層１
  6
CONTINUOUS
 62
    7
 10
95.050000000000139
 20
223.02000000000004
 11
94.390000000000157
 21
223.68000000000001
  0
LINE
  8
_0-1_作画層１
  6
CONTINUOUS
 62
    7
 10
94.863323809766882
 20
223.02000000000004
 11
94.2033238097669
 21
223.68000000000001
  0
LINE
  8
_0-1_作画層１
  6
CONTINUOUS
 62
    7
 10
94.676647619533668
 20
223.02000000000004
 11
94.016647619533686
 21
223.68000000000001
  0
LINE
  8
_0-1_作画層１
  6
CONTINUOUS
 62
    7
 10
94.489971429300439
 20
223.02000000000004
 11
93.829971429300457
 21
223.68000000000001
  0
LINE
  8
_0-1_作画層１
  6
CONTINUOUS
 62
    7
 10
94.303295239067225
 20
223.02000000000004
 11
93.643295239067243
 21
223.68000000000001
  0
LINE
  8
_0-1_作画層１
  6
CONTINUOUS
 62
    7
 10
94.116619048833968
 20
223.02000000000004
 11
93.456619048833957
 21
223.68000000000001
  0
LINE
  8
_0-1_作画層１
  6
CONTINUOUS
 62
    7
 10
93.929942858600711
 20
223.02000000000004
 11
93.2699428586007
 21
223.68000000000001
  0
LINE
  8
_0-1_作画層１
  6
CONTINUOUS
 62
    7
 10
93.743266668367454
 20
223.02000000000004
 11
93.083266668367443
 21
223.68000000000001
  0
LINE
  8
_0-1_作画層１
  6
CONTINUOUS
 62
    7
 10
93.55659047813424
 20
223.02000000000004
 11
92.896590478134229
 21
223.68000000000001
  0
LINE
  8
_0-1_作画層１
  6
CONTINUOUS
 62
    7
 10
93.369914287900983
 20
223.02000000000004
 11
92.709914287900972
 21
223.68000000000001
  0
LINE
  8
_0-1_作画層１
  6
CONTINUOUS
 62
    7
 10
93.183238097667726
 20
223.02000000000004
 11
92.523238097667715
 21
223.68000000000001
  0
LINE
  8
_0-1_作画層１
  6
CONTINUOUS
 62
    7
 10
92.99656190743454
 20
223.02000000000004
 11
92.336561907434529
 21
223.68000000000001
  0
LINE
  8
_0-1_作画層１
  6
CONTINUOUS
 62
    7
 10
92.809885717201297
 20
223.02000000000004
 11
92.149885717201272
 21
223.68000000000001
  0
LINE
  8
_0-1_作画層１
  6
CONTINUOUS
 62
    7
 10
92.62320952696804
 20
223.02000000000004
 11
92.021604763484021
 21
223.62160476348399
  0
LINE
  8
_0-1_作画層１
  6
CONTINUOUS
 62
    7
 10
92.436533336734811
 20
223.02000000000004
 11
91.928266668367399
 21
223.52826666836739
  0
LINE
  8
_0-1_作画層１
  6
CONTINUOUS
 62
    7
 10
92.249857146501526
 20
223.02000000000004
 11
91.834928573250792
 21
223.43492857325072
  0
LINE
  8
_0-1_作画層１
  6
CONTINUOUS
 62
    7
 10
91.11999999999999
 20
223.01999999999998
 11
91.450000000000003
 21
223.34999999999997
  0
LINE
  8
_0-1_作画層１
  6
CONTINUOUS
 62
    7
 10
91.450000000000003
 20
223.34999999999997
 11
91.780000000000001
 21
223.01999999999998
  0
LINE
  8
_0-1_作画層１
  6
CONTINUOUS
 62
    7
 10
91.780000000000044
 20
223.02000000000004
 11
91.450000000000031
 21
223.34999999999999
  0
LINE
  8
_0-1_作画層１
  6
CONTINUOUS
 62
    7
 10
91.75
 20
215.54999999999995
 11
92.080000000000013
 21
215.21999999999997
  0
LINE
  8
_0-1_作画層１
  6
CONTINUOUS
 62
    7
 10
92.080000000000041
 20
215.22000000000003
 11
95.380000000000038
 21
215.22000000000003
  0
LINE
  8
_0-1_作画層１
  6
CONTINUOUS
 62
    7
 10
92.080000000000041
 20
215.22000000000003
 11
91.750000000000028
 21
215.55000000000001
  0
LINE
  8
_0-1_作画層１
  6
CONTINUOUS
 62
    7
 10
91.750000000000028
 20
215.55000000000001
 11
92.080000000000041
 21
215.88000000000002
  0
LINE
  8
_0-1_作画層１
  6
CONTINUOUS
 62
    7
 10
92.080000000000041
 20
215.88000000000002
 11
95.380000000000038
 21
215.88000000000002
  0
LINE
  8
_0-1_作画層１
  6
CONTINUOUS
 62
    7
 10
95.380000000000038
 20
215.22000000000003
 11
95.710000000000051
 21
215.55000000000001
  0
LINE
  8
_0-1_作画層１
  6
CONTINUOUS
 62
    7
 10
95.380000000000038
 20
215.88000000000002
 11
95.710000000000051
 21
215.55000000000001
  0
LINE
  8
_0-1_作画層１
  6
CONTINUOUS
 62
    7
 10
95.681690475583167
 20
215.52169047558317
 11
95.323380951166328
 21
215.88000000000002
  0
LINE
  8
_0-1_作画層１
  6
CONTINUOUS
 62
    7
 10
95.588352380466603
 20
215.42835238046655
 11
95.1367047609331
 21
215.88000000000002
  0
LINE
  8
_0-1_作画層１
  6
CONTINUOUS
 62
    7
 10
95.495014285349953
 20
215.33501428534993
 11
94.950028570699885
 21
215.88000000000002
  0
LINE
  8
_0-1_作画層１
  6
CONTINUOUS
 62
    7
 10
95.401676190233346
 20
215.24167619023328
 11
94.7633523804666
 21
215.88000000000002
  0
LINE
  8
_0-1_作画層１
  6
CONTINUOUS
 62
    7
 10
95.236676190233354
 20
215.22000000000003
 11
94.576676190233371
 21
215.88000000000002
  0
LINE
  8
_0-1_作画層１
  6
CONTINUOUS
 62
    7
 10
95.050000000000139
 20
215.22000000000003
 11
94.390000000000157
 21
215.88000000000002
  0
LINE
  8
_0-1_作画層１
  6
CONTINUOUS
 62
    7
 10
94.863323809766882
 20
215.22000000000003
 11
94.2033238097669
 21
215.88000000000002
  0
LINE
  8
_0-1_作画層１
  6
CONTINUOUS
 62
    7
 10
94.676647619533668
 20
215.22000000000003
 11
94.016647619533686
 21
215.88000000000002
  0
LINE
  8
_0-1_作画層１
  6
CONTINUOUS
 62
    7
 10
94.489971429300439
 20
215.22000000000003
 11
93.829971429300457
 21
215.88000000000002
  0
LINE
  8
_0-1_作画層１
  6
CONTINUOUS
 62
    7
 10
94.303295239067225
 20
215.22000000000003
 11
93.643295239067243
 21
215.88000000000002
  0
LINE
  8
_0-1_作画層１
  6
CONTINUOUS
 62
    7
 10
94.116619048833968
 20
215.22000000000003
 11
93.456619048833957
 21
215.88000000000002
  0
LINE
  8
_0-1_作画層１
  6
CONTINUOUS
 62
    7
 10
93.929942858600711
 20
215.22000000000003
 11
93.2699428586007
 21
215.88000000000002
  0
LINE
  8
_0-1_作画層１
  6
CONTINUOUS
 62
    7
 10
93.743266668367454
 20
215.22000000000003
 11
93.083266668367443
 21
215.88000000000002
  0
LINE
  8
_0-1_作画層１
  6
CONTINUOUS
 62
    7
 10
93.55659047813424
 20
215.22000000000003
 11
92.896590478134229
 21
215.88000000000002
  0
LINE
  8
_0-1_作画層１
  6
CONTINUOUS
 62
    7
 10
93.369914287900983
 20
215.22000000000003
 11
92.709914287900972
 21
215.88000000000002
  0
LINE
  8
_0-1_作画層１
  6
CONTINUOUS
 62
    7
 10
93.183238097667726
 20
215.22000000000003
 11
92.523238097667715
 21
215.88000000000002
  0
LINE
  8
_0-1_作画層１
  6
CONTINUOUS
 62
    7
 10
92.99656190743454
 20
215.22000000000003
 11
92.336561907434529
 21
215.88000000000002
  0
LINE
  8
_0-1_作画層１
  6
CONTINUOUS
 62
    7
 10
92.809885717201297
 20
215.22000000000003
 11
92.149885717201272
 21
215.88000000000002
  0
LINE
  8
_0-1_作画層１
  6
CONTINUOUS
 62
    7
 10
92.62320952696804
 20
215.22000000000003
 11
92.021604763484021
 21
215.821604763484
  0
LINE
  8
_0-1_作画層１
  6
CONTINUOUS
 62
    7
 10
92.436533336734811
 20
215.22000000000003
 11
91.928266668367399
 21
215.72826666836741
  0
LINE
  8
_0-1_作画層１
  6
CONTINUOUS
 62
    7
 10
92.249857146501526
 20
215.22000000000003
 11
91.834928573250792
 21
215.63492857325073
  0
LINE
  8
_0-1_作画層１
  6
CONTINUOUS
 62
    7
 10
95.61999999999999
 20
223.01999999999998
 11
95.61999999999999
 21
219.71999999999997
  0
LINE
  8
_0-1_作画層１
  6
CONTINUOUS
 62
    7
 10
96.280000000000001
 20
223.01999999999998
 11
96.280000000000001
 21
219.71999999999997
  0
LINE
  8
_0-1_作画層１
  6
CONTINUOUS
 62
    7
 10
95.61999999999999
 20
219.71999999999997
 11
95.950000000000003
 21
219.38999999999996
  0
LINE
  8
_0-1_作画層１
  6
CONTINUOUS
 62
    7
 10
96.280000000000001
 20
219.71999999999997
 11
95.950000000000003
 21
219.38999999999996
  0
LINE
  8
_0-1_作画層１
  6
CONTINUOUS
 62
    7
 10
95.921690475583148
 20
219.41830952441683
 11
96.280000000000001
 21
219.77661904883365
  0
LINE
  8
_0-1_作画層１
  6
CONTINUOUS
 62
    7
 10
95.828352380466541
 20
219.51164761953342
 11
96.280000000000001
 21
219.96329523906689
  0
LINE
  8
_0-1_作画層１
  6
CONTINUOUS
 62
    7
 10
95.735014285349934
 20
219.60498571465004
 11
96.280000000000001
 21
220.14997142930011
  0
LINE
  8
_0-1_作画層１
  6
CONTINUOUS
 62
    7
 10
95.641676190233255
 20
219.69832380976669
 11
96.280000000000001
 21
220.33664761953341
  0
LINE
  8
_0-1_作画層１
  6
CONTINUOUS
 62
    7
 10
95.61999999999999
 20
219.86332380976665
 11
96.280000000000001
 21
220.52332380976659
  0
LINE
  8
_0-1_作画層１
  6
CONTINUOUS
 62
    7
 10
95.61999999999999
 20
220.04999999999987
 11
96.280000000000001
 21
220.70999999999987
  0
LINE
  8
_0-1_作画層１
  6
CONTINUOUS
 62
    7
 10
95.61999999999999
 20
220.23667619023308
 11
96.280000000000001
 21
220.89667619023311
  0
LINE
  8
_0-1_作画層１
  6
CONTINUOUS
 62
    7
 10
95.61999999999999
 20
220.42335238046635
 11
96.280000000000001
 21
221.08335238046629
  0
LINE
  8
_0-1_作画層１
  6
CONTINUOUS
 62
    7
 10
95.61999999999999
 20
220.61002857069951
 11
96.280000000000001
 21
221.27002857069957
  0
LINE
  8
_0-1_作画層１
  6
CONTINUOUS
 62
    7
 10
95.61999999999999
 20
220.79670476093278
 11
96.280000000000001
 21
221.45670476093272
  0
LINE
  8
_0-1_作画層１
  6
CONTINUOUS
 62
    7
 10
95.61999999999999
 20
220.98338095116605
 11
96.280000000000001
 21
221.64338095116605
  0
LINE
  8
_0-1_作画層１
  6
CONTINUOUS
 62
    7
 10
95.61999999999999
 20
221.17005714139927
 11
96.280000000000001
 21
221.83005714139927
  0
LINE
  8
_0-1_作画層１
  6
CONTINUOUS
 62
    7
 10
95.61999999999999
 20
221.35673333163254
 11
96.280000000000001
 21
222.01673333163254
  0
LINE
  8
_0-1_作画層１
  6
CONTINUOUS
 62
    7
 10
95.61999999999999
 20
221.54340952186575
 11
96.280000000000001
 21
222.20340952186581
  0
LINE
  8
_0-1_作画層１
  6
CONTINUOUS
 62
    7
 10
95.61999999999999
 20
221.73008571209903
 11
96.280000000000001
 21
222.39008571209902
  0
LINE
  8
_0-1_作画層１
  6
CONTINUOUS
 62
    7
 10
95.61999999999999
 20
221.9167619023323
 11
96.280000000000001
 21
222.57676190233229
  0
LINE
  8
_0-1_作画層１
  6
CONTINUOUS
 62
    7
 10
95.61999999999999
 20
222.10343809256545
 11
96.280000000000001
 21
222.76343809256545
  0
LINE
  8
_0-1_作画層１
  6
CONTINUOUS
 62
    7
 10
95.61999999999999
 20
222.29011428279873
 11
96.280000000000001
 21
222.95011428279872
  0
LINE
  8
_0-1_作画層１
  6
CONTINUOUS
 62
    7
 10
95.61999999999999
 20
222.47679047303194
 11
96.221604763483981
 21
223.078395236516
  0
LINE
  8
_0-1_作画層１
  6
CONTINUOUS
 62
    7
 10
95.61999999999999
 20
222.66346666326518
 11
96.128266668367374
 21
223.17173333163259
  0
LINE
  8
_0-1_作画層１
  6
CONTINUOUS
 62
    7
 10
95.61999999999999
 20
222.85014285349843
 11
96.034928573250752
 21
223.26507142674919
  0
LINE
  8
_0-1_作画層１
  6
CONTINUOUS
 62
    7
 10
95.61999999999999
 20
223.01999999999998
 11
95.950000000000003
 21
223.34999999999997
  0
LINE
  8
_0-1_作画層１
  6
CONTINUOUS
 62
    7
 10
95.950000000000003
 20
223.34999999999997
 11
96.280000000000001
 21
223.01999999999998
  0
LINE
  8
_0-1_作画層１
  6
CONTINUOUS
 62
    7
 10
96.280000000000044
 20
223.02000000000004
 11
95.950000000000031
 21
223.34999999999999
  0
LINE
  8
_0-1_作画層１
  6
CONTINUOUS
 62
    7
 10
95.61999999999999
 20
219.11999999999998
 11
95.61999999999999
 21
215.81999999999999
  0
LINE
  8
_0-1_作画層１
  6
CONTINUOUS
 62
    7
 10
96.280000000000001
 20
219.11999999999998
 11
96.280000000000001
 21
215.81999999999999
  0
LINE
  8
_0-1_作画層１
  6
CONTINUOUS
 62
    7
 10
95.61999999999999
 20
215.81999999999999
 11
95.950000000000003
 21
215.48999999999995
  0
LINE
  8
_0-1_作画層１
  6
CONTINUOUS
 62
    7
 10
96.280000000000001
 20
215.81999999999999
 11
95.950000000000003
 21
215.48999999999995
  0
LINE
  8
_0-1_作画層１
  6
CONTINUOUS
 62
    7
 10
95.921690475583148
 20
215.51830952441682
 11
96.280000000000001
 21
215.87661904883367
  0
LINE
  8
_0-1_作画層１
  6
CONTINUOUS
 62
    7
 10
95.828352380466541
 20
215.61164761953341
 11
96.280000000000001
 21
216.06329523906689
  0
LINE
  8
_0-1_作画層１
  6
CONTINUOUS
 62
    7
 10
95.735014285349934
 20
215.70498571465004
 11
96.280000000000001
 21
216.2499714293001
  0
LINE
  8
_0-1_作画層１
  6
CONTINUOUS
 62
    7
 10
95.641676190233255
 20
215.79832380976669
 11
96.280000000000001
 21
216.4366476195334
  0
LINE
  8
_0-1_作画層１
  6
CONTINUOUS
 62
    7
 10
95.61999999999999
 20
215.96332380976665
 11
96.280000000000001
 21
216.62332380976659
  0
LINE
  8
_0-1_作画層１
  6
CONTINUOUS
 62
    7
 10
95.61999999999999
 20
216.14999999999986
 11
96.280000000000001
 21
216.80999999999986
  0
LINE
  8
_0-1_作画層１
  6
CONTINUOUS
 62
    7
 10
95.61999999999999
 20
216.33667619023308
 11
96.280000000000001
 21
216.99667619023313
  0
LINE
  8
_0-1_作画層１
  6
CONTINUOUS
 62
    7
 10
95.61999999999999
 20
216.52335238046635
 11
96.280000000000001
 21
217.18335238046629
  0
LINE
  8
_0-1_作画層１
  6
CONTINUOUS
 62
    7
 10
95.61999999999999
 20
216.71002857069954
 11
96.280000000000001
 21
217.37002857069956
  0
LINE
  8
_0-1_作画層１
  6
CONTINUOUS
 62
    7
 10
95.61999999999999
 20
216.89670476093278
 11
96.280000000000001
 21
217.55670476093275
  0
LINE
  8
_0-1_作画層１
  6
CONTINUOUS
 62
    7
 10
95.61999999999999
 20
217.08338095116605
 11
96.280000000000001
 21
217.74338095116605
  0
LINE
  8
_0-1_作画層１
  6
CONTINUOUS
 62
    7
 10
95.61999999999999
 20
217.27005714139926
 11
96.280000000000001
 21
217.93005714139926
  0
LINE
  8
_0-1_作画層１
  6
CONTINUOUS
 62
    7
 10
95.61999999999999
 20
217.45673333163253
 11
96.280000000000001
 21
218.11673333163253
  0
LINE
  8
_0-1_作画層１
  6
CONTINUOUS
 62
    7
 10
95.61999999999999
 20
217.64340952186575
 11
96.280000000000001
 21
218.3034095218658
  0
LINE
  8
_0-1_作画層１
  6
CONTINUOUS
 62
    7
 10
95.61999999999999
 20
217.83008571209902
 11
96.280000000000001
 21
218.49008571209902
  0
LINE
  8
_0-1_作画層１
  6
CONTINUOUS
 62
    7
 10
95.61999999999999
 20
218.01676190233229
 11
96.280000000000001
 21
218.67676190233229
  0
LINE
  8
_0-1_作画層１
  6
CONTINUOUS
 62
    7
 10
95.61999999999999
 20
218.20343809256548
 11
96.280000000000001
 21
218.86343809256545
  0
LINE
  8
_0-1_作画層１
  6
CONTINUOUS
 62
    7
 10
95.61999999999999
 20
218.39011428279872
 11
96.280000000000001
 21
219.05011428279872
  0
LINE
  8
_0-1_作画層１
  6
CONTINUOUS
 62
    7
 10
95.61999999999999
 20
218.57679047303196
 11
96.221604763483981
 21
219.178395236516
  0
LINE
  8
_0-1_作画層１
  6
CONTINUOUS
 62
    7
 10
95.61999999999999
 20
218.76346666326518
 11
96.128266668367374
 21
219.27173333163259
  0
LINE
  8
_0-1_作画層１
  6
CONTINUOUS
 62
    7
 10
95.61999999999999
 20
218.95014285349845
 11
96.034928573250752
 21
219.36507142674918
  0
LINE
  8
_0-1_作画層１
  6
CONTINUOUS
 62
    7
 10
95.61999999999999
 20
219.11999999999998
 11
95.950000000000003
 21
219.44999999999996
  0
LINE
  8
_0-1_作画層１
  6
CONTINUOUS
 62
    7
 10
95.950000000000003
 20
219.44999999999996
 11
96.280000000000001
 21
219.11999999999998
  0
LINE
  8
_0-1_作画層１
  6
CONTINUOUS
 62
    7
 10
96.280000000000044
 20
219.12000000000003
 11
95.950000000000031
 21
219.44999999999999
  0
LINE
  8
_0-1_作画層１
  6
CONTINUOUS
 62
    7
 10
83.950000000000003
 20
219.44999999999996
 11
84.280000000000001
 21
219.11999999999998
  0
LINE
  8
_0-1_作画層１
  6
CONTINUOUS
 62
    7
 10
84.280000000000044
 20
219.12000000000003
 11
87.580000000000041
 21
219.12000000000003
  0
LINE
  8
_0-1_作画層１
  6
CONTINUOUS
 62
    7
 10
84.280000000000044
 20
219.12000000000003
 11
83.950000000000031
 21
219.44999999999999
  0
LINE
  8
_0-1_作画層１
  6
CONTINUOUS
 62
    7
 10
83.950000000000031
 20
219.44999999999999
 11
84.280000000000044
 21
219.78000000000003
  0
LINE
  8
_0-1_作画層１
  6
CONTINUOUS
 62
    7
 10
84.280000000000044
 20
219.78000000000003
 11
87.580000000000041
 21
219.78000000000003
  0
LINE
  8
_0-1_作画層１
  6
CONTINUOUS
 62
    7
 10
87.580000000000041
 20
219.12000000000003
 11
87.910000000000053
 21
219.44999999999999
  0
LINE
  8
_0-1_作画層１
  6
CONTINUOUS
 62
    7
 10
87.580000000000041
 20
219.78000000000003
 11
87.910000000000053
 21
219.44999999999999
  0
LINE
  8
_0-1_作画層１
  6
CONTINUOUS
 62
    7
 10
87.88169047558317
 20
219.42169047558318
 11
87.523380951166331
 21
219.78000000000003
  0
LINE
  8
_0-1_作画層１
  6
CONTINUOUS
 62
    7
 10
87.788352380466591
 20
219.32835238046655
 11
87.336704760933102
 21
219.78000000000003
  0
LINE
  8
_0-1_作画層１
  6
CONTINUOUS
 62
    7
 10
87.695014285349956
 20
219.23501428534991
 11
87.150028570699888
 21
219.78000000000003
  0
LINE
  8
_0-1_作画層１
  6
CONTINUOUS
 62
    7
 10
87.601676190233349
 20
219.14167619023328
 11
86.963352380466603
 21
219.78000000000003
  0
LINE
  8
_0-1_作画層１
  6
CONTINUOUS
 62
    7
 10
87.436676190233356
 20
219.12000000000003
 11
86.776676190233374
 21
219.78000000000003
  0
LINE
  8
_0-1_作画層１
  6
CONTINUOUS
 62
    7
 10
87.250000000000142
 20
219.12000000000003
 11
86.59000000000016
 21
219.78000000000003
  0
LINE
  8
_0-1_作画層１
  6
CONTINUOUS
 62
    7
 10
87.063323809766885
 20
219.12000000000003
 11
86.403323809766903
 21
219.78000000000003
  0
LINE
  8
_0-1_作画層１
  6
CONTINUOUS
 62
    7
 10
86.876647619533657
 20
219.12000000000003
 11
86.216647619533688
 21
219.78000000000003
  0
LINE
  8
_0-1_作画層１
  6
CONTINUOUS
 62
    7
 10
86.689971429300442
 20
219.12000000000003
 11
86.02997142930046
 21
219.78000000000003
  0
LINE
  8
_0-1_作画層１
  6
CONTINUOUS
 62
    7
 10
86.503295239067228
 20
219.12000000000003
 11
85.843295239067245
 21
219.78000000000003
  0
LINE
  8
_0-1_作画層１
  6
CONTINUOUS
 62
    7
 10
86.316619048833971
 20
219.12000000000003
 11
85.65661904883396
 21
219.78000000000003
  0
LINE
  8
_0-1_作画層１
  6
CONTINUOUS
 62
    7
 10
86.129942858600714
 20
219.12000000000003
 11
85.469942858600703
 21
219.78000000000003
  0
LINE
  8
_0-1_作画層１
  6
CONTINUOUS
 62
    7
 10
85.943266668367457
 20
219.12000000000003
 11
85.283266668367446
 21
219.78000000000003
  0
LINE
  8
_0-1_作画層１
  6
CONTINUOUS
 62
    7
 10
85.756590478134243
 20
219.12000000000003
 11
85.096590478134232
 21
219.78000000000003
  0
LINE
  8
_0-1_作画層１
  6
CONTINUOUS
 62
    7
 10
85.569914287900986
 20
219.12000000000003
 11
84.909914287900975
 21
219.78000000000003
  0
LINE
  8
_0-1_作画層１
  6
CONTINUOUS
 62
    7
 10
85.383238097667729
 20
219.12000000000003
 11
84.723238097667718
 21
219.78000000000003
  0
LINE
  8
_0-1_作画層１
  6
CONTINUOUS
 62
    7
 10
85.196561907434543
 20
219.12000000000003
 11
84.536561907434532
 21
219.78000000000003
  0
LINE
  8
_0-1_作画層１
  6
CONTINUOUS
 62
    7
 10
85.009885717201286
 20
219.12000000000003
 11
84.349885717201275
 21
219.78000000000003
  0
LINE
  8
_0-1_作画層１
  6
CONTINUOUS
 62
    7
 10
84.823209526968043
 20
219.12000000000003
 11
84.221604763484009
 21
219.72160476348398
  0
LINE
  8
_0-1_作画層１
  6
CONTINUOUS
 62
    7
 10
84.636533336734814
 20
219.12000000000003
 11
84.128266668367402
 21
219.62826666836742
  0
LINE
  8
_0-1_作画層１
  6
CONTINUOUS
 62
    7
 10
84.449857146501529
 20
219.12000000000003
 11
84.034928573250795
 21
219.53492857325074
  0
CIRCLE
  8
_0-1_作画層１
  6
CONTINUOUS
 62
    7
 10
79.629999999999967
 20
221.35499999999996
 40
0.675
  0
CIRCLE
  8
_0-1_作画層１
  6
CONTINUOUS
 62
    7
 10
79.629999999999967
 20
217.30499999999998
 40
0.675
  0
LINE
  8
_0-1_作画層１
  6
CONTINUOUS
 62
    7
 10
80.277999999999992
 20
221.16600000000003
 11
80.277999999999992
 21
221.54399999999987
  0
LINE
  8
_0-1_作画層１
  6
CONTINUOUS
 62
    7
 10
80.170000000000016
 20
220.94999999999999
 11
80.170000000000016
 21
221.75999999999993
  0
LINE
  8
_0-1_作画層１
  6
CONTINUOUS
 62
    7
 10
80.062000000000012
 20
220.83634693676794
 11
80.062000000000012
 21
221.87365306323198
  0
LINE
  8
_0-1_作画層１
  6
CONTINUOUS
 62
    7
 10
79.954000000000008
 20
220.76284377061452
 11
79.954000000000008
 21
221.94715622938537
  0
LINE
  8
_0-1_作画層１
  6
CONTINUOUS
 62
    7
 10
79.84600000000006
 20
220.71549315875436
 11
79.84600000000006
 21
221.9945068412456
  0
LINE
  8
_0-1_作画層１
  6
CONTINUOUS
 62
    7
 10
79.738000000000056
 20
220.68869601532032
 11
79.738000000000056
 21
222.02130398467961
  0
LINE
  8
_0-1_作画層１
  6
CONTINUOUS
 62
    7
 10
79.630000000000052
 20
220.67999999999998
 11
79.630000000000052
 21
222.02999999999997
  0
LINE
  8
_0-1_作画層１
  6
CONTINUOUS
 62
    7
 10
79.522000000000077
 20
220.68869601532029
 11
79.522000000000077
 21
222.02130398467966
  0
LINE
  8
_0-1_作画層１
  6
CONTINUOUS
 62
    7
 10
79.414000000000073
 20
220.71549315875427
 11
79.414000000000073
 21
221.99450684124568
  0
LINE
  8
_0-1_作画層１
  6
CONTINUOUS
 62
    7
 10
79.306000000000068
 20
220.76284377061447
 11
79.306000000000068
 21
221.94715622938548
  0
LINE
  8
_0-1_作画層１
  6
CONTINUOUS
 62
    7
 10
79.198000000000093
 20
220.83634693676785
 11
79.198000000000093
 21
221.8736530632321
  0
LINE
  8
_0-1_作画層１
  6
CONTINUOUS
 62
    7
 10
79.090000000000089
 20
220.94999999999987
 11
79.090000000000089
 21
221.76000000000008
  0
LINE
  8
_0-1_作画層１
  6
CONTINUOUS
 62
    7
 10
78.982000000000085
 20
221.16599999999963
 11
78.982000000000085
 21
221.54400000000032
  0
LINE
  8
_0-1_作画層１
  6
CONTINUOUS
 62
    7
 10
80.251000000000033
 20
217.04045510777945
 11
80.251000000000033
 21
217.56954489222045
  0
LINE
  8
_0-1_作画層１
  6
CONTINUOUS
 62
    7
 10
80.143000000000058
 20
216.86630192614967
 11
80.143000000000058
 21
217.74369807385028
  0
LINE
  8
_0-1_作画層１
  6
CONTINUOUS
 62
    7
 10
80.035000000000025
 20
216.76499999999996
 11
80.035000000000025
 21
217.84499999999989
  0
LINE
  8
_0-1_作画層１
  6
CONTINUOUS
 62
    7
 10
79.927000000000049
 20
216.69885150334267
 11
79.927000000000049
 21
217.91114849665729
  0
LINE
  8
_0-1_作画層１
  6
CONTINUOUS
 62
    7
 10
79.819000000000074
 20
216.65699999999998
 11
79.819000000000074
 21
217.95299999999997
  0
LINE
  8
_0-1_作画層１
  6
CONTINUOUS
 62
    7
 10
79.711000000000041
 20
216.63487762311647
 11
79.711000000000041
 21
217.97512237688343
  0
LINE
  8
_0-1_作画層１
  6
CONTINUOUS
 62
    7
 10
79.603000000000065
 20
216.63054021617296
 11
79.603000000000065
 21
217.97945978382694
  0
LINE
  8
_0-1_作画層１
  6
CONTINUOUS
 62
    7
 10
79.495000000000061
 20
216.64363776944847
 11
79.495000000000061
 21
217.96636223055143
  0
LINE
  8
_0-1_作画層１
  6
CONTINUOUS
 62
    7
 10
79.387000000000057
 20
216.67525719535661
 11
79.387000000000057
 21
217.93474280464335
  0
LINE
  8
_0-1_作画層１
  6
CONTINUOUS
 62
    7
 10
79.279000000000082
 20
216.72843777439022
 11
79.279000000000082
 21
217.88156222560974
  0
LINE
  8
_0-1_作画層１
  6
CONTINUOUS
 62
    7
 10
79.171000000000078
 20
216.81008182494466
 11
79.171000000000078
 21
217.79991817505524
  0
LINE
  8
_0-1_作画層１
  6
CONTINUOUS
 62
    7
 10
79.063000000000073
 20
216.93875418091102
 11
79.063000000000073
 21
217.67124581908888
  0
LINE
  8
_0-1_作画層１
  6
CONTINUOUS
 62
    7
 10
196.25
 20
99.75
 11
205
 21
102.25
  0
TEXT
  8
_0-7_注記層１
 62
    7
 10
343.75
 20
27.25
 40
4
 41
1
 50
0
  1
平野
  0
TEXT
  8
_0-7_注記層１
 62
    7
 10
159.875
 20
199.125
 40
2.5
 41
1
 50
90
  1
定格電圧　AC250V
  0
TEXT
  8
_0-7_注記層１
 62
    7
 10
162.375
 20
199.125
 40
2.5
 41
1
 50
90
  1
定格電流　10A
  0
TEXT
  8
_0-7_注記層１
 62
    7
 10
164.875
 20
199.125
 40
2.5
 41
1
 50
90
  1
スナオ電気株式会社
  0
TEXT
  8
_0-7_注記層１
 62
    7
 10
306.25
 20
228
 40
3.5
 41
1
 50
0
  1
抵抗負荷　AC250V  10A
  0
TEXT
  8
_0-7_注記層１
 62
    7
 10
268.75
 20
34.75
 40
4
 41
1
 50
0
  1
定格電流を10Aに変更　2011.12.1
  0
TEXT
  8
_0-7_注記層１
 62
    7
 10
306.25
 20
198
 40
3.5
 41
1
 50
0
  1
180g
  0
TEXT
  8
_0-7_注記層１
 62
    7
 10
306.25
 20
193
 40
3.5
 41
1
 50
0
  1
H100×W50×D68.5mm(突起物除く)
  0
TEXT
  8
_0-7_注記層１
 62
    7
 10
306.25
 20
248
 40
3.5
 41
1
 50
0
  1
50Hz/60Hz共用
  0
TEXT
  8
_0-7_注記層１
 62
    7
 10
306.25
 20
258
 40
3.5
 41
1
 50
0
  1
AC100/AC200V共用
  0
TEXT
  8
_0-7_注記層１
 62
    7
 10
306.25
 20
243
 40
3.5
 41
1
 50
0
  1
累積5年間（リチウムイオン電池使用）
  0
TEXT
  8
_0-7_注記層１
 62
    7
 10
306.25
 20
233
 40
3.5
 41
1
 50
0
  1
35%RH～85％RH
  0
TEXT
  8
_0-7_注記層１
 62
    7
 10
306.25
 20
218
 40
3.5
 41
1
 50
0
  1
1日16回　ON-OFF動作又は、31パルス動作
  0
TEXT
  8
_0-7_注記層１
 62
    7
 10
306.25
 20
203
 40
3.5
 41
1
 50
0
  1
約3VA
  0
TEXT
  8
_0-7_注記層１
 62
    7
 10
363.75
 20
17.25
 40
5
 41
1
 50
0
  1
SSC-502S-001-03
  0
TEXT
  8
_0-7_注記層１
 62
    7
 10
272.5
 20
28
 40
3.5
 41
1
 50
0
  1
2017.10.24
  0
ENDSEC
  0
EOF
