  0
SECTION
  2
HEADER
  9
$ACADVER
  1
AC1009
  9
$INSBASE
 10
0
 20
0
 30
0
  9
$EXTMIN
 10
0
 20
0
  9
$EXTMAX
 10
420
 20
297
  9
$LIMMIN
 10
0
 20
0
  9
$LIMMAX
 10
420
 20
297
  9
$LTSCALE
 40
1
  0
ENDSEC
  0
SECTION
  2
TABLES
  0
TABLE
  2
LTYPE
 70
     9
  0
LTYPE
  2
CONTINUOUS
 70
    64
  3
実線
 72
    65
 73
     0
 40
0.0
  0
LTYPE
  2
DASHED1
 70
    64
  3
--  --  --  --  --  --  --  --  
 72
    65
 73
     2
 40
2.5
 49
1.25
 49
-1.25
  0
LTYPE
  2
DASHED2
 70
    64
  3
----    ----    ----    ----    
 72
    65
 73
     2
 40
5.0
 49
2.5
 49
-2.5
  0
LTYPE
  2
DASHED3
 70
    64
  3
------  ------  ------  ------  
 72
    65
 73
     2
 40
5.0
 49
3.75
 49
-1.25
  0
LTYPE
  2
CENTER1
 70
    64
  3
----- - ----- - ----- - ----- - 
 72
    65
 73
     4
 40
10.0
 49
6.25
 49
-1.25
 49
1.25
 49
-1.25
  0
LTYPE
  2
CENTER2
 70
    64
  3
----------  --  ----------  --  
 72
    65
 73
     4
 40
20.0
 49
12.5
 49
-2.5
 49
2.5
 49
-2.5
  0
LTYPE
  2
PHANTOM1
 70
    64
  3
--- - - --- - - --- - - --- - - 
 72
    65
 73
     6
 40
10.0
 49
3.25
 49
-1.25
 49
1.25
 49
-1.25
 49
1.25
 49
-1.25
  0
LTYPE
  2
PHANTOM2
 70
    64
  3
--------  -  -  --------  -  -  
 72
    65
 73
     6
 40
20.0
 49
10.0
 49
-2.5
 49
1.25
 49
-2.5
 49
1.25
 49
-2.5
  0
LTYPE
  2
DOT
 70
    64
  3
-   -   -   -   -   -   -   -   
 72
    65
 73
     2
 40
2.5
 49
0.625
 49
-1.875
  0
LTYPE
  2
DUMMY
 70
    64
  3
ダミー
 72
    65
 73
     0
 40
0.0
  0
LTYPE
  2
RAND1
 70
    64
  3
ランダム線1
 72
    65
 73
     4
 40
10.0
 49
1.0
 49
-2.0
 49
3.0
 49
-4.0
  0
LTYPE
  2
RAND2
 70
    64
  3
ランダム線2
 72
    65
 73
     4
 40
14.0
 49
2.0
 49
-3.0
 49
4.0
 49
-5.0
  0
LTYPE
  2
RAND3
 70
    64
  3
ランダム線3
 72
    65
 73
     4
 40
18.0
 49
3.0
 49
-4.0
 49
5.0
 49
-6.0
  0
LTYPE
  2
RAND4
 70
    64
  3
ランダム線4
 72
    65
 73
     4
 40
22.0
 49
4.0
 49
-5.0
 49
6.0
 49
-7.0
  0
LTYPE
  2
RAND5
 70
    64
  3
ランダム線5
 72
    65
 73
     4
 40
26.0
 49
5.0
 49
-6.0
 49
7.0
 49
-8.0
  0
LTYPE
  2
LONG1
 70
    64
  3
----------  --  ----------  --  
 72
    65
 73
     4
 40
40.0
 49
32.5
 49
-2.5
 49
2.5
 49
-2.5
  0
LTYPE
  2
LONG2
 70
    64
  3
--------  -  -  --------  -  -  
 72
    65
 73
     6
 40
40.0
 49
30.0
 49
-2.5
 49
1.25
 49
-2.5
 49
1.25
 49
-2.5
  0
LTYPE
  2
LONG3
 70
    64
  3
+++++++++++++++..+++++++++++++++
 72
    65
 73
     2
 40
40.0
 49
37.5
 49
-2.5
  0
LTYPE
  2
LONG4
 70
    64
  3
+++++++++++++++..+++++++++++++++
 72
    65
 73
     2
 40
80.0
 49
75.0
 49
-5.0
  0
LTYPE
  2
LONG5
 70
    64
  3
----------  --  ----------  --  
 72
    65
 73
     4
 40
60.0
 49
37.5
 49
-7.5
 49
7.5
 49
-7.5
  0
LTYPE
  2
dashed
 70
   64
  3
-------   -------------   ------
 72
   65
 73
    2
 40
7.5
 49
6
 49
-1.5
  0
LTYPE
  2
dashed_spaced
 70
   64
  3
----        --------        ----
 72
   65
 73
    2
 40
12
 49
6
 49
-6
  0
LTYPE
  2
long_dashed_dotted
 70
   64
  3
------------- --- --------------
 72
   65
 73
    4
 40
15.25
 49
12
 49
-1.5
 49
0.25
 49
-1.5
  0
LTYPE
  2
long_dashed_double-dotted
 70
   64
  3
----------- --- --- ------------
 72
   65
 73
    6
 40
17
 49
12
 49
-1.5
 49
0.25
 49
-1.5
 49
0.25
 49
-1.5
  0
LTYPE
  2
long_dashed_triplicate-dotted
 70
   64
  3
--------- --- --- --- ----------
 72
   65
 73
    8
 40
18.75
 49
12
 49
-1.5
 49
0.25
 49
-1.5
 49
0.25
 49
-1.5
 49
0.25
 49
-1.5
  0
LTYPE
  2
dotted
 70
   64
  3
   -       -       -       -    
 72
   65
 73
    2
 40
1.75
 49
0.25
 49
-1.5
  0
LTYPE
  2
chain
 70
   64
  3
-------------- -- --------------
 72
   65
 73
    4
 40
18.5
 49
12
 49
-1.5
 49
3.5
 49
-1.5
  0
LTYPE
  2
chain_double_dash
 70
   64
  3
------------ -- -- -------------
 72
   65
 73
    6
 40
23.5
 49
12
 49
-1.5
 49
3.5
 49
-1.5
 49
3.5
 49
-1.5
  0
LTYPE
  2
dashed_dotted
 70
   64
  3
-----------     -     ----------
 72
   65
 73
    4
 40
9.25
 49
6
 49
-1.5
 49
0.25
 49
-1.5
  0
LTYPE
  2
double-dashed_dotted
 70
   64
  3
------   -----------   -   -----
 72
   65
 73
    6
 40
16.75
 49
6
 49
-1.5
 49
6
 49
-1.5
 49
0.25
 49
-1.5
  0
LTYPE
  2
dashed_double-dotted
 70
   64
  3
---------    -    -    ---------
 72
   65
 73
    6
 40
11
 49
6
 49
-1.5
 49
0.25
 49
-1.5
 49
0.25
 49
-1.5
  0
LTYPE
  2
double-dashed_double-dotted
 70
   64
  3
-----   ---------   -   -   ----
 72
   65
 73
    8
 40
18.5
 49
6
 49
-1.5
 49
6
 49
-1.5
 49
0.25
 49
-1.5
 49
0.25
 49
-1.5
  0
LTYPE
  2
dashed_triplicate-dotted
 70
   64
  3
-------    -    -    -    ------
 72
   65
 73
    8
 40
12.75
 49
6
 49
-1.5
 49
0.25
 49
-1.5
 49
0.25
 49
-1.5
 49
0.25
 49
-1.5
  0
LTYPE
  2
double-dashed_triplicate-dotted
 70
   64
  3
-----  ---------  -  -  -  -----
 72
   65
 73
   10
 40
20.25
 49
6
 49
-1.5
 49
6
 49
-1.5
 49
0.25
 49
-1.5
 49
0.25
 49
-1.5
 49
0.25
 49
-1.5
  0
LTYPE
  2
undefined
 70
   64
  3
--------------------------------
 72
   65
 73
    0
 40
0
  0
LTYPE
  2
DASHED
 70
   64
  3
----        --------        ----
 72
   65
 73
    2
 40
4
 49
2
 49
-2
  0
LTYPE
  2
DOT_18
 70
   64
  3
---           -----           --
 72
   65
 73
    2
 40
3
 49
1
 49
-2
  0
LTYPE
  2
DASHDOT
 70
   64
  3
---------    ------    ---------
 72
   65
 73
    4
 40
17
 49
10
 49
-2
 49
3
 49
-2
  0
LTYPE
  2
DIVIDE
 70
   64
  3
-----------  --  --  -----------
 72
   65
 73
    6
 40
30
 49
20
 49
-2
 49
2
 49
-2
 49
2
 49
-2
  0
LTYPE
  2
CENTER
 70
   64
  3
-------------  --  -------------
 72
   65
 73
    4
 40
13
 49
10
 49
-1
 49
1
 49
-1
  0
ENDTAB
  0
TABLE
  2
STYLE
  5
3
100
AcDbSymbolTable
 70
     1
  0
STYLE
  5
10
100
AcDbSymbolTableRecord
100
AcDbTextStyleTableRecord
  2
STANDARD
 70
     0
 40
0.0
 41
1.0
 50
0.0
 71
     0
 42
0.2
  3
txt
  4
bigfont.shx
  0
STYLE
  5
26
100
AcDbSymbolTableRecord
100
AcDbTextStyleTableRecord
  2
TATEGAKI
 70
    68
 40
0.0
 41
1.0
 50
0.0
 71
     0
 42
1.0
  3
txt
  4
bigfont.shx
  0
ENDTAB
  0
TABLE
  2
LAYER
 70
    5
  0
LAYER
  2
_0-0_BaseLayer
 70
   64
 62
    7
  6
CONTINUOUS
  0
LAYER
  2
_0-1_作画層１
 70
   64
 62
    7
  6
CONTINUOUS
  0
LAYER
  2
_0-7_注記層１
 70
   64
 62
    7
  6
CONTINUOUS
  0
LAYER
  2
_0-9_寸法線層１
 70
   64
 62
    7
  6
CONTINUOUS
  0
LAYER
  2
ADD_LINE
 70
   64
 62
    7
  6
CONTINUOUS
  0
ENDTAB
  0
ENDSEC
  0
SECTION
  2
BLOCKS
  0
BLOCK
  2
-000-_D0
 70
   64
 10
0
 20
0
 30
0
  0
LINE
  8
_0-9_寸法線層１
  6
CONTINUOUS
 62
    7
 10
35
 20
256.85000000000002
 11
35
 21
129.14999999999998
  0
TEXT
  8
_0-9_寸法線層１
 62
    7
 10
34
 20
188.86177143234622
 40
3
 41
1
 50
90
  1
127.7
  0
LINE
  8
_0-9_寸法線層１
  6
CONTINUOUS
 62
    7
 10
48.5
 20
256.85000000000002
 11
33
 21
256.85000000000002
  0
LINE
  8
_0-9_寸法線層１
  6
CONTINUOUS
 62
    7
 10
48.448683298050511
 20
129.14999999999998
 11
33
 21
129.14999999999998
  0
ENDBLK
  0
BLOCK
  2
-001-_D1
 70
   64
 10
0
 20
0
 30
0
  0
LINE
  8
_0-9_寸法線層１
  6
CONTINUOUS
 62
    7
 10
215.59060395558126
 20
270
 11
206.09059104123537
 21
270
  0
TEXT
  8
_0-9_寸法線層１
 62
    7
 10
208.20236893075455
 20
271
 40
3
 41
1
 50
0
  1
9.5
  0
LINE
  8
_0-9_寸法線層１
  6
CONTINUOUS
 62
    7
 10
215.59060395558126
 20
233.68327963352203
 11
215.59060395558126
 21
272
  0
LINE
  8
_0-9_寸法線層１
  6
CONTINUOUS
 62
    7
 10
206.09059104123537
 20
257.35000002384186
 11
206.09059104123537
 21
272
  0
ENDBLK
  0
BLOCK
  2
-002-_D2
 70
   64
 10
0
 20
0
 30
0
  0
LINE
  8
_0-9_寸法線層１
  6
CONTINUOUS
 62
    7
 10
206.09059104123537
 20
270
 11
144.59059446254071
 21
270
  0
TEXT
  8
_0-9_寸法線層１
 62
    7
 10
173.45236418423426
 20
271
 40
3
 41
1
 50
0
  1
62
  0
LINE
  8
_0-9_寸法線層１
  6
CONTINUOUS
 62
    7
 10
206.09059104123537
 20
257.35000002384186
 11
206.09059104123537
 21
272
  0
LINE
  8
_0-9_寸法線層１
  6
CONTINUOUS
 62
    7
 10
144.59059446254071
 20
230.5
 11
144.59059446254071
 21
272
  0
ENDBLK
  0
BLOCK
  2
-003-_D3
 70
   64
 10
0
 20
0
 30
0
  0
LINE
  8
_0-9_寸法線層１
  6
CONTINUOUS
 62
    7
 10
135
 20
230
 11
135
 21
155
  0
TEXT
  8
_0-9_寸法線層１
 62
    7
 10
134
 20
190.61177143234622
 40
3
 41
1
 50
90
  1
75
  0
LINE
  8
_0-9_寸法線層１
  6
CONTINUOUS
 62
    7
 10
144.5
 20
230
 11
133
 21
230
  0
LINE
  8
_0-9_寸法線層１
  6
CONTINUOUS
 62
    7
 10
144.5
 20
155
 11
133
 21
155
  0
ENDBLK
  0
BLOCK
  2
-004-_D4
 70
   64
 10
0
 20
0
 30
0
  0
LINE
  8
_0-9_寸法線層１
  6
CONTINUOUS
 62
    7
 10
120
 20
270
 11
45
 21
270
  0
TEXT
  8
_0-9_寸法線層１
 62
    7
 10
80.611771432346217
 20
271
 40
3
 41
1
 50
0
  1
75
  0
LINE
  8
_0-9_寸法線層１
  6
CONTINUOUS
 62
    7
 10
120
 20
230.5
 11
120
 21
272
  0
LINE
  8
_0-9_寸法線層１
  6
CONTINUOUS
 62
    7
 10
45
 20
230.5
 11
45
 21
272
  0
ENDBLK
  0
BLOCK
  2
-005-_D5
 70
   64
 10
0
 20
0
 30
0
  0
LINE
  8
_0-9_寸法線層１
  6
CONTINUOUS
 62
    7
 10
46.5
 20
265
 11
118.5
 21
265
  0
TEXT
  8
_0-9_寸法線層１
 62
    7
 10
80.611771432346217
 20
266
 40
3
 41
1
 50
0
  1
72
  0
LINE
  8
_0-9_寸法線層１
  6
CONTINUOUS
 62
    7
 10
46.5
 20
229
 11
46.5
 21
267
  0
LINE
  8
_0-9_寸法線層１
  6
CONTINUOUS
 62
    7
 10
118.5
 20
229
 11
118.5
 21
267
  0
ENDBLK
  0
BLOCK
  2
-006-_D6
 70
   64
 10
0
 20
0
 30
0
  0
LINE
  8
_0-9_寸法線層１
  6
CONTINUOUS
 62
    7
 10
362.5
 20
152.5
 11
362.5
 21
63.5
  0
TEXT
  8
_0-9_寸法線層１
 62
    7
 10
361.5
 20
102.36177143234622
 40
3
 41
1
 50
90
  1
89±0.2
  0
LINE
  8
_0-9_寸法線層１
  6
CONTINUOUS
 62
    7
 10
355.5
 20
152.5
 11
364.5
 21
152.5
  0
LINE
  8
_0-9_寸法線層１
  6
CONTINUOUS
 62
    7
 10
355.5
 20
63.5
 11
364.5
 21
63.5
  0
ENDBLK
  0
BLOCK
  2
-007-_D7
 70
   64
 10
0
 20
0
 30
0
  0
LINE
  8
_0-9_寸法線層１
  6
CONTINUOUS
 62
    7
 10
292.5
 20
52.5
 11
348.5
 21
52.5
  0
TEXT
  8
_0-9_寸法線層１
 62
    7
 10
314.11177143234625
 20
53.5
 40
3
 41
1
 50
0
  1
56±0.15
  0
LINE
  8
_0-9_寸法線層１
  6
CONTINUOUS
 62
    7
 10
292.5
 20
54.5
 11
292.5
 21
50.5
  0
LINE
  8
_0-9_寸法線層１
  6
CONTINUOUS
 62
    7
 10
348.5
 20
54.5
 11
348.5
 21
50.5
  0
ENDBLK
  0
ENDSEC
  0
SECTION
  2
ENTITIES
  0
TEXT
  8
_0-7_注記層１
 62
    7
 10
271.25
 20
263
 40
3.5
 41
1
 50
0
  1
型　　 　番
  0
TEXT
  8
_0-7_注記層１
 62
    7
 10
271.25
 20
253
 40
3.5
 41
1
 50
0
  1
許容電圧変動範囲
  0
TEXT
  8
_0-7_注記層１
 62
    7
 10
271.25
 20
248
 40
3.5
 41
1
 50
0
  1
周　　波　　数
  0
TEXT
  8
_0-7_注記層１
 62
    7
 10
271.25
 20
243
 40
3.5
 41
1
 50
0
  1
停　電　補　償
  0
TEXT
  8
_0-7_注記層１
 62
    7
 10
271.25
 20
258
 40
3.5
 41
1
 50
0
  1
電  源  電  圧
  0
TEXT
  8
_0-7_注記層１
 62
    7
 10
306.25
 20
248
 40
3.5
 41
1
 50
0
  1
50-60Hz共用
  0
LINE
  8
_0-1_作画層１
  6
CONTINUOUS
 62
    7
 10
371.25
 20
267.25
 11
268.75
 21
267.25
  0
LINE
  8
_0-1_作画層１
  6
CONTINUOUS
 62
    7
 10
371.25
 20
262.25
 11
268.75
 21
262.25
  0
LINE
  8
_0-1_作画層１
  6
CONTINUOUS
 62
    7
 10
371.25
 20
257.25
 11
268.75
 21
257.25
  0
LINE
  8
_0-1_作画層１
  6
CONTINUOUS
 62
    7
 10
371.25
 20
252.25
 11
268.75
 21
252.25
  0
LINE
  8
_0-1_作画層１
  6
CONTINUOUS
 62
    7
 10
371.25
 20
247.25
 11
268.75
 21
247.25
  0
LINE
  8
_0-1_作画層１
  6
CONTINUOUS
 62
    7
 10
371.25
 20
242.25
 11
268.75
 21
242.25
  0
LINE
  8
_0-1_作画層１
  6
CONTINUOUS
 62
    7
 10
371.25
 20
237.25
 11
268.75
 21
237.25
  0
TEXT
  8
_0-7_注記層１
 62
    7
 10
268.75
 20
272.25
 40
5
 41
1
 50
0
  1
規　格
  0
LINE
  8
_0-1_作画層１
  6
CONTINUOUS
 62
    7
 10
266.25
 20
272.25
 11
286.25
 21
272.25
  0
TEXT
  8
_0-7_注記層１
 62
    7
 10
301.125
 20
28
 40
3.5
 41
1
 50
0
  1
1/1
  0
TEXT
  8
_0-7_注記層１
 62
    7
 10
335.25
 20
30.5
 40
3.5
 41
1
 50
0
  1
承認
  0
TEXT
  8
_0-7_注記層１
 62
    7
 10
273.75
 20
17.25
 40
5
 41
1
 50
0
  1
スナオ電気株式会社
  0
LINE
  8
_0-1_作画層１
  6
CONTINUOUS
 62
    7
 10
268.75
 20
34.75
 11
268.75
 21
14.75
  0
LINE
  8
_0-1_作画層１
  6
CONTINUOUS
 62
    7
 10
293.75
 20
34.75
 11
293.75
 21
24.75
  0
LINE
  8
_0-1_作画層１
  6
CONTINUOUS
 62
    7
 10
313.75
 20
34.75
 11
313.75
 21
24.75
  0
LINE
  8
_0-1_作画層１
  6
CONTINUOUS
 62
    7
 10
333.75
 20
34.75
 11
333.75
 21
24.75
  0
LINE
  8
_0-1_作画層１
  6
CONTINUOUS
 62
    7
 10
358.75
 20
14.75
 11
358.75
 21
34.75
  0
LINE
  8
_0-1_作画層１
  6
CONTINUOUS
 62
    7
 10
413.75
 20
292.25
 11
16.25
 21
292.25
  0
LINE
  8
_0-1_作画層１
  6
CONTINUOUS
 62
    7
 10
16.25
 20
14.75
 11
16.25
 21
292.25
  0
LINE
  8
_0-1_作画層１
  6
CONTINUOUS
 62
    7
 10
413.75
 20
14.75
 11
16.25
 21
14.75
  0
LINE
  8
_0-1_作画層１
  6
CONTINUOUS
 62
    7
 10
413.75
 20
34.75
 11
268.75
 21
34.75
  0
LINE
  8
_0-1_作画層１
  6
CONTINUOUS
 62
    7
 10
413.75
 20
24.75
 11
268.75
 21
24.75
  0
LINE
  8
_0-1_作画層１
  6
CONTINUOUS
 62
    7
 10
413.75
 20
14.75
 11
413.75
 21
292.25
  0
TEXT
  8
_0-7_注記層１
 62
    7
 10
271.25
 20
238
 40
3.5
 41
1
 50
0
  1
使 用 周 囲 温 度
  0
TEXT
  8
_0-7_注記層１
 62
    7
 10
271.25
 20
233
 40
3.5
 41
1
 50
0
  1
使 用 周 囲 湿 度
  0
TEXT
  8
_0-7_注記層１
 62
    7
 10
271.25
 20
228
 40
3.5
 41
1
 50
0
  1
接　点　定　格
  0
TEXT
  8
_0-7_注記層１
 62
    7
 10
271.25
 20
223
 40
3.5
 41
1
 50
0
  1
出　　　　　力
  0
TEXT
  8
_0-7_注記層１
 62
    7
 10
271.25
 20
218
 40
3.5
 41
1
 50
0
  1
設　定　回　数
  0
TEXT
  8
_0-7_注記層１
 62
    7
 10
306.25
 20
233
 40
3.5
 41
1
 50
0
  1
35～85％RH
  0
TEXT
  8
_0-7_注記層１
 62
    7
 10
306.25
 20
223
 40
3.5
 41
1
 50
0
  1
接点出力（1a）
  0
LINE
  8
_0-1_作画層１
  6
CONTINUOUS
 62
    7
 10
371.25
 20
237.25
 11
268.75
 21
237.25
  0
LINE
  8
_0-1_作画層１
  6
CONTINUOUS
 62
    7
 10
371.25
 20
232.25
 11
268.75
 21
232.25
  0
LINE
  8
_0-1_作画層１
  6
CONTINUOUS
 62
    7
 10
371.25
 20
227.25
 11
268.75
 21
227.25
  0
LINE
  8
_0-1_作画層１
  6
CONTINUOUS
 62
    7
 10
371.25
 20
222.25
 11
268.75
 21
222.25
  0
TEXT
  8
_0-7_注記層１
 62
    7
 10
306.25
 20
228
 40
3.5
 41
1
 50
0
  1
抵抗負荷　AC250V  10A
  0
TEXT
  8
_0-7_注記層１
 62
    7
 10
306.25
 20
238
 40
3.5
 41
1
 50
0
  1
-10℃～50℃
  0
TEXT
  8
_0-7_注記層１
 62
    7
 10
363.75
 20
28
 40
3.5
 41
1
 50
0
  1
年間タイマー
  0
TEXT
  8
_0-7_注記層１
 62
    7
 10
306.25
 20
258
 40
3.5
 41
1
 50
0
  1
AC100-200V（共用）
  0
TEXT
  8
_0-7_注記層１
 62
    7
 10
306.25
 20
253
 40
3.5
 41
1
 50
0
  1
AC85V～AC230V
  0
TEXT
  8
_0-7_注記層１
 62
    7
 10
306.25
 20
243
 40
3.5
 41
1
 50
0
  1
累積5年間（リチウム電池使用）
  0
TEXT
  8
_0-7_注記層１
 62
    7
 10
271.25
 20
208
 40
3.5
 41
1
 50
0
  1
最 小 設 定 時 間
  0
TEXT
  8
_0-7_注記層１
 62
    7
 10
271.25
 20
203
 40
3.5
 41
1
 50
0
  1
時　間　精　度
  0
TEXT
  8
_0-7_注記層１
 62
    7
 10
271.25
 20
198
 40
3.5
 41
1
 50
0
  1
消　費　電　力　
  0
TEXT
  8
_0-7_注記層１
 62
    7
 10
271.25
 20
193
 40
3.5
 41
1
 50
0
  1
重　　　  　量
  0
TEXT
  8
_0-7_注記層１
 62
    7
 10
271.25
 20
188
 40
3.5
 41
1
 50
0
  1
外　形　寸　法
  0
TEXT
  8
_0-7_注記層１
 62
    7
 10
306.25
 20
203
 40
3.5
 41
1
 50
0
  1
±15秒／月（25℃）
  0
LINE
  8
_0-1_作画層１
  6
CONTINUOUS
 62
    7
 10
371.25
 20
207.25
 11
268.75
 21
207.25
  0
LINE
  8
_0-1_作画層１
  6
CONTINUOUS
 62
    7
 10
371.25
 20
202.25
 11
268.75
 21
202.25
  0
LINE
  8
_0-1_作画層１
  6
CONTINUOUS
 62
    7
 10
371.25
 20
197.25
 11
268.75
 21
197.25
  0
LINE
  8
_0-1_作画層１
  6
CONTINUOUS
 62
    7
 10
371.25
 20
192.25
 11
268.75
 21
192.25
  0
LINE
  8
_0-1_作画層１
  6
CONTINUOUS
 62
    7
 10
371.25
 20
187.25
 11
268.75
 21
187.25
  0
TEXT
  8
_0-7_注記層１
 62
    7
 10
271.25
 20
183
 40
3.5
 41
1
 50
0
  1
付　　属　　品
  0
LINE
  8
_0-1_作画層１
  6
CONTINUOUS
 62
    7
 10
371.25
 20
178.5
 11
268.75
 21
178.5
  0
LINE
  8
_0-1_作画層１
  6
CONTINUOUS
 62
    7
 10
268.75
 20
267.25
 11
268.75
 21
178.5
  0
LINE
  8
_0-1_作画層１
  6
CONTINUOUS
 62
    7
 10
303.75
 20
267.25
 11
303.75
 21
178.5
  0
LINE
  8
_0-1_作画層１
  6
CONTINUOUS
 62
    7
 10
371.25
 20
178.5
 11
371.25
 21
267.25
  0
TEXT
  8
_0-7_注記層１
 62
    7
 10
306.25
 20
218
 40
3.5
 41
1
 50
0
  1
30回　ON、OFF動作　
  0
TEXT
  8
_0-7_注記層１
 62
    7
 10
306.25
 20
214.5
 40
3.5
 41
1
 50
0
  1
又は60ﾊﾟﾙｽ（各ﾊﾟﾀｰﾝ毎）
  0
LINE
  8
_0-1_作画層１
  6
CONTINUOUS
 62
    7
 10
371.25
 20
212.25
 11
268.75
 21
212.25
  0
TEXT
  8
_0-7_注記層１
 62
    7
 10
306.25
 20
198
 40
3.5
 41
1
 50
0
  1
約5VA
  0
TEXT
  8
_0-7_注記層１
 62
    7
 10
306.25
 20
193
 40
3.5
 41
1
 50
0
  1
210g
  0
TEXT
  8
_0-7_注記層１
 62
    7
 10
306.25
 20
188
 40
3.5
 41
1
 50
0
  1
H126.7×W72×D71.5
  0
TEXT
  8
_0-7_注記層１
 62
    7
 10
306.25
 20
183
 40
3.5
 41
1
 50
0
  1
前面カバー、DINﾚｰﾙ取付け板、
  0
TEXT
  8
_0-7_注記層１
 62
    7
 10
306.25
 20
179.5
 40
3.5
 41
1
 50
0
  1
取付けビス４本、端子台カバー２個
  0
TEXT
  8
_0-7_注記層１
 62
    7
 10
43.75
 20
279.75
 40
5
 41
1
 50
0
  1
外形寸法
  0
LINE
  8
_0-1_作画層１
  6
CONTINUOUS
 62
    7
 10
41.25
 20
279.75
 11
66.25
 21
279.75
  0
LINE
  8
_0-1_作画層１
  6
CONTINUOUS
 62
    7
 10
171.25
 20
114.75
 11
196.25
 21
114.75
  0
TEXT
  8
_0-7_注記層１
 62
    7
 10
173.75
 20
114.75
 40
5
 41
1
 50
0
  1
端子接続
  0
LINE
  8
_0-1_作画層１
  6
CENTER
 62
    7
 10
68.75
 20
234.75
 11
68.75
 21
242.75
  0
LINE
  8
_0-1_作画層１
  6
CENTER
 62
    7
 10
108.75
 20
234.75
 11
108.75
 21
242.75
  0
LINE
  8
_0-1_作画層１
  6
CONTINUOUS
 62
    7
 10
108.75
 20
242.75
 11
68.75
 21
242.75
  0
LINE
  8
_0-1_作画層１
  6
CONTINUOUS
 62
    7
 10
108.75
 20
240.25
 11
68.75
 21
240.25
  0
LINE
  8
_0-1_作画層１
  6
CONTINUOUS
 62
    7
 10
108.75
 20
238.75
 11
68.75
 21
238.75
  0
LINE
  8
_0-1_作画層１
  6
CENTER
 62
    7
 10
68.75
 20
159.75
 11
68.75
 21
151.75
  0
LINE
  8
_0-1_作画層１
  6
CENTER
 62
    7
 10
108.75
 20
159.75
 11
108.75
 21
151.75
  0
LINE
  8
_0-1_作画層１
  6
CONTINUOUS
 62
    7
 10
108.75
 20
151.75
 11
68.75
 21
151.75
  0
LINE
  8
_0-1_作画層１
  6
CONTINUOUS
 62
    7
 10
108.75
 20
154.25
 11
68.75
 21
154.25
  0
LINE
  8
_0-1_作画層１
  6
CONTINUOUS
 62
    7
 10
108.75
 20
155.75
 11
68.75
 21
155.75
  0
LINE
  8
_0-1_作画層１
  6
CENTER
 62
    7
 10
88.75
 20
267.25
 11
88.75
 21
129.75
  0
LINE
  8
_0-1_作画層１
  6
CONTINUOUS
 62
    7
 10
221.8405902902162
 20
179.74999614258934
 11
217.8405902902162
 21
179.74999614258934
  0
LINE
  8
_0-1_作画層１
  6
CONTINUOUS
 62
    7
 10
219.8405902902162
 20
179.74999618530273
 11
219.84059076705319
 21
181.74999618530273
  0
LINE
  8
_0-1_作画層１
  6
CONTINUOUS
 62
    7
 10
221.1405907670532
 20
181.74999614258934
 11
221.84059060016025
 21
181.04999614258935
  0
LINE
  8
_0-1_作画層１
  6
CONTINUOUS
 62
    7
 10
219.84059076705319
 20
181.74999614258934
 11
221.1405907670532
 21
181.74999614258934
  0
LINE
  8
_0-1_作画層１
  6
CONTINUOUS
 62
    7
 10
221.84059863486337
 20
214.74999614258934
 11
217.84059863486337
 21
214.74999614258934
  0
LINE
  8
_0-1_作画層１
  6
CONTINUOUS
 62
    7
 10
219.8405902902162
 20
214.75000381469727
 11
219.84059076705319
 21
212.75000381469727
  0
LINE
  8
_0-1_作画層１
  6
CONTINUOUS
 62
    7
 10
221.1405907670532
 20
212.75000385741066
 11
221.84059060016025
 21
213.45000385741065
  0
LINE
  8
_0-1_作画層１
  6
CONTINUOUS
 62
    7
 10
219.84059076705319
 20
212.75000385741066
 11
221.1405907670532
 21
212.75000385741066
  0
LINE
  8
_0-1_作画層１
  6
CONTINUOUS
 62
    7
 10
221.84059863486337
 20
219.74999614258934
 11
217.84059863486337
 21
219.74999614258934
  0
LINE
  8
_0-1_作画層１
  6
CONTINUOUS
 62
    7
 10
194.64059104123538
 20
261.60000000000002
 11
212.34059104123537
 21
261.60000000000002
  0
LINE
  8
_0-1_作画層１
  6
CONTINUOUS
 62
    7
 10
194.64059833684027
 20
231.00000381469727
 11
194.64059104123538
 21
261.60000002384186
  0
LINE
  8
_0-1_作画層１
  6
CONTINUOUS
 62
    7
 10
175.34059748252548
 20
235.58326101303101
 11
175.34059681126482
 21
238.39873337745667
  0
LINE
  8
_0-1_作画層１
  6
CONTINUOUS
 62
    7
 10
194.64059684050065
 20
238.27610939565182
 11
175.34059681126482
 21
238.39873336737838
  0
LINE
  8
_0-1_作画層１
  6
CONTINUOUS
 62
    7
 10
194.64059804752202
 20
232.21349289332679
 11
175.34059748252548
 21
235.58326110839431
  0
LINE
  8
_0-1_作画層１
  6
CONTINUOUS
 62
    7
 10
193.25
 20
236.25
 11
193.25
 21
233.25
  0
ARC
  8
_0-1_作画層１
  6
CONTINUOUS
 62
    7
 10
194.24999999999997
 20
233.24999999999997
 40
0.9999999999999715
 50
179.99999999999838
 51
270.00000000000159
  0
LINE
  8
_0-1_作画層１
  6
CONTINUOUS
 62
    7
 10
194.6405968467256
 20
237.25
 11
194.25
 21
237.25
  0
LINE
  8
_0-1_作画層１
  6
CONTINUOUS
 62
    7
 10
194.6405968467256
 20
237.25
 11
194.25
 21
237.25
  0
LINE
  8
_0-1_作画層１
  6
CONTINUOUS
 62
    7
 10
194.64059803881807
 20
232.25
 11
194.25
 21
232.25
  0
LINE
  8
_0-1_作画層１
  6
CONTINUOUS
 62
    7
 10
217.84060590662821
 20
245.25
 11
217.84059982695678
 21
219.75000021681782
  0
LINE
  8
_0-1_作画層１
  6
CONTINUOUS
 62
    7
 10
217.84060590662821
 20
245.25
 11
212.3405949393777
 21
245.25
  0
LINE
  8
_0-1_作画層１
  6
CONTINUOUS
 62
    7
 10
217.84060590662821
 20
245.25
 11
212.3405949393777
 21
245.25
  0
LINE
  8
_0-1_作画層１
  6
CONTINUOUS
 62
    7
 10
220.6797069075769
 20
244.25
 11
217.84060566820972
 21
244.25
  0
LINE
  8
_0-1_作画層１
  6
CONTINUOUS
 62
    7
 10
220.6797069075769
 20
244.25
 11
217.84060566820972
 21
244.25
  0
LINE
  8
_0-1_作画層１
  6
CONTINUOUS
 62
    7
 10
221.84060395558126
 20
237.93327963352203
 11
221.84060979284229
 21
213.45002317428589
  0
LINE
  8
_0-1_作画層１
  6
CONTINUOUS
 62
    7
 10
220.6797069075769
 20
244.25
 11
221.84060395558126
 21
237.93327959226096
  0
LINE
  8
_0-1_作画層１
  6
CONTINUOUS
 62
    7
 10
217.84060590662821
 20
149.25
 11
212.3405949393777
 21
149.25
  0
LINE
  8
_0-1_作画層１
  6
CONTINUOUS
 62
    7
 10
217.84059017100788
 20
149.25
 11
217.84060578741807
 21
214.74999618530273
  0
LINE
  8
_0-1_作画層１
  6
CONTINUOUS
 62
    7
 10
221.84059517779619
 20
150.25
 11
221.84060250916565
 21
181.00000381469727
  0
LINE
  8
_0-1_作画層１
  6
CONTINUOUS
 62
    7
 10
221.84059517779619
 20
150.25
 11
217.84060566820972
 21
150.25
  0
LINE
  8
_0-1_作画層１
  6
CONTINUOUS
 62
    7
 10
194.64059104123538
 20
132.89999999999998
 11
212.34059104123537
 21
132.89999999999998
  0
LINE
  8
_0-1_作画層１
  6
CONTINUOUS
 62
    7
 10
194.64059833684027
 20
163.49999618530273
 11
194.64059104123538
 21
132.89999997615814
  0
LINE
  8
_0-1_作画層１
  6
CONTINUOUS
 62
    7
 10
175.34059748252548
 20
158.91673898696899
 11
175.34059681126482
 21
156.10126662254333
  0
LINE
  8
_0-1_作画層１
  6
CONTINUOUS
 62
    7
 10
194.64059684050065
 20
156.22389060434818
 11
175.34059681126482
 21
156.10126663262162
  0
LINE
  8
_0-1_作画層１
  6
CONTINUOUS
 62
    7
 10
194.64059804752202
 20
162.28650710667321
 11
175.34059748252548
 21
158.91673889160569
  0
LINE
  8
_0-1_作画層１
  6
CONTINUOUS
 62
    7
 10
193.25
 20
158.25
 11
193.25
 21
161.25
  0
ARC
  8
_0-1_作画層１
  6
CONTINUOUS
 62
    7
 10
194.24999999999997
 20
161.25000000000003
 40
0.9999999999999715
 50
89.99999999999838
 51
180.00000000000162
  0
LINE
  8
_0-1_作画層１
  6
CONTINUOUS
 62
    7
 10
194.6405968467256
 20
157.25
 11
194.25
 21
157.25
  0
LINE
  8
_0-1_作画層１
  6
CONTINUOUS
 62
    7
 10
194.6405968467256
 20
157.25
 11
194.25
 21
157.25
  0
LINE
  8
_0-1_作画層１
  6
CONTINUOUS
 62
    7
 10
194.64059803881807
 20
162.25
 11
194.25
 21
162.25
  0
LINE
  8
_0-1_作画層１
  6
CONTINUOUS
 62
    7
 10
212.34062172569503
 20
132.89999997615814
 11
212.34059104123537
 21
261.60000002384186
  0
LINE
  8
_0-1_作画層１
  6
CONTINUOUS
 62
    7
 10
163.34059446254071
 20
161.25
 11
162.84059446254071
 21
161.25
  0
LINE
  8
_0-1_作画層１
  6
CONTINUOUS
 62
    7
 10
163.34059446254071
 20
163.4999999572866
 11
212.3406144300892
 21
163.4999999572866
  0
LINE
  8
_0-1_作画層１
  6
CONTINUOUS
 62
    7
 10
163.34059446254071
 20
231.00000377198387
 11
212.34059833684026
 21
231.00000377198387
  0
LINE
  8
_0-1_作画層１
  6
CONTINUOUS
 62
    7
 10
163.34060495295427
 20
205.25
 11
158.34059446254071
 21
205.25
  0
ARC
  8
_0-1_作画層１
  6
CONTINUOUS
 62
    7
 10
158.34059446254074
 20
202.24999999999997
 40
3.0000000000000284
 50
90.00000000000054
 51
179.99999999999943
  0
LINE
  8
_0-1_作画層１
  6
CONTINUOUS
 62
    7
 10
155.34059446254071
 20
202.25
 11
155.34059446254071
 21
192.25
  0
LINE
  8
_0-1_作画層１
  6
CONTINUOUS
 62
    7
 10
163.34060495295427
 20
189.25
 11
158.34059446254071
 21
189.25
  0
ARC
  8
_0-1_作画層１
  6
CONTINUOUS
 62
    7
 10
158.34059446254074
 20
192.25000000000003
 40
3.0000000000000284
 50
180.00000000000057
 51
269.99999999999943
  0
LINE
  8
_0-1_作画層１
  6
CONTINUOUS
 62
    7
 10
163.34061198629973
 20
234.75
 11
150.84059446254071
 21
234.75
  0
LINE
  8
_0-1_作画層１
  6
CONTINUOUS
 62
    7
 10
150.84059446254071
 20
159.75
 11
150.84059446254071
 21
234.75
  0
LINE
  8
_0-1_作画層１
  6
CONTINUOUS
 62
    7
 10
150.84059410491298
 20
159.75
 11
150.84061198629973
 21
234.75
  0
LINE
  8
_0-1_作画層１
  6
CONTINUOUS
 62
    7
 10
163.34059410491295
 20
159.75
 11
150.84059446254071
 21
159.75
  0
LINE
  8
_0-1_作画層１
  6
CONTINUOUS
 62
    7
 10
163.34059410491298
 20
159.75
 11
163.34061198629973
 21
234.75
  0
LINE
  8
_0-1_作画層１
  6
CONTINUOUS
 62
    7
 10
157.84059446254071
 20
219.75
 11
163.34061162867201
 21
219.75
  0
LINE
  8
_0-1_作画層１
  6
CONTINUOUS
 62
    7
 10
157.84059446254071
 20
215.75
 11
163.34061162867201
 21
215.75
  0
LINE
  8
_0-1_作画層１
  6
CONTINUOUS
 62
    7
 10
162.84059446254071
 20
215.75
 11
162.84059446254071
 21
219.75
  0
LINE
  8
_0-1_作画層１
  6
CONTINUOUS
 62
    7
 10
157.84059446254071
 20
174.75
 11
163.34061162867201
 21
174.75
  0
LINE
  8
_0-1_作画層１
  6
CONTINUOUS
 62
    7
 10
157.84059446254071
 20
178.75
 11
163.34061162867201
 21
178.75
  0
LINE
  8
_0-1_作画層１
  6
CONTINUOUS
 62
    7
 10
162.84059446254071
 20
178.75
 11
162.84059446254071
 21
174.75
  0
LINE
  8
_0-1_作画層１
  6
CONTINUOUS
 62
    7
 10
157.84059446254071
 20
232.25
 11
153.19416486514046
 21
232.25
  0
LINE
  8
_0-1_作画層１
  6
CONTINUOUS
 62
    7
 10
153.19416486514046
 20
232.25
 11
153.19414817584615
 21
162.25
  0
LINE
  8
_0-1_作画層１
  6
CONTINUOUS
 62
    7
 10
157.84059446254071
 20
233.5
 11
163.34061198629973
 21
233.5
  0
LINE
  8
_0-1_作画層１
  6
CONTINUOUS
 62
    7
 10
157.84059446254071
 20
161
 11
163.34061198629973
 21
161
  0
LINE
  8
_0-1_作画層１
  6
CONTINUOUS
 62
    7
 10
157.84059446254071
 20
161
 11
157.84059446254071
 21
233.5
  0
LINE
  8
_0-1_作画層１
  6
CONTINUOUS
 62
    7
 10
157.84059446254071
 20
162.25
 11
153.19414817584615
 21
162.25
  0
LINE
  8
_0-1_作画層１
  6
CENTER
 62
    7
 10
88.75
 20
32.159405537459293
 11
88.75
 21
122.25
  0
LINE
  8
_0-1_作画層１
  6
CONTINUOUS
 62
    7
 10
68.75
 20
88.659388848165037
 11
108.75
 21
88.65939838490462
  0
LINE
  8
_0-1_作画層１
  6
CONTINUOUS
 62
    7
 10
68.75
 20
88.659388848165037
 11
68.75
 21
68.659388848165037
  0
LINE
  8
_0-1_作画層１
  6
CONTINUOUS
 62
    7
 10
108.75
 20
88.65939838490462
 11
108.75
 21
68.65939838490462
  0
LINE
  8
_0-1_作画層１
  6
CONTINUOUS
 62
    7
 10
66.999999957286605
 20
51.159385569910796
 11
67.952387253786696
 21
59.916240656803993
  0
ARC
  8
_0-1_作画層１
  6
CONTINUOUS
 62
    7
 10
74.911351082070155
 20
59.159390317144897
 40
6.9999999999999547
 50
90.000013660372872
 51
173.79296174616653
  0
LINE
  8
_0-1_作画層１
  6
CONTINUOUS
 62
    7
 10
74.911349413140755
 20
66.159390317144656
 11
75.088647205467311
 21
66.159390359415724
  0
LINE
  8
_0-1_作画層１
  6
CONTINUOUS
 62
    7
 10
82.999999957286605
 20
51.159385569910796
 11
82.047612706651449
 21
59.91624066256108
  0
ARC
  8
_0-1_作画層１
  6
CONTINUOUS
 62
    7
 10
75.088648874396767
 20
59.159390359415937
 40
6.9999999999999787
 50
6.2070379532002287
 51
90.000013660373455
  0
LINE
  8
_0-1_作画層１
  6
CONTINUOUS
 62
    7
 10
67.999999957286605
 20
51.159385569910796
 11
68.892128077313373
 21
59.362179427751869
  0
ARC
  8
_0-1_作画層１
  6
CONTINUOUS
 62
    7
 10
75.354023060719499
 20
58.659389826639796
 40
6.5000000000000249
 50
90.000013660373455
 51
173.79296174616616
  0
LINE
  8
_0-1_作画層１
  6
CONTINUOUS
 62
    7
 10
81.999999957286605
 20
51.159385569910796
 11
81.107871902856658
 21
59.36217922503478
  0
LINE
  8
_0-1_作画層１
  6
CONTINUOUS
 62
    7
 10
75.354021510999274
 20
65.159389826639639
 11
74.645975366042819
 21
65.159389657828342
  0
ARC
  8
_0-1_作画層１
  6
CONTINUOUS
 62
    7
 10
74.645976915763072
 20
58.659389657828626
 40
6.4999999999999121
 50
6.2070379531999631
 51
90.000013660373838
  0
LINE
  8
_0-1_作画層１
  6
CONTINUOUS
 62
    7
 10
81.609488138947427
 20
54.75
 11
82.609488138947427
 21
54.75
  0
LINE
  8
_0-1_作画層１
  6
CONTINUOUS
 62
    7
 10
81.337590511157941
 20
57.25
 11
82.337590511157941
 21
57.25
  0
LINE
  8
_0-1_作画層１
  6
CONTINUOUS
 62
    7
 10
67.662409435750988
 20
57.25
 11
68.662409435750988
 21
57.25
  0
LINE
  8
_0-1_作画層１
  6
CONTINUOUS
 62
    7
 10
67.390511794688734
 20
54.75
 11
68.390511794688734
 21
54.75
  0
LINE
  8
_0-1_作画層１
  6
CONTINUOUS
 62
    7
 10
73.75
 20
66.062379790132226
 11
73.75
 21
64.958366729334429
  0
LINE
  8
_0-1_作画層１
  6
CONTINUOUS
 62
    7
 10
76.25
 20
66.062379825079333
 11
76.25
 21
64.958366554534464
  0
LINE
  8
_0-1_作画層１
  6
CONTINUOUS
 62
    7
 10
110.5000000427134
 20
51.159385569910796
 11
109.5476127462133
 21
59.916240656803993
  0
ARC
  8
_0-1_作画層１
  6
CONTINUOUS
 62
    7
 10
102.58864891792987
 20
59.159390317144897
 40
6.9999999999999476
 50
6.2070382538334874
 51
89.999986339627256
  0
LINE
  8
_0-1_作画層１
  6
CONTINUOUS
 62
    7
 10
102.58865058685925
 20
66.159390317144641
 11
102.41135279453269
 21
66.15939035941571
  0
LINE
  8
_0-1_作画層１
  6
CONTINUOUS
 62
    7
 10
94.500000042713395
 20
51.159385569910796
 11
95.452387293348551
 21
59.91624066256108
  0
ARC
  8
_0-1_作画層１
  6
CONTINUOUS
 62
    7
 10
102.4113511256032
 20
59.159390359415966
 40
6.9999999999999503
 50
89.999986339626318
 51
173.79296204679986
  0
LINE
  8
_0-1_作画層１
  6
CONTINUOUS
 62
    7
 10
109.5000000427134
 20
51.159385569910796
 11
108.60787192268663
 21
59.362179427751869
  0
ARC
  8
_0-1_作画層１
  6
CONTINUOUS
 62
    7
 10
102.14597693928057
 20
58.659389826639853
 40
6.4999999999999636
 50
6.2070382538335274
 51
89.999986339627071
  0
LINE
  8
_0-1_作画層１
  6
CONTINUOUS
 62
    7
 10
95.500000042713395
 20
51.159385569910796
 11
96.392128097143342
 21
59.36217922503478
  0
LINE
  8
_0-1_作画層１
  6
CONTINUOUS
 62
    7
 10
102.14597848900073
 20
65.159389826639625
 11
102.85402463395718
 21
65.159389657828342
  0
ARC
  8
_0-1_作画層１
  6
CONTINUOUS
 62
    7
 10
102.85402308423691
 20
58.659389657828626
 40
6.4999999999999121
 50
89.999986339626048
 51
173.79296204680003
  0
LINE
  8
_0-1_作画層１
  6
CONTINUOUS
 62
    7
 10
95.890511861052588
 20
54.75
 11
94.890511861052573
 21
54.75
  0
LINE
  8
_0-1_作画層１
  6
CONTINUOUS
 62
    7
 10
96.162409488842073
 20
57.25
 11
95.162409488842059
 21
57.25
  0
LINE
  8
_0-1_作画層１
  6
CONTINUOUS
 62
    7
 10
109.83759056424901
 20
57.25
 11
108.83759056424901
 21
57.25
  0
LINE
  8
_0-1_作画層１
  6
CONTINUOUS
 62
    7
 10
110.10948820531127
 20
54.75
 11
109.10948820531127
 21
54.75
  0
LINE
  8
_0-1_作画層１
  6
CONTINUOUS
 62
    7
 10
103.75
 20
66.062379790132212
 11
103.75
 21
64.958366729334415
  0
LINE
  8
_0-1_作画層１
  6
CONTINUOUS
 62
    7
 10
101.25
 20
66.062379825079319
 11
101.25
 21
64.95836655453445
  0
LINE
  8
_0-1_作画層１
  6
CONTINUOUS
 62
    7
 10
83.75
 20
51.159392424442387
 11
83.75
 21
41.659378834591053
  0
LINE
  8
_0-1_作画層１
  6
CONTINUOUS
 62
    7
 10
93.75
 20
51.159394808627269
 11
93.75
 21
41.659376450406171
  0
LINE
  8
_0-1_作画層１
  6
CONTINUOUS
 62
    7
 10
84.75
 20
42.659378596172559
 11
84.75
 21
45.659380980357469
  0
LINE
  8
_0-1_作画層１
  6
CONTINUOUS
 62
    7
 10
92.75
 20
42.659376688824651
 11
92.75
 21
45.659379073009546
  0
LINE
  8
_0-1_作画層１
  6
CONTINUOUS
 62
    7
 10
83.75
 20
42.659378834591053
 11
84.75
 21
42.659378596172559
  0
LINE
  8
_0-1_作画層１
  6
CONTINUOUS
 62
    7
 10
93.75
 20
42.659376450406171
 11
92.75
 21
42.659376688824651
  0
LINE
  8
_0-1_作画層１
  6
CONTINUOUS
 62
    7
 10
92.75
 20
45.659379073009546
 11
84.75
 21
45.659380980357469
  0
LINE
  8
_0-1_作画層１
  6
CONTINUOUS
 62
    7
 10
173.03355675269356
 20
166.85627505637692
 11
203.03355675269356
 21
166.85627505637692
  0
LINE
  8
_0-1_作画層１
  6
CONTINUOUS
 62
    7
 10
203.03355675269356
 20
166.85627505637692
 11
203.03355675269356
 21
226.85627505637692
  0
LINE
  8
_0-1_作画層１
  6
CONTINUOUS
 62
    7
 10
203.03355675269356
 20
226.85627505637692
 11
173.03355675269356
 21
226.85627505637692
  0
LINE
  8
_0-1_作画層１
  6
CONTINUOUS
 62
    7
 10
173.03355675269356
 20
226.85627505637692
 11
173.03355675269356
 21
166.85627505637692
  0
LINE
  8
_0-1_作画層１
  6
CONTINUOUS
 62
    7
 10
184.28355675269353
 20
175.60627505637694
 11
184.28355675269353
 21
218.10627505637694
  0
LINE
  8
_0-1_作画層１
  6
CONTINUOUS
 62
    7
 10
184.28355675269353
 20
218.10627505637694
 11
193.03355675269353
 21
218.10627505637694
  0
LINE
  8
_0-1_作画層１
  6
CONTINUOUS
 62
    7
 10
193.03355675269353
 20
218.10627505637694
 11
193.03355675269353
 21
175.60627505637694
  0
LINE
  8
_0-1_作画層１
  6
CONTINUOUS
 62
    7
 10
193.03355675269353
 20
175.60627505637694
 11
184.28355675269353
 21
175.60627505637694
  0
LINE
  8
_0-1_作画層１
  6
CONTINUOUS
 62
    7
 10
188.65855675269353
 20
179.8296246269274
 11
186.00690632324398
 21
182.48127505637694
  0
LINE
  8
_0-1_作画層１
  6
CONTINUOUS
 62
    7
 10
186.00690632324398
 20
182.48127505637694
 11
188.65855675269353
 21
185.13292548582649
  0
LINE
  8
_0-1_作画層１
  6
CONTINUOUS
 62
    7
 10
188.65855675269353
 20
185.13292548582649
 11
191.31020718214307
 21
182.48127505637694
  0
LINE
  8
_0-1_作画層１
  6
CONTINUOUS
 62
    7
 10
191.31020718214307
 20
182.48127505637694
 11
188.65855675269353
 21
179.8296246269274
  0
TEXT
  8
_0-7_注記層１
 62
    7
 10
188.98355675269352
 20
181.53127505637696
 40
1.8999999999999999
 41
1
 50
90
  1
PS
  0
TEXT
  8
_0-7_注記層１
 62
    7
 10
190.88355675269349
 20
182.00627505637695
 40
1.8999999999999999
 41
1
 50
90
  1
E
  0
TEXT
  8
_0-7_注記層１
 62
    7
 10
192.15855675269353
 20
184.10627505637694
 40
2
 41
1
 50
90
  1
JET
  0
TEXT
  8
_0-7_注記層１
 62
    7
 10
196.68355675269353
 20
176.23127505637694
 40
2.2999999999999998
 41
1
 50
90
  1
製造年月
  0
TEXT
  8
_0-7_注記層１
 62
    7
 10
181.48355675269354
 20
170.60627505637694
 40
2.2999999999999998
 41
1
 50
90
  1
操作電圧　　AC100V～200V   　　 50/60Hz共用
  0
TEXT
  8
_0-7_注記層１
 62
    7
 10
187.40855675269353
 20
191.23127505637694
 40
2.5
 41
1
 50
90
  1
スナオ電気株式会社
  0
TEXT
  8
_0-7_注記層１
 62
    7
 10
192.40855675269353
 20
191.23127505637694
 40
2.5
 41
1
 50
90
  1
AC250V     10A
  0
LINE
  8
_0-1_作画層１
  6
CONTINUOUS
 62
    7
 10
66.75
 20
89.65940219960045
 11
66.75
 21
99.15940219960045
  0
LINE
  8
_0-1_作画層１
  6
CONTINUOUS
 62
    7
 10
110.75000000000001
 20
89.659402199600436
 11
110.75000000000001
 21
99.159402199600436
  0
CIRCLE
  8
_0-1_作画層１
  6
CONTINUOUS
 62
    7
 10
83.71875
 20
96.274999999999991
 40
0.5062499999999999
  0
CIRCLE
  8
_0-1_作画層１
  6
CONTINUOUS
 62
    7
 10
87.768749999999997
 20
96.274999999999991
 40
0.5062499999999999
  0
LINE
  8
_0-1_作画層１
  6
CONTINUOUS
 62
    7
 10
83.212499999999991
 20
96.274999999999991
 11
82.199999999999989
 21
96.274999999999991
  0
LINE
  8
_0-1_作画層１
  6
CONTINUOUS
 62
    7
 10
88.274999999999991
 20
96.274999999999991
 11
89.287499999999994
 21
96.274999999999991
  0
LINE
  8
_0-1_作画層１
  6
CONTINUOUS
 62
    7
 10
84.022499999999994
 20
96.679999999999993
 11
87.262500000000003
 21
98.299999999999997
  0
CIRCLE
  8
_0-1_作画層１
  6
CONTINUOUS
 62
    7
 10
82.25
 20
92.25
 40
2
  0
LINE
  8
_0-1_作画層１
  6
CONTINUOUS
 62
    7
 10
82.199999999999989
 20
94.249374902313221
 11
82.199999999999989
 21
96.274999999999991
  0
TEXT
  8
_0-7_注記層１
 62
    7
 10
81.375
 20
90.5
 40
3.5
 41
1
 50
0
  1
2
  0
CIRCLE
  8
_0-1_作画層１
  6
CONTINUOUS
 62
    7
 10
89.25
 20
92.25
 40
2
  0
LINE
  8
_0-1_作画層１
  6
CONTINUOUS
 62
    7
 10
89.287499999999994
 20
94.249648406595526
 11
89.287499999999994
 21
96.274999999999991
  0
TEXT
  8
_0-7_注記層１
 62
    7
 10
88.375
 20
90.5
 40
3.5
 41
1
 50
0
  1
3
  0
CIRCLE
  8
_0-1_作画層１
  6
CONTINUOUS
 62
    7
 10
99.75
 20
92.25
 40
2
  0
LINE
  8
_0-1_作画層１
  6
CONTINUOUS
 62
    7
 10
99.699999999999989
 20
94.249374902313221
 11
99.699999999999989
 21
96.274999999999991
  0
CIRCLE
  8
_0-1_作画層１
  6
CONTINUOUS
 62
    7
 10
106.75
 20
92.25
 40
2
  0
LINE
  8
_0-1_作画層１
  6
CONTINUOUS
 62
    7
 10
106.78749999999999
 20
94.249648406595526
 11
106.78749999999999
 21
96.274999999999991
  0
TEXT
  8
_0-7_注記層１
 62
    7
 10
98.875
 20
90.5
 40
3.5
 41
1
 50
0
  1
4
  0
TEXT
  8
_0-7_注記層１
 62
    7
 10
105.875
 20
90.5
 40
3.5
 41
1
 50
0
  1
5
  0
LINE
  8
_0-1_作画層１
  6
CONTINUOUS
 62
    7
 10
110.75
 20
89.659391709186863
 11
66.75
 21
89.65940219960045
  0
TEXT
  8
_0-7_注記層１
 62
    7
 10
84.75
 20
93
 40
3.5
 41
1
 50
0
  1
1
  0
LINE
  8
_0-1_作画層１
  6
CONTINUOUS
 62
    7
 10
110.75
 20
99.159391709186863
 11
66.75
 21
99.15940219960045
  0
ARC
  8
_0-1_作画層１
  6
CONTINUOUS
 62
    7
 10
194.24999999999997
 20
158.24999999999997
 40
0.9999999999999715
 50
179.99999999999838
 51
270.00000000000159
  0
ARC
  8
_0-1_作画層１
  6
CONTINUOUS
 62
    7
 10
194.24999999999997
 20
236.25000000000003
 40
0.9999999999999715
 50
89.99999999999838
 51
180.00000000000162
  0
LINE
  8
_0-1_作画層１
  6
CENTER
 62
    7
 10
45.25
 20
197.25
 11
135.25
 21
197.25
  0
LINE
  8
_0-1_作画層１
  6
CONTINUOUS
 62
    7
 10
54.25
 20
100.15940553745929
 11
54.25
 21
100.65940553745929
  0
LINE
  8
_0-1_作画層１
  6
CONTINUOUS
 62
    7
 10
56.499999957286605
 20
100.15940553745929
 11
56.499999957286605
 21
51.159385569910796
  0
LINE
  8
_0-1_作画層１
  6
CONTINUOUS
 62
    7
 10
52.75
 20
100.15940589508705
 11
52.75
 21
112.65940553745929
  0
LINE
  8
_0-1_作画層１
  6
CONTINUOUS
 62
    7
 10
54
 20
105.65940553745929
 11
54
 21
100.15938801370027
  0
LINE
  8
_0-1_作画層１
  6
CONTINUOUS
 62
    7
 10
55.25
 20
105.65940553745929
 11
55.25
 21
110.30585182415385
  0
LINE
  8
_0-1_作画層１
  6
CONTINUOUS
 62
    7
 10
57.000010924537122
 20
45.659374602660264
 11
57.000010924537122
 21
51.159385569910782
  0
LINE
  8
_0-1_作画層１
  6
CONTINUOUS
 62
    7
 10
58.000010924537122
 20
41.659385331492288
 11
58.000010924537122
 21
45.659374841078758
  0
LINE
  8
_0-1_作画層１
  6
CONTINUOUS
 62
    7
 10
85.249999620767625
 20
45.659383602960958
 11
57.000010924537122
 21
45.659390338280602
  0
LINE
  8
_0-1_作画層１
  6
CONTINUOUS
 62
    7
 10
58.75
 20
70.25
 11
61.75
 21
70.25
  0
ARC
  8
_0-1_作画層１
  6
CONTINUOUS
 62
    7
 10
61.750000000000028
 20
69.250000000000014
 40
0.9999999999999857
 50
359.9999999999992
 51
90.00000000000118
  0
LINE
  8
_0-1_作画層１
  6
CONTINUOUS
 62
    7
 10
57.75
 20
68.8594031532744
 11
57.75
 21
69.25
  0
LINE
  8
_0-1_作画層１
  6
CONTINUOUS
 62
    7
 10
57.75
 20
68.8594031532744
 11
57.75
 21
69.25
  0
LINE
  8
_0-1_作画層１
  6
CONTINUOUS
 62
    7
 10
62.75
 20
68.859401961181931
 11
62.75
 21
69.25
  0
ARC
  8
_0-1_作画層１
  6
CONTINUOUS
 62
    7
 10
58.75
 20
69.250000000000014
 40
0.9999999999999857
 50
89.999999999998778
 51
180.00000000000082
  0
LINE
  8
_0-1_作画層１
  6
CONTINUOUS
 62
    7
 10
118.50000377198387
 20
100.15940553745929
 11
118.50000377198387
 21
51.15940166315977
  0
LINE
  8
_0-1_作画層１
  6
CONTINUOUS
 62
    7
 10
122.25
 20
100.15938801370027
 11
122.25
 21
112.65940553745929
  0
LINE
  8
_0-1_作画層１
  6
CONTINUOUS
 62
    7
 10
119.75
 20
105.65940553745929
 11
119.75
 21
110.30583513485954
  0
LINE
  8
_0-1_作画層１
  6
CONTINUOUS
 62
    7
 10
121
 20
105.65940553745929
 11
121
 21
100.15938801370027
  0
LINE
  8
_0-1_作画層１
  6
CONTINUOUS
 62
    7
 10
117.99998907546288
 20
45.659374602660264
 11
117.99998907546288
 21
51.159385569910782
  0
LINE
  8
_0-1_作画層１
  6
CONTINUOUS
 62
    7
 10
116.99998907546288
 20
41.659385331492288
 11
116.99998907546288
 21
45.659374841078758
  0
LINE
  8
_0-1_作画層１
  6
CONTINUOUS
 62
    7
 10
116.25
 20
70.25
 11
113.25
 21
70.25
  0
ARC
  8
_0-1_作画層１
  6
CONTINUOUS
 62
    7
 10
113.24999999999999
 20
69.250000000000014
 40
0.9999999999999857
 50
89.99999999999919
 51
180.0000000000008
  0
LINE
  8
_0-1_作画層１
  6
CONTINUOUS
 62
    7
 10
117.25
 20
68.8594031532744
 11
117.25
 21
69.25
  0
LINE
  8
_0-1_作画層１
  6
CONTINUOUS
 62
    7
 10
117.25
 20
68.8594031532744
 11
117.25
 21
69.25
  0
LINE
  8
_0-1_作画層１
  6
CONTINUOUS
 62
    7
 10
112.25
 20
68.859401961181931
 11
112.25
 21
69.25
  0
ARC
  8
_0-1_作画層１
  6
CONTINUOUS
 62
    7
 10
116.25000000000001
 20
69.250000000000014
 40
0.9999999999999857
 50
359.9999999999992
 51
90.000000000000782
  0
LINE
  8
_0-1_作画層１
  6
CONTINUOUS
 62
    7
 10
116.99998907546288
 20
41.659371264806623
 11
58.000010924537122
 21
41.659385331492288
  0
LINE
  8
_0-1_作画層１
  6
CONTINUOUS
 62
    7
 10
117.99998907546288
 20
45.659375437130166
 11
93.750000216813305
 21
45.659381218775906
  0
LINE
  8
_0-1_作画層１
  6
CONTINUOUS
 62
    7
 10
118.50000377198387
 20
51.159400351858068
 11
56.500000000000028
 21
51.159385569910796
  0
LINE
  8
_0-1_作画層１
  6
CONTINUOUS
 62
    7
 10
118.50000377198387
 20
68.659400351858068
 11
56.500000000000028
 21
68.659385569910796
  0
LINE
  8
_0-1_作画層１
  6
CONTINUOUS
 62
    7
 10
122.25
 20
112.65940553745929
 11
52.75
 21
112.65940553745929
  0
LINE
  8
_0-1_作画層１
  6
CONTINUOUS
 62
    7
 10
122.25
 20
112.65938932500197
 11
52.75
 21
112.65940589508702
  0
LINE
  8
_0-1_作画層１
  6
CONTINUOUS
 62
    7
 10
119.75
 20
110.30583644616124
 11
55.25
 21
110.30585182415385
  0
LINE
  8
_0-1_作画層１
  6
CONTINUOUS
 62
    7
 10
121
 20
105.65940553745929
 11
54
 21
105.65940553745929
  0
LINE
  8
_0-1_作画層１
  6
CONTINUOUS
 62
    7
 10
122.25
 20
100.15938932500197
 11
52.75
 21
100.15940589508705
  0
LINE
  8
_0-1_作画層１
  6
CONTINUOUS
 62
    7
 10
55.25
 20
234.75
 11
55.25
 21
261.60000000000002
  0
CIRCLE
  8
_0-1_作画層１
  6
CONTINUOUS
 62
    7
 10
58.75
 20
238.25
 40
2
  0
LINE
  8
_0-1_作画層１
  6
CONTINUOUS
 62
    7
 10
59.25
 20
240
 11
58.25
 21
240
  0
LINE
  8
_0-1_作画層１
  6
CONTINUOUS
 62
    7
 10
58.25
 20
236.5
 11
59.25
 21
236.5
  0
LINE
  8
_0-1_作画層１
  6
CONTINUOUS
 62
    7
 10
57
 20
238.75
 11
57
 21
237.75
  0
LINE
  8
_0-1_作画層１
  6
CONTINUOUS
 62
    7
 10
60.5
 20
237.75
 11
60.5
 21
238.75
  0
ARC
  8
_0-1_作画層１
  6
CONTINUOUS
 62
    7
 10
59.649999999999977
 20
239.14999999999998
 40
0.3999999999999702
 50
179.99999999999591
 51
270.00000000000512
  0
LINE
  8
_0-1_作画層１
  6
CONTINUOUS
 62
    7
 10
60.5
 20
237.75
 11
59.650000000000006
 21
237.75
  0
ARC
  8
_0-1_作画層１
  6
CONTINUOUS
 62
    7
 10
59.649999999999977
 20
237.35000000000002
 40
0.3999999999999773
 50
89.999999999994913
 51
180.00000000000406
  0
LINE
  8
_0-1_作画層１
  6
CONTINUOUS
 62
    7
 10
57
 20
238.75
 11
57.849999999999994
 21
238.75
  0
ARC
  8
_0-1_作画層１
  6
CONTINUOUS
 62
    7
 10
57.850000000000023
 20
239.14999999999998
 40
0.3999999999999773
 50
269.99999999999488
 51
0.0000000000040583
  0
LINE
  8
_0-1_作画層１
  6
CONTINUOUS
 62
    7
 10
59.649999949137367
 20
238.75
 11
60.5
 21
238.75
  0
LINE
  8
_0-1_作画層１
  6
CONTINUOUS
 62
    7
 10
57
 20
237.75
 11
57.849999999999994
 21
237.75
  0
LINE
  8
_0-1_作画層１
  6
CONTINUOUS
 62
    7
 10
58.25
 20
236.5
 11
58.25
 21
237.34999999999999
  0
ARC
  8
_0-1_作画層１
  6
CONTINUOUS
 62
    7
 10
57.850000000000023
 20
237.35000000000002
 40
0.3999999999999773
 50
359.99999999999596
 51
90.000000000005073
  0
LINE
  8
_0-1_作画層１
  6
CONTINUOUS
 62
    7
 10
59.25
 20
239.15000000000001
 11
59.25
 21
240
  0
LINE
  8
_0-1_作画層１
  6
CONTINUOUS
 62
    7
 10
59.25
 20
237.34999999999999
 11
59.25
 21
236.5
  0
LINE
  8
_0-1_作画層１
  6
CONTINUOUS
 62
    7
 10
58.25
 20
239.15000000000001
 11
58.25
 21
240
  0
LINE
  8
_0-1_作画層１
  6
CONTINUOUS
 62
    7
 10
122.25
 20
234.75
 11
122.25
 21
261.60000000000002
  0
CIRCLE
  8
_0-1_作画層１
  6
CONTINUOUS
 62
    7
 10
118.75
 20
238.25
 40
2
  0
LINE
  8
_0-1_作画層１
  6
CONTINUOUS
 62
    7
 10
118.25
 20
240
 11
119.25
 21
240
  0
LINE
  8
_0-1_作画層１
  6
CONTINUOUS
 62
    7
 10
119.25
 20
236.5
 11
118.25
 21
236.5
  0
LINE
  8
_0-1_作画層１
  6
CONTINUOUS
 62
    7
 10
120.5
 20
238.75
 11
120.5
 21
237.75
  0
LINE
  8
_0-1_作画層１
  6
CONTINUOUS
 62
    7
 10
117
 20
237.75
 11
117
 21
238.75
  0
ARC
  8
_0-1_作画層１
  6
CONTINUOUS
 62
    7
 10
117.85000000000002
 20
239.14999999999998
 40
0.3999999999999773
 50
269.99999999999591
 51
0.0000000000041219
  0
LINE
  8
_0-1_作画層１
  6
CONTINUOUS
 62
    7
 10
117
 20
237.75
 11
117.84999999999999
 21
237.75
  0
ARC
  8
_0-1_作画層１
  6
CONTINUOUS
 62
    7
 10
117.85000000000002
 20
237.35000000000002
 40
0.3999999999999773
 50
359.99999999999596
 51
90.000000000004107
  0
LINE
  8
_0-1_作画層１
  6
CONTINUOUS
 62
    7
 10
120.5
 20
238.75
 11
119.65000000000001
 21
238.75
  0
ARC
  8
_0-1_作画層１
  6
CONTINUOUS
 62
    7
 10
119.64999999999998
 20
239.14999999999998
 40
0.3999999999999773
 50
179.99999999999591
 51
270.00000000000409
  0
LINE
  8
_0-1_作画層１
  6
CONTINUOUS
 62
    7
 10
117.85000005086263
 20
238.75
 11
117
 21
238.75
  0
LINE
  8
_0-1_作画層１
  6
CONTINUOUS
 62
    7
 10
120.5
 20
237.75
 11
119.65000000000001
 21
237.75
  0
LINE
  8
_0-1_作画層１
  6
CONTINUOUS
 62
    7
 10
119.25
 20
236.5
 11
119.25
 21
237.34999999999999
  0
ARC
  8
_0-1_作画層１
  6
CONTINUOUS
 62
    7
 10
119.64999999999998
 20
237.35000000000002
 40
0.3999999999999773
 50
89.999999999995921
 51
180.00000000000406
  0
LINE
  8
_0-1_作画層１
  6
CONTINUOUS
 62
    7
 10
118.25
 20
239.15000000000001
 11
118.25
 21
240
  0
LINE
  8
_0-1_作画層１
  6
CONTINUOUS
 62
    7
 10
118.25
 20
237.34999999999999
 11
118.25
 21
236.5
  0
LINE
  8
_0-1_作画層１
  6
CONTINUOUS
 62
    7
 10
119.25
 20
239.15000000000001
 11
119.25
 21
240
  0
LINE
  8
_0-1_作画層１
  6
CONTINUOUS
 62
    7
 10
55.25
 20
261.60000000000002
 11
122.25
 21
261.60000000000002
  0
LINE
  8
_0-1_作画層１
  6
CONTINUOUS
 62
    7
 10
122.25000000000001
 20
133.89999999999998
 11
122.25000000000003
 21
159.75
  0
CIRCLE
  8
_0-1_作画層１
  6
CONTINUOUS
 62
    7
 10
118.75
 20
156.25
 40
2
  0
LINE
  8
_0-1_作画層１
  6
CONTINUOUS
 62
    7
 10
118.25
 20
154.5
 11
119.25
 21
154.5
  0
LINE
  8
_0-1_作画層１
  6
CONTINUOUS
 62
    7
 10
119.25
 20
158
 11
118.25
 21
158
  0
LINE
  8
_0-1_作画層１
  6
CONTINUOUS
 62
    7
 10
120.5
 20
155.75
 11
120.5
 21
156.75
  0
LINE
  8
_0-1_作画層１
  6
CONTINUOUS
 62
    7
 10
117
 20
156.75
 11
117
 21
155.75
  0
ARC
  8
_0-1_作画層１
  6
CONTINUOUS
 62
    7
 10
117.85000000000002
 20
155.35000000000002
 40
0.3999999999999773
 50
359.99999999999596
 51
90.000000000004107
  0
LINE
  8
_0-1_作画層１
  6
CONTINUOUS
 62
    7
 10
117
 20
156.75
 11
117.84999999999999
 21
156.75
  0
ARC
  8
_0-1_作画層１
  6
CONTINUOUS
 62
    7
 10
117.85000000000002
 20
157.14999999999998
 40
0.3999999999999773
 50
269.99999999999591
 51
0.0000000000041219
  0
LINE
  8
_0-1_作画層１
  6
CONTINUOUS
 62
    7
 10
120.5
 20
155.75
 11
119.65000000000001
 21
155.75
  0
ARC
  8
_0-1_作画層１
  6
CONTINUOUS
 62
    7
 10
119.64999999999998
 20
155.35000000000002
 40
0.3999999999999773
 50
89.999999999995921
 51
180.00000000000406
  0
LINE
  8
_0-1_作画層１
  6
CONTINUOUS
 62
    7
 10
117.85000005086263
 20
155.75
 11
117
 21
155.75
  0
LINE
  8
_0-1_作画層１
  6
CONTINUOUS
 62
    7
 10
120.5
 20
156.75
 11
119.65000000000001
 21
156.75
  0
LINE
  8
_0-1_作画層１
  6
CONTINUOUS
 62
    7
 10
119.25
 20
158
 11
119.25
 21
157.15000000000001
  0
ARC
  8
_0-1_作画層１
  6
CONTINUOUS
 62
    7
 10
119.64999999999998
 20
157.14999999999998
 40
0.3999999999999773
 50
179.99999999999591
 51
270.00000000000409
  0
LINE
  8
_0-1_作画層１
  6
CONTINUOUS
 62
    7
 10
118.25
 20
155.34999999999999
 11
118.25
 21
154.5
  0
LINE
  8
_0-1_作画層１
  6
CONTINUOUS
 62
    7
 10
118.25
 20
157.15000000000001
 11
118.25
 21
158
  0
LINE
  8
_0-1_作画層１
  6
CONTINUOUS
 62
    7
 10
119.25
 20
155.34999999999999
 11
119.25
 21
154.5
  0
CIRCLE
  8
_0-1_作画層１
  6
CONTINUOUS
 62
    7
 10
58.698683298050526
 20
156.56622776601685
 40
2
  0
LINE
  8
_0-1_作画層１
  6
CONTINUOUS
 62
    7
 10
59.198683298050526
 20
154.81622776601685
 11
58.198683298050526
 21
154.81622776601685
  0
LINE
  8
_0-1_作画層１
  6
CONTINUOUS
 62
    7
 10
58.198683298050526
 20
158.31622776601685
 11
59.198683298050526
 21
158.31622776601685
  0
LINE
  8
_0-1_作画層１
  6
CONTINUOUS
 62
    7
 10
56.948683298050526
 20
156.06622776601685
 11
56.948683298050526
 21
157.06622776601685
  0
LINE
  8
_0-1_作画層１
  6
CONTINUOUS
 62
    7
 10
60.448683298050526
 20
157.06622776601685
 11
60.448683298050526
 21
156.06622776601685
  0
ARC
  8
_0-1_作画層１
  6
CONTINUOUS
 62
    7
 10
59.598683298050503
 20
155.66622776601687
 40
0.3999999999999702
 50
89.999999999994913
 51
180.00000000000406
  0
LINE
  8
_0-1_作画層１
  6
CONTINUOUS
 62
    7
 10
60.448683298050526
 20
157.06622776601685
 11
59.598683298050531
 21
157.06622776601685
  0
ARC
  8
_0-1_作画層１
  6
CONTINUOUS
 62
    7
 10
59.598683298050503
 20
157.4662277660168
 40
0.3999999999999487
 50
179.99999999999184
 51
270.00000000000512
  0
LINE
  8
_0-1_作画層１
  6
CONTINUOUS
 62
    7
 10
56.948683298050526
 20
156.06622776601685
 11
57.79868329805052
 21
156.06622776601685
  0
ARC
  8
_0-1_作画層１
  6
CONTINUOUS
 62
    7
 10
57.798683298050548
 20
155.6662277660169
 40
0.3999999999999487
 50
359.99999999999181
 51
90.000000000005116
  0
LINE
  8
_0-1_作画層１
  6
CONTINUOUS
 62
    7
 10
59.598683247187893
 20
156.06622776601685
 11
60.448683298050526
 21
156.06622776601685
  0
LINE
  8
_0-1_作画層１
  6
CONTINUOUS
 62
    7
 10
56.948683298050526
 20
157.06622776601685
 11
57.79868329805052
 21
157.06622776601685
  0
LINE
  8
_0-1_作画層１
  6
CONTINUOUS
 62
    7
 10
58.198683298050526
 20
158.31622776601685
 11
58.198683298050526
 21
157.46622776601686
  0
ARC
  8
_0-1_作画層１
  6
CONTINUOUS
 62
    7
 10
57.798683298050548
 20
157.4662277660168
 40
0.3999999999999487
 50
269.99999999999488
 51
0.000000000008104
  0
LINE
  8
_0-1_作画層１
  6
CONTINUOUS
 62
    7
 10
59.198683298050526
 20
155.66622776601685
 11
59.198683298050526
 21
154.81622776601685
  0
LINE
  8
_0-1_作画層１
  6
CONTINUOUS
 62
    7
 10
59.198683298050526
 20
157.46622776601686
 11
59.198683298050526
 21
158.31622776601685
  0
LINE
  8
_0-1_作画層１
  6
CONTINUOUS
 62
    7
 10
58.198683298050526
 20
155.66622776601685
 11
58.198683298050526
 21
154.81622776601685
  0
LINE
  8
_0-1_作画層１
  6
CONTINUOUS
 62
    7
 10
55.198683298050526
 20
159.75
 11
55.198683298050526
 21
133.89999999999998
  0
LINE
  8
_0-1_作画層１
  6
CONTINUOUS
 62
    7
 10
122.25000000000001
 20
133.89999999999998
 11
55.198683298050526
 21
133.89999999999998
  0
INSERT
  2
-000-_D0
  8
_0-9_寸法線層１
 10
6.25
 20
4.75
 41
1
 42
1
 50
0
  0
INSERT
  2
-001-_D1
  8
_0-9_寸法線層１
 10
6.25
 20
4.75
 41
1
 42
1
 50
0
  0
INSERT
  2
-002-_D2
  8
_0-9_寸法線層１
 10
6.25
 20
4.75
 41
1
 42
1
 50
0
  0
INSERT
  2
-003-_D3
  8
_0-9_寸法線層１
 10
6.25
 20
4.75
 41
1
 42
1
 50
0
  0
LINE
  8
_0-1_作画層１
  6
CENTER
 62
    7
 10
146.25
 20
197.25
 11
223.75
 21
197.25
  0
ARC
  8
_0-1_作画層１
  6
CONTINUOUS
 62
    7
 10
63.75
 20
217.75000000000003
 40
1.9999999999999716
 50
89.999999999999588
 51
180.0000000000008
  0
LINE
  8
_0-1_作画層１
  6
CONTINUOUS
 62
    7
 10
61.75
 20
217.75
 11
61.75
 21
195.75
  0
ARC
  8
_0-1_作画層１
  6
CONTINUOUS
 62
    7
 10
63.75
 20
195.74999999999997
 40
1.9999999999999858
 50
179.99999999999918
 51
270.0000000000004
  0
LINE
  8
_0-1_作画層１
  6
CONTINUOUS
 62
    7
 10
63.75
 20
193.75
 11
113.75
 21
193.75
  0
ARC
  8
_0-1_作画層１
  6
CONTINUOUS
 62
    7
 10
113.75000000000003
 20
195.74999999999997
 40
1.9999999999999716
 50
269.9999999999992
 51
0.0000000000007887
  0
LINE
  8
_0-1_作画層１
  6
CONTINUOUS
 62
    7
 10
115.75
 20
195.75
 11
115.75
 21
217.75
  0
LINE
  8
_0-1_作画層１
  6
CONTINUOUS
 62
    7
 10
63.75
 20
219.75
 11
113.75
 21
219.75
  0
ARC
  8
_0-1_作画層１
  6
CONTINUOUS
 62
    7
 10
113.75000000000003
 20
217.75000000000003
 40
1.9999999999999716
 50
359.9999999999992
 51
90.000000000000782
  0
LINE
  8
_0-1_作画層１
  6
CONTINUOUS
 62
    7
 10
95.25
 20
179.75
 11
90.25
 21
179.75
  0
LINE
  8
_0-1_作画層１
  6
CONTINUOUS
 62
    7
 10
90.25
 20
179.75
 11
90.25
 21
184.75
  0
LINE
  8
_0-1_作画層１
  6
CONTINUOUS
 62
    7
 10
90.25
 20
184.75
 11
95.25
 21
184.75
  0
LINE
  8
_0-1_作画層１
  6
CONTINUOUS
 62
    7
 10
95.25
 20
184.75
 11
95.25
 21
179.75
  0
LINE
  8
_0-1_作画層１
  6
CONTINUOUS
 62
    7
 10
103.25
 20
179.75
 11
98.25
 21
179.75
  0
LINE
  8
_0-1_作画層１
  6
CONTINUOUS
 62
    7
 10
98.25
 20
179.75
 11
98.25
 21
184.75
  0
LINE
  8
_0-1_作画層１
  6
CONTINUOUS
 62
    7
 10
98.25
 20
184.75
 11
103.25
 21
184.75
  0
LINE
  8
_0-1_作画層１
  6
CONTINUOUS
 62
    7
 10
103.25
 20
184.75
 11
103.25
 21
179.75
  0
LINE
  8
_0-1_作画層１
  6
CONTINUOUS
 62
    7
 10
111.25
 20
179.75
 11
106.25
 21
179.75
  0
LINE
  8
_0-1_作画層１
  6
CONTINUOUS
 62
    7
 10
106.25
 20
179.75
 11
106.25
 21
184.75
  0
LINE
  8
_0-1_作画層１
  6
CONTINUOUS
 62
    7
 10
106.25
 20
184.75
 11
111.25
 21
184.75
  0
LINE
  8
_0-1_作画層１
  6
CONTINUOUS
 62
    7
 10
111.25
 20
184.75
 11
111.25
 21
179.75
  0
LINE
  8
_0-1_作画層１
  6
CONTINUOUS
 62
    7
 10
82.25
 20
179.75
 11
87.25
 21
179.75
  0
LINE
  8
_0-1_作画層１
  6
CONTINUOUS
 62
    7
 10
87.25
 20
179.75
 11
87.25
 21
184.75
  0
LINE
  8
_0-1_作画層１
  6
CONTINUOUS
 62
    7
 10
87.25
 20
184.75
 11
82.25
 21
184.75
  0
LINE
  8
_0-1_作画層１
  6
CONTINUOUS
 62
    7
 10
82.25
 20
184.75
 11
82.25
 21
179.75
  0
LINE
  8
_0-1_作画層１
  6
CONTINUOUS
 62
    7
 10
74.25
 20
179.75
 11
79.25
 21
179.75
  0
LINE
  8
_0-1_作画層１
  6
CONTINUOUS
 62
    7
 10
79.25
 20
179.75
 11
79.25
 21
184.75
  0
LINE
  8
_0-1_作画層１
  6
CONTINUOUS
 62
    7
 10
79.25
 20
184.75
 11
74.25
 21
184.75
  0
LINE
  8
_0-1_作画層１
  6
CONTINUOUS
 62
    7
 10
74.25
 20
184.75
 11
74.25
 21
179.75
  0
LINE
  8
_0-1_作画層１
  6
CONTINUOUS
 62
    7
 10
66.25
 20
179.75
 11
71.25
 21
179.75
  0
LINE
  8
_0-1_作画層１
  6
CONTINUOUS
 62
    7
 10
71.25
 20
179.75
 11
71.25
 21
184.75
  0
LINE
  8
_0-1_作画層１
  6
CONTINUOUS
 62
    7
 10
71.25
 20
184.75
 11
66.25
 21
184.75
  0
LINE
  8
_0-1_作画層１
  6
CONTINUOUS
 62
    7
 10
66.25
 20
184.75
 11
66.25
 21
179.75
  0
CIRCLE
  8
_0-1_作画層１
  6
CONTINUOUS
 62
    7
 10
88.75
 20
172.25
 40
1
  0
LINE
  8
_0-1_作画層１
  6
CONTINUOUS
 62
    7
 10
72.5
 20
169.75
 11
80.5
 21
169.75
  0
LINE
  8
_0-1_作画層１
  6
CONTINUOUS
 62
    7
 10
80.5
 20
169.75
 11
80.5
 21
172.75
  0
LINE
  8
_0-1_作画層１
  6
CONTINUOUS
 62
    7
 10
80.5
 20
172.75
 11
72.5
 21
172.75
  0
LINE
  8
_0-1_作画層１
  6
CONTINUOUS
 62
    7
 10
72.5
 20
172.75
 11
72.5
 21
169.75
  0
LINE
  8
_0-1_作画層１
  6
CONTINUOUS
 62
    7
 10
75.25
 20
172.75
 11
75.25
 21
169.75
  0
LINE
  8
_0-1_作画層１
  6
CONTINUOUS
 62
    7
 10
77.75
 20
172.75
 11
77.75
 21
169.75
  0
LINE
  8
_0-1_作画層１
  6
CONTINUOUS
 62
    7
 10
75.25
 20
172.75
 11
77.75
 21
172.75
  0
LINE
  8
_0-1_作画層１
  6
CONTINUOUS
 62
    7
 10
77.75
 20
172.75
 11
77.75
 21
169.75
  0
LINE
  8
_0-1_作画層１
  6
CONTINUOUS
 62
    7
 10
77.75
 20
169.75
 11
75.25
 21
169.75
  0
LINE
  8
_0-1_作画層１
  6
CONTINUOUS
 62
    7
 10
75.25
 20
169.75
 11
75.25
 21
172.75
  0
LINE
  8
_0-1_作画層１
  6
CONTINUOUS
 62
    7
 10
77.75
 20
172.72989898732231
 11
77.729898987322315
 21
172.75
  0
LINE
  8
_0-1_作画層１
  6
CONTINUOUS
 62
    7
 10
77.588477631085055
 20
172.75
 11
77.75
 21
172.58847763108506
  0
LINE
  8
_0-1_作画層１
  6
CONTINUOUS
 62
    7
 10
77.447056274847739
 20
172.75
 11
77.75
 21
172.44705627484774
  0
LINE
  8
_0-1_作画層１
  6
CONTINUOUS
 62
    7
 10
77.305634918610451
 20
172.75
 11
77.75
 21
172.30563491861045
  0
LINE
  8
_0-1_作画層１
  6
CONTINUOUS
 62
    7
 10
77.75
 20
172.16421356237313
 11
77.164213562373135
 21
172.75
  0
LINE
  8
_0-1_作画層１
  6
CONTINUOUS
 62
    7
 10
77.022792206135847
 20
172.75
 11
77.75
 21
172.02279220613585
  0
LINE
  8
_0-1_作画層１
  6
CONTINUOUS
 62
    7
 10
77.75
 20
171.88137084989853
 11
76.881370849898531
 21
172.75
  0
LINE
  8
_0-1_作画層１
  6
CONTINUOUS
 62
    7
 10
76.739949493661243
 20
172.75
 11
77.75
 21
171.73994949366124
  0
LINE
  8
_0-1_作画層１
  6
CONTINUOUS
 62
    7
 10
76.598528137423955
 20
172.75
 11
77.75
 21
171.59852813742395
  0
LINE
  8
_0-1_作画層１
  6
CONTINUOUS
 62
    7
 10
76.457106781186667
 20
172.75
 11
77.75
 21
171.45710678118667
  0
LINE
  8
_0-1_作画層１
  6
CONTINUOUS
 62
    7
 10
77.75
 20
171.31568542494932
 11
76.315685424949322
 21
172.75
  0
LINE
  8
_0-1_作画層１
  6
CONTINUOUS
 62
    7
 10
77.75
 20
171.17426406871203
 11
76.174264068712034
 21
172.75
  0
LINE
  8
_0-1_作画層１
  6
CONTINUOUS
 62
    7
 10
77.75
 20
171.03284271247472
 11
76.032842712474718
 21
172.75
  0
LINE
  8
_0-1_作画層１
  6
CONTINUOUS
 62
    7
 10
77.75
 20
170.8914213562374
 11
75.891421356237402
 21
172.75
  0
LINE
  8
_0-1_作画層１
  6
CONTINUOUS
 62
    7
 10
77.75
 20
170.75000000000011
 11
75.750000000000114
 21
172.75
  0
LINE
  8
_0-1_作画層１
  6
CONTINUOUS
 62
    7
 10
77.75
 20
170.60857864376283
 11
75.608578643762826
 21
172.75
  0
LINE
  8
_0-1_作画層１
  6
CONTINUOUS
 62
    7
 10
77.75
 20
170.46715728752551
 11
75.467157287525509
 21
172.75
  0
LINE
  8
_0-1_作画層１
  6
CONTINUOUS
 62
    7
 10
77.75
 20
170.32573593128822
 11
75.325735931288222
 21
172.75
  0
LINE
  8
_0-1_作画層１
  6
CONTINUOUS
 62
    7
 10
77.75
 20
170.18431457505091
 11
75.25
 21
172.68431457505091
  0
LINE
  8
_0-1_作画層１
  6
CONTINUOUS
 62
    7
 10
77.75
 20
170.04289321881359
 11
75.25
 21
172.54289321881359
  0
LINE
  8
_0-1_作画層１
  6
CONTINUOUS
 62
    7
 10
77.75
 20
169.9014718625763
 11
75.25
 21
172.4014718625763
  0
LINE
  8
_0-1_作画層１
  6
CONTINUOUS
 62
    7
 10
77.75
 20
169.76005050633901
 11
75.25
 21
172.26005050633901
  0
LINE
  8
_0-1_作画層１
  6
CONTINUOUS
 62
    7
 10
77.618629150101697
 20
169.75
 11
75.25
 21
172.1186291501017
  0
LINE
  8
_0-1_作画層１
  6
CONTINUOUS
 62
    7
 10
77.47720779386438
 20
169.75
 11
75.25
 21
171.97720779386438
  0
LINE
  8
_0-1_作画層１
  6
CONTINUOUS
 62
    7
 10
75.25
 20
171.83578643762712
 11
77.335786437627121
 21
169.75
  0
LINE
  8
_0-1_作画層１
  6
CONTINUOUS
 62
    7
 10
77.194365081389776
 20
169.75
 11
75.25
 21
171.69436508138978
  0
LINE
  8
_0-1_作画層１
  6
CONTINUOUS
 62
    7
 10
77.052943725152488
 20
169.75
 11
75.25
 21
171.55294372515249
  0
LINE
  8
_0-1_作画層１
  6
CONTINUOUS
 62
    7
 10
76.9115223689152
 20
169.75
 11
75.25
 21
171.4115223689152
  0
LINE
  8
_0-1_作画層１
  6
CONTINUOUS
 62
    7
 10
76.770101012677884
 20
169.75
 11
75.25
 21
171.27010101267788
  0
LINE
  8
_0-1_作画層１
  6
CONTINUOUS
 62
    7
 10
76.628679656440596
 20
169.75
 11
75.25
 21
171.1286796564406
  0
LINE
  8
_0-1_作画層１
  6
CONTINUOUS
 62
    7
 10
76.48725830020328
 20
169.75
 11
75.25
 21
170.98725830020328
  0
LINE
  8
_0-1_作画層１
  6
CONTINUOUS
 62
    7
 10
75.25
 20
170.84583694396599
 11
76.345836943965992
 21
169.75
  0
LINE
  8
_0-1_作画層１
  6
CONTINUOUS
 62
    7
 10
76.204415587728676
 20
169.75
 11
75.25
 21
170.70441558772868
  0
LINE
  8
_0-1_作画層１
  6
CONTINUOUS
 62
    7
 10
76.062994231491359
 20
169.75
 11
75.25
 21
170.56299423149136
  0
LINE
  8
_0-1_作画層１
  6
CONTINUOUS
 62
    7
 10
75.921572875254071
 20
169.75
 11
75.25
 21
170.42157287525407
  0
LINE
  8
_0-1_作画層１
  6
CONTINUOUS
 62
    7
 10
75.25
 20
170.28015151901678
 11
75.780151519016783
 21
169.75
  0
LINE
  8
_0-1_作画層１
  6
CONTINUOUS
 62
    7
 10
75.638730162779467
 20
169.75
 11
75.25
 21
170.13873016277947
  0
LINE
  8
_0-1_作画層１
  6
CONTINUOUS
 62
    7
 10
75.497308806542179
 20
169.75
 11
75.25
 21
169.99730880654218
  0
LINE
  8
_0-1_作画層１
  6
CONTINUOUS
 62
    7
 10
75.355887450304863
 20
169.75
 11
75.25
 21
169.85588745030486
  0
LINE
  8
_0-1_作画層１
  6
CONTINUOUS
 62
    7
 10
78.620000000000005
 20
211.76999999999998
 11
78.620000000000005
 21
208.46999999999997
  0
LINE
  8
_0-1_作画層１
  6
CONTINUOUS
 62
    7
 10
78.620000000000005
 20
211.76999999999998
 11
78.949999999999989
 21
212.09999999999997
  0
LINE
  8
_0-1_作画層１
  6
CONTINUOUS
 62
    7
 10
78.949999999999989
 20
212.09999999999997
 11
79.280000000000001
 21
211.76999999999998
  0
LINE
  8
_0-1_作画層１
  6
CONTINUOUS
 62
    7
 10
79.280000000000001
 20
211.76999999999998
 11
79.280000000000001
 21
208.46999999999997
  0
LINE
  8
_0-1_作画層１
  6
CONTINUOUS
 62
    7
 10
78.620000000000005
 20
208.46999999999997
 11
78.949999999999989
 21
208.13999999999996
  0
LINE
  8
_0-1_作画層１
  6
CONTINUOUS
 62
    7
 10
79.280000000000001
 20
208.46999999999997
 11
78.949999999999989
 21
208.13999999999996
  0
LINE
  8
_0-1_作画層１
  6
CONTINUOUS
 62
    7
 10
78.921690475583148
 20
208.16830952441683
 11
79.280000000000001
 21
208.52661904883365
  0
LINE
  8
_0-1_作画層１
  6
CONTINUOUS
 62
    7
 10
78.828352380466526
 20
208.26164761953342
 11
79.280000000000001
 21
208.71329523906689
  0
LINE
  8
_0-1_作画層１
  6
CONTINUOUS
 62
    7
 10
78.735014285349934
 20
208.35498571465004
 11
79.280000000000001
 21
208.89997142930011
  0
LINE
  8
_0-1_作画層１
  6
CONTINUOUS
 62
    7
 10
78.641676190233284
 20
208.44832380976669
 11
79.280000000000001
 21
209.08664761953341
  0
LINE
  8
_0-1_作画層１
  6
CONTINUOUS
 62
    7
 10
78.620000000000005
 20
208.61332380976665
 11
79.280000000000001
 21
209.27332380976659
  0
LINE
  8
_0-1_作画層１
  6
CONTINUOUS
 62
    7
 10
78.620000000000005
 20
208.79999999999987
 11
79.280000000000001
 21
209.45999999999987
  0
LINE
  8
_0-1_作画層１
  6
CONTINUOUS
 62
    7
 10
78.620000000000005
 20
208.98667619023308
 11
79.280000000000001
 21
209.64667619023311
  0
LINE
  8
_0-1_作画層１
  6
CONTINUOUS
 62
    7
 10
78.620000000000005
 20
209.17335238046635
 11
79.280000000000001
 21
209.83335238046629
  0
LINE
  8
_0-1_作画層１
  6
CONTINUOUS
 62
    7
 10
78.620000000000005
 20
209.36002857069951
 11
79.280000000000001
 21
210.02002857069957
  0
LINE
  8
_0-1_作画層１
  6
CONTINUOUS
 62
    7
 10
78.620000000000005
 20
209.54670476093278
 11
79.280000000000001
 21
210.20670476093272
  0
LINE
  8
_0-1_作画層１
  6
CONTINUOUS
 62
    7
 10
78.620000000000005
 20
209.73338095116605
 11
79.280000000000001
 21
210.39338095116605
  0
LINE
  8
_0-1_作画層１
  6
CONTINUOUS
 62
    7
 10
78.620000000000005
 20
209.92005714139927
 11
79.280000000000001
 21
210.58005714139927
  0
LINE
  8
_0-1_作画層１
  6
CONTINUOUS
 62
    7
 10
78.620000000000005
 20
210.10673333163254
 11
79.280000000000001
 21
210.76673333163254
  0
LINE
  8
_0-1_作画層１
  6
CONTINUOUS
 62
    7
 10
78.620000000000005
 20
210.29340952186575
 11
79.280000000000001
 21
210.95340952186581
  0
LINE
  8
_0-1_作画層１
  6
CONTINUOUS
 62
    7
 10
78.620000000000005
 20
210.48008571209903
 11
79.280000000000001
 21
211.14008571209902
  0
LINE
  8
_0-1_作画層１
  6
CONTINUOUS
 62
    7
 10
78.620000000000005
 20
210.6667619023323
 11
79.280000000000001
 21
211.32676190233229
  0
LINE
  8
_0-1_作画層１
  6
CONTINUOUS
 62
    7
 10
78.620000000000005
 20
210.85343809256545
 11
79.280000000000001
 21
211.51343809256545
  0
LINE
  8
_0-1_作画層１
  6
CONTINUOUS
 62
    7
 10
78.620000000000005
 20
211.04011428279873
 11
79.280000000000001
 21
211.70011428279872
  0
LINE
  8
_0-1_作画層１
  6
CONTINUOUS
 62
    7
 10
78.620000000000005
 20
211.22679047303194
 11
79.221604763483981
 21
211.828395236516
  0
LINE
  8
_0-1_作画層１
  6
CONTINUOUS
 62
    7
 10
78.620000000000005
 20
211.41346666326518
 11
79.12826666836736
 21
211.92173333163259
  0
LINE
  8
_0-1_作画層１
  6
CONTINUOUS
 62
    7
 10
78.620000000000005
 20
211.60014285349843
 11
79.034928573250738
 21
212.01507142674919
  0
LINE
  8
_0-1_作画層１
  6
CONTINUOUS
 62
    7
 10
78.620000000000005
 20
207.80999999999995
 11
78.620000000000005
 21
204.50999999999993
  0
LINE
  8
_0-1_作画層１
  6
CONTINUOUS
 62
    7
 10
78.620000000000005
 20
207.80999999999995
 11
78.949999999999989
 21
208.13999999999996
  0
LINE
  8
_0-1_作画層１
  6
CONTINUOUS
 62
    7
 10
78.949999999999989
 20
208.13999999999996
 11
79.280000000000001
 21
207.80999999999995
  0
LINE
  8
_0-1_作画層１
  6
CONTINUOUS
 62
    7
 10
79.280000000000001
 20
207.80999999999995
 11
79.280000000000001
 21
204.50999999999993
  0
LINE
  8
_0-1_作画層１
  6
CONTINUOUS
 62
    7
 10
78.620000000000005
 20
204.50999999999993
 11
78.949999999999989
 21
204.17999999999998
  0
LINE
  8
_0-1_作画層１
  6
CONTINUOUS
 62
    7
 10
79.280000000000001
 20
204.50999999999993
 11
78.949999999999989
 21
204.17999999999998
  0
LINE
  8
_0-1_作画層１
  6
CONTINUOUS
 62
    7
 10
78.921690475583148
 20
204.20830952441685
 11
79.280000000000001
 21
204.56661904883367
  0
LINE
  8
_0-1_作画層１
  6
CONTINUOUS
 62
    7
 10
78.828352380466526
 20
204.30164761953341
 11
79.280000000000001
 21
204.75329523906694
  0
LINE
  8
_0-1_作画層１
  6
CONTINUOUS
 62
    7
 10
78.735014285349934
 20
204.39498571465006
 11
79.280000000000001
 21
204.9399714293001
  0
LINE
  8
_0-1_作画層１
  6
CONTINUOUS
 62
    7
 10
78.641676190233284
 20
204.48832380976665
 11
79.280000000000001
 21
205.12664761953343
  0
LINE
  8
_0-1_作画層１
  6
CONTINUOUS
 62
    7
 10
78.620000000000005
 20
204.65332380976662
 11
79.280000000000001
 21
205.31332380976664
  0
LINE
  8
_0-1_作画層１
  6
CONTINUOUS
 62
    7
 10
78.620000000000005
 20
204.83999999999986
 11
79.280000000000001
 21
205.49999999999986
  0
LINE
  8
_0-1_作画層１
  6
CONTINUOUS
 62
    7
 10
78.620000000000005
 20
205.0266761902331
 11
79.280000000000001
 21
205.68667619023307
  0
LINE
  8
_0-1_作画層１
  6
CONTINUOUS
 62
    7
 10
78.620000000000005
 20
205.21335238046632
 11
79.280000000000001
 21
205.87335238046634
  0
LINE
  8
_0-1_作画層１
  6
CONTINUOUS
 62
    7
 10
78.620000000000005
 20
205.40002857069953
 11
79.280000000000001
 21
206.06002857069953
  0
LINE
  8
_0-1_作画層１
  6
CONTINUOUS
 62
    7
 10
78.620000000000005
 20
205.58670476093275
 11
79.280000000000001
 21
206.2467047609328
  0
LINE
  8
_0-1_作画層１
  6
CONTINUOUS
 62
    7
 10
78.620000000000005
 20
205.77338095116602
 11
79.280000000000001
 21
206.43338095116604
  0
LINE
  8
_0-1_作画層１
  6
CONTINUOUS
 62
    7
 10
78.620000000000005
 20
205.96005714139929
 11
79.280000000000001
 21
206.62005714139929
  0
LINE
  8
_0-1_作画層１
  6
CONTINUOUS
 62
    7
 10
78.620000000000005
 20
206.14673333163256
 11
79.280000000000001
 21
206.80673333163253
  0
LINE
  8
_0-1_作画層１
  6
CONTINUOUS
 62
    7
 10
78.620000000000005
 20
206.33340952186578
 11
79.280000000000001
 21
206.99340952186577
  0
LINE
  8
_0-1_作画層１
  6
CONTINUOUS
 62
    7
 10
78.620000000000005
 20
206.52008571209905
 11
79.280000000000001
 21
207.18008571209901
  0
LINE
  8
_0-1_作画層１
  6
CONTINUOUS
 62
    7
 10
78.620000000000005
 20
206.70676190233226
 11
79.280000000000001
 21
207.36676190233229
  0
LINE
  8
_0-1_作画層１
  6
CONTINUOUS
 62
    7
 10
78.620000000000005
 20
206.89343809256548
 11
79.280000000000001
 21
207.55343809256547
  0
LINE
  8
_0-1_作画層１
  6
CONTINUOUS
 62
    7
 10
78.620000000000005
 20
207.08011428279869
 11
79.280000000000001
 21
207.74011428279874
  0
LINE
  8
_0-1_作画層１
  6
CONTINUOUS
 62
    7
 10
78.620000000000005
 20
207.26679047303196
 11
79.221604763483981
 21
207.86839523651597
  0
LINE
  8
_0-1_作画層１
  6
CONTINUOUS
 62
    7
 10
78.620000000000005
 20
207.45346666326523
 11
79.12826666836736
 21
207.96173333163262
  0
LINE
  8
_0-1_作画層１
  6
CONTINUOUS
 62
    7
 10
78.620000000000005
 20
207.64014285349845
 11
79.034928573250738
 21
208.05507142674918
  0
LINE
  8
_0-1_作画層１
  6
CONTINUOUS
 62
    7
 10
81.620000000000005
 20
211.76999999999998
 11
81.620000000000005
 21
208.46999999999997
  0
LINE
  8
_0-1_作画層１
  6
CONTINUOUS
 62
    7
 10
82.280000000000001
 20
211.76999999999998
 11
82.280000000000001
 21
208.46999999999997
  0
LINE
  8
_0-1_作画層１
  6
CONTINUOUS
 62
    7
 10
81.620000000000005
 20
208.46999999999997
 11
81.949999999999989
 21
208.13999999999996
  0
LINE
  8
_0-1_作画層１
  6
CONTINUOUS
 62
    7
 10
82.280000000000001
 20
208.46999999999997
 11
81.949999999999989
 21
208.13999999999996
  0
LINE
  8
_0-1_作画層１
  6
CONTINUOUS
 62
    7
 10
81.921690475583148
 20
208.16830952441683
 11
82.280000000000001
 21
208.52661904883365
  0
LINE
  8
_0-1_作画層１
  6
CONTINUOUS
 62
    7
 10
81.828352380466526
 20
208.26164761953342
 11
82.280000000000001
 21
208.71329523906689
  0
LINE
  8
_0-1_作画層１
  6
CONTINUOUS
 62
    7
 10
81.735014285349934
 20
208.35498571465004
 11
82.280000000000001
 21
208.89997142930011
  0
LINE
  8
_0-1_作画層１
  6
CONTINUOUS
 62
    7
 10
81.641676190233255
 20
208.44832380976669
 11
82.280000000000001
 21
209.08664761953341
  0
LINE
  8
_0-1_作画層１
  6
CONTINUOUS
 62
    7
 10
81.620000000000005
 20
208.61332380976665
 11
82.280000000000001
 21
209.27332380976659
  0
LINE
  8
_0-1_作画層１
  6
CONTINUOUS
 62
    7
 10
81.620000000000005
 20
208.79999999999987
 11
82.280000000000001
 21
209.45999999999987
  0
LINE
  8
_0-1_作画層１
  6
CONTINUOUS
 62
    7
 10
81.620000000000005
 20
208.98667619023308
 11
82.280000000000001
 21
209.64667619023311
  0
LINE
  8
_0-1_作画層１
  6
CONTINUOUS
 62
    7
 10
81.620000000000005
 20
209.17335238046635
 11
82.280000000000001
 21
209.83335238046629
  0
LINE
  8
_0-1_作画層１
  6
CONTINUOUS
 62
    7
 10
81.620000000000005
 20
209.36002857069951
 11
82.280000000000001
 21
210.02002857069957
  0
LINE
  8
_0-1_作画層１
  6
CONTINUOUS
 62
    7
 10
81.620000000000005
 20
209.54670476093278
 11
82.280000000000001
 21
210.20670476093272
  0
LINE
  8
_0-1_作画層１
  6
CONTINUOUS
 62
    7
 10
81.620000000000005
 20
209.73338095116605
 11
82.280000000000001
 21
210.39338095116605
  0
LINE
  8
_0-1_作画層１
  6
CONTINUOUS
 62
    7
 10
81.620000000000005
 20
209.92005714139927
 11
82.280000000000001
 21
210.58005714139927
  0
LINE
  8
_0-1_作画層１
  6
CONTINUOUS
 62
    7
 10
81.620000000000005
 20
210.10673333163254
 11
82.280000000000001
 21
210.76673333163254
  0
LINE
  8
_0-1_作画層１
  6
CONTINUOUS
 62
    7
 10
81.620000000000005
 20
210.29340952186575
 11
82.280000000000001
 21
210.95340952186581
  0
LINE
  8
_0-1_作画層１
  6
CONTINUOUS
 62
    7
 10
81.620000000000005
 20
210.48008571209903
 11
82.280000000000001
 21
211.14008571209902
  0
LINE
  8
_0-1_作画層１
  6
CONTINUOUS
 62
    7
 10
81.620000000000005
 20
210.6667619023323
 11
82.280000000000001
 21
211.32676190233229
  0
LINE
  8
_0-1_作画層１
  6
CONTINUOUS
 62
    7
 10
81.620000000000005
 20
210.85343809256545
 11
82.280000000000001
 21
211.51343809256545
  0
LINE
  8
_0-1_作画層１
  6
CONTINUOUS
 62
    7
 10
81.620000000000005
 20
211.04011428279873
 11
82.280000000000001
 21
211.70011428279872
  0
LINE
  8
_0-1_作画層１
  6
CONTINUOUS
 62
    7
 10
81.620000000000005
 20
211.22679047303194
 11
82.221604763483981
 21
211.828395236516
  0
LINE
  8
_0-1_作画層１
  6
CONTINUOUS
 62
    7
 10
81.620000000000005
 20
211.41346666326518
 11
82.128266668367374
 21
211.92173333163259
  0
LINE
  8
_0-1_作画層１
  6
CONTINUOUS
 62
    7
 10
81.620000000000005
 20
211.60014285349843
 11
82.034928573250752
 21
212.01507142674919
  0
LINE
  8
_0-1_作画層１
  6
CONTINUOUS
 62
    7
 10
81.620000000000005
 20
207.80999999999995
 11
81.620000000000005
 21
204.50999999999993
  0
LINE
  8
_0-1_作画層１
  6
CONTINUOUS
 62
    7
 10
81.620000000000005
 20
207.80999999999995
 11
81.949999999999989
 21
208.13999999999996
  0
LINE
  8
_0-1_作画層１
  6
CONTINUOUS
 62
    7
 10
81.949999999999989
 20
208.13999999999996
 11
82.280000000000001
 21
207.80999999999995
  0
LINE
  8
_0-1_作画層１
  6
CONTINUOUS
 62
    7
 10
82.280000000000001
 20
207.80999999999995
 11
82.280000000000001
 21
204.50999999999993
  0
LINE
  8
_0-1_作画層１
  6
CONTINUOUS
 62
    7
 10
81.620000000000005
 20
204.50999999999993
 11
81.949999999999989
 21
204.17999999999998
  0
LINE
  8
_0-1_作画層１
  6
CONTINUOUS
 62
    7
 10
82.280000000000001
 20
204.50999999999993
 11
81.949999999999989
 21
204.17999999999998
  0
LINE
  8
_0-1_作画層１
  6
CONTINUOUS
 62
    7
 10
81.921690475583148
 20
204.20830952441685
 11
82.280000000000001
 21
204.56661904883367
  0
LINE
  8
_0-1_作画層１
  6
CONTINUOUS
 62
    7
 10
81.828352380466526
 20
204.30164761953341
 11
82.280000000000001
 21
204.75329523906694
  0
LINE
  8
_0-1_作画層１
  6
CONTINUOUS
 62
    7
 10
81.735014285349934
 20
204.39498571465006
 11
82.280000000000001
 21
204.9399714293001
  0
LINE
  8
_0-1_作画層１
  6
CONTINUOUS
 62
    7
 10
81.641676190233255
 20
204.48832380976665
 11
82.280000000000001
 21
205.12664761953343
  0
LINE
  8
_0-1_作画層１
  6
CONTINUOUS
 62
    7
 10
81.620000000000005
 20
204.65332380976662
 11
82.280000000000001
 21
205.31332380976664
  0
LINE
  8
_0-1_作画層１
  6
CONTINUOUS
 62
    7
 10
81.620000000000005
 20
204.83999999999986
 11
82.280000000000001
 21
205.49999999999986
  0
LINE
  8
_0-1_作画層１
  6
CONTINUOUS
 62
    7
 10
81.620000000000005
 20
205.0266761902331
 11
82.280000000000001
 21
205.68667619023307
  0
LINE
  8
_0-1_作画層１
  6
CONTINUOUS
 62
    7
 10
81.620000000000005
 20
205.21335238046632
 11
82.280000000000001
 21
205.87335238046634
  0
LINE
  8
_0-1_作画層１
  6
CONTINUOUS
 62
    7
 10
81.620000000000005
 20
205.40002857069953
 11
82.280000000000001
 21
206.06002857069953
  0
LINE
  8
_0-1_作画層１
  6
CONTINUOUS
 62
    7
 10
81.620000000000005
 20
205.58670476093275
 11
82.280000000000001
 21
206.2467047609328
  0
LINE
  8
_0-1_作画層１
  6
CONTINUOUS
 62
    7
 10
81.620000000000005
 20
205.77338095116602
 11
82.280000000000001
 21
206.43338095116604
  0
LINE
  8
_0-1_作画層１
  6
CONTINUOUS
 62
    7
 10
81.620000000000005
 20
205.96005714139929
 11
82.280000000000001
 21
206.62005714139929
  0
LINE
  8
_0-1_作画層１
  6
CONTINUOUS
 62
    7
 10
81.620000000000005
 20
206.14673333163256
 11
82.280000000000001
 21
206.80673333163253
  0
LINE
  8
_0-1_作画層１
  6
CONTINUOUS
 62
    7
 10
81.620000000000005
 20
206.33340952186578
 11
82.280000000000001
 21
206.99340952186577
  0
LINE
  8
_0-1_作画層１
  6
CONTINUOUS
 62
    7
 10
81.620000000000005
 20
206.52008571209905
 11
82.280000000000001
 21
207.18008571209901
  0
LINE
  8
_0-1_作画層１
  6
CONTINUOUS
 62
    7
 10
81.620000000000005
 20
206.70676190233226
 11
82.280000000000001
 21
207.36676190233229
  0
LINE
  8
_0-1_作画層１
  6
CONTINUOUS
 62
    7
 10
81.620000000000005
 20
206.89343809256548
 11
82.280000000000001
 21
207.55343809256547
  0
LINE
  8
_0-1_作画層１
  6
CONTINUOUS
 62
    7
 10
81.620000000000005
 20
207.08011428279869
 11
82.280000000000001
 21
207.74011428279874
  0
LINE
  8
_0-1_作画層１
  6
CONTINUOUS
 62
    7
 10
81.620000000000005
 20
207.26679047303196
 11
82.221604763483981
 21
207.86839523651597
  0
LINE
  8
_0-1_作画層１
  6
CONTINUOUS
 62
    7
 10
81.620000000000005
 20
207.45346666326523
 11
82.128266668367374
 21
207.96173333163262
  0
LINE
  8
_0-1_作画層１
  6
CONTINUOUS
 62
    7
 10
81.620000000000005
 20
207.64014285349845
 11
82.034928573250752
 21
208.05507142674918
  0
LINE
  8
_0-1_作画層１
  6
CONTINUOUS
 62
    7
 10
82.25
 20
212.09999999999997
 11
82.580000000000013
 21
211.76999999999998
  0
LINE
  8
_0-1_作画層１
  6
CONTINUOUS
 62
    7
 10
82.580000000000041
 20
211.77000000000004
 11
85.880000000000038
 21
211.77000000000004
  0
LINE
  8
_0-1_作画層１
  6
CONTINUOUS
 62
    7
 10
82.580000000000041
 20
211.77000000000004
 11
82.250000000000028
 21
212.09999999999999
  0
LINE
  8
_0-1_作画層１
  6
CONTINUOUS
 62
    7
 10
82.250000000000028
 20
212.09999999999999
 11
82.580000000000041
 21
212.43000000000001
  0
LINE
  8
_0-1_作画層１
  6
CONTINUOUS
 62
    7
 10
82.580000000000041
 20
212.43000000000001
 11
85.880000000000038
 21
212.43000000000001
  0
LINE
  8
_0-1_作画層１
  6
CONTINUOUS
 62
    7
 10
85.880000000000038
 20
211.77000000000004
 11
86.210000000000051
 21
212.09999999999999
  0
LINE
  8
_0-1_作画層１
  6
CONTINUOUS
 62
    7
 10
85.880000000000038
 20
212.43000000000001
 11
86.210000000000051
 21
212.09999999999999
  0
LINE
  8
_0-1_作画層１
  6
CONTINUOUS
 62
    7
 10
86.181690475583167
 20
212.07169047558318
 11
85.823380951166328
 21
212.43000000000001
  0
LINE
  8
_0-1_作画層１
  6
CONTINUOUS
 62
    7
 10
86.088352380466603
 20
211.97835238046656
 11
85.6367047609331
 21
212.43000000000001
  0
LINE
  8
_0-1_作画層１
  6
CONTINUOUS
 62
    7
 10
85.995014285349953
 20
211.88501428534991
 11
85.450028570699885
 21
212.43000000000001
  0
LINE
  8
_0-1_作画層１
  6
CONTINUOUS
 62
    7
 10
85.901676190233346
 20
211.79167619023329
 11
85.2633523804666
 21
212.43000000000001
  0
LINE
  8
_0-1_作画層１
  6
CONTINUOUS
 62
    7
 10
85.736676190233354
 20
211.77000000000004
 11
85.076676190233371
 21
212.43000000000001
  0
LINE
  8
_0-1_作画層１
  6
CONTINUOUS
 62
    7
 10
85.550000000000139
 20
211.77000000000004
 11
84.890000000000157
 21
212.43000000000001
  0
LINE
  8
_0-1_作画層１
  6
CONTINUOUS
 62
    7
 10
85.363323809766882
 20
211.77000000000004
 11
84.7033238097669
 21
212.43000000000001
  0
LINE
  8
_0-1_作画層１
  6
CONTINUOUS
 62
    7
 10
85.176647619533668
 20
211.77000000000004
 11
84.516647619533686
 21
212.43000000000001
  0
LINE
  8
_0-1_作画層１
  6
CONTINUOUS
 62
    7
 10
84.989971429300439
 20
211.77000000000004
 11
84.329971429300457
 21
212.43000000000001
  0
LINE
  8
_0-1_作画層１
  6
CONTINUOUS
 62
    7
 10
84.803295239067225
 20
211.77000000000004
 11
84.143295239067243
 21
212.43000000000001
  0
LINE
  8
_0-1_作画層１
  6
CONTINUOUS
 62
    7
 10
84.616619048833968
 20
211.77000000000004
 11
83.956619048833957
 21
212.43000000000001
  0
LINE
  8
_0-1_作画層１
  6
CONTINUOUS
 62
    7
 10
84.429942858600711
 20
211.77000000000004
 11
83.7699428586007
 21
212.43000000000001
  0
LINE
  8
_0-1_作画層１
  6
CONTINUOUS
 62
    7
 10
84.243266668367454
 20
211.77000000000004
 11
83.583266668367443
 21
212.43000000000001
  0
LINE
  8
_0-1_作画層１
  6
CONTINUOUS
 62
    7
 10
84.05659047813424
 20
211.77000000000004
 11
83.396590478134229
 21
212.43000000000001
  0
LINE
  8
_0-1_作画層１
  6
CONTINUOUS
 62
    7
 10
83.869914287900983
 20
211.77000000000004
 11
83.209914287900972
 21
212.43000000000001
  0
LINE
  8
_0-1_作画層１
  6
CONTINUOUS
 62
    7
 10
83.683238097667726
 20
211.77000000000004
 11
83.023238097667715
 21
212.43000000000001
  0
LINE
  8
_0-1_作画層１
  6
CONTINUOUS
 62
    7
 10
83.49656190743454
 20
211.77000000000004
 11
82.836561907434529
 21
212.43000000000001
  0
LINE
  8
_0-1_作画層１
  6
CONTINUOUS
 62
    7
 10
83.309885717201297
 20
211.77000000000004
 11
82.649885717201272
 21
212.43000000000001
  0
LINE
  8
_0-1_作画層１
  6
CONTINUOUS
 62
    7
 10
83.12320952696804
 20
211.77000000000004
 11
82.521604763484021
 21
212.37160476348399
  0
LINE
  8
_0-1_作画層１
  6
CONTINUOUS
 62
    7
 10
82.936533336734811
 20
211.77000000000004
 11
82.428266668367399
 21
212.27826666836739
  0
LINE
  8
_0-1_作画層１
  6
CONTINUOUS
 62
    7
 10
82.749857146501526
 20
211.77000000000004
 11
82.334928573250792
 21
212.18492857325072
  0
LINE
  8
_0-1_作画層１
  6
CONTINUOUS
 62
    7
 10
81.620000000000005
 20
211.76999999999998
 11
81.949999999999989
 21
212.09999999999997
  0
LINE
  8
_0-1_作画層１
  6
CONTINUOUS
 62
    7
 10
81.949999999999989
 20
212.09999999999997
 11
82.280000000000001
 21
211.76999999999998
  0
LINE
  8
_0-1_作画層１
  6
CONTINUOUS
 62
    7
 10
82.280000000000044
 20
211.77000000000004
 11
81.950000000000045
 21
212.09999999999999
  0
LINE
  8
_0-1_作画層１
  6
CONTINUOUS
 62
    7
 10
82.25
 20
204.29999999999995
 11
82.580000000000013
 21
203.96999999999997
  0
LINE
  8
_0-1_作画層１
  6
CONTINUOUS
 62
    7
 10
82.580000000000041
 20
203.97000000000003
 11
85.880000000000038
 21
203.97000000000003
  0
LINE
  8
_0-1_作画層１
  6
CONTINUOUS
 62
    7
 10
82.580000000000041
 20
203.97000000000003
 11
82.250000000000028
 21
204.30000000000001
  0
LINE
  8
_0-1_作画層１
  6
CONTINUOUS
 62
    7
 10
82.250000000000028
 20
204.30000000000001
 11
82.580000000000041
 21
204.63000000000002
  0
LINE
  8
_0-1_作画層１
  6
CONTINUOUS
 62
    7
 10
82.580000000000041
 20
204.63000000000002
 11
85.880000000000038
 21
204.63000000000002
  0
LINE
  8
_0-1_作画層１
  6
CONTINUOUS
 62
    7
 10
85.880000000000038
 20
203.97000000000003
 11
86.210000000000051
 21
204.30000000000001
  0
LINE
  8
_0-1_作画層１
  6
CONTINUOUS
 62
    7
 10
85.880000000000038
 20
204.63000000000002
 11
86.210000000000051
 21
204.30000000000001
  0
LINE
  8
_0-1_作画層１
  6
CONTINUOUS
 62
    7
 10
86.181690475583167
 20
204.27169047558317
 11
85.823380951166328
 21
204.63000000000002
  0
LINE
  8
_0-1_作画層１
  6
CONTINUOUS
 62
    7
 10
86.088352380466603
 20
204.17835238046655
 11
85.6367047609331
 21
204.63000000000002
  0
LINE
  8
_0-1_作画層１
  6
CONTINUOUS
 62
    7
 10
85.995014285349953
 20
204.08501428534993
 11
85.450028570699885
 21
204.63000000000002
  0
LINE
  8
_0-1_作画層１
  6
CONTINUOUS
 62
    7
 10
85.901676190233346
 20
203.99167619023328
 11
85.2633523804666
 21
204.63000000000002
  0
LINE
  8
_0-1_作画層１
  6
CONTINUOUS
 62
    7
 10
85.736676190233354
 20
203.97000000000003
 11
85.076676190233371
 21
204.63000000000002
  0
LINE
  8
_0-1_作画層１
  6
CONTINUOUS
 62
    7
 10
85.550000000000139
 20
203.97000000000003
 11
84.890000000000157
 21
204.63000000000002
  0
LINE
  8
_0-1_作画層１
  6
CONTINUOUS
 62
    7
 10
85.363323809766882
 20
203.97000000000003
 11
84.7033238097669
 21
204.63000000000002
  0
LINE
  8
_0-1_作画層１
  6
CONTINUOUS
 62
    7
 10
85.176647619533668
 20
203.97000000000003
 11
84.516647619533686
 21
204.63000000000002
  0
LINE
  8
_0-1_作画層１
  6
CONTINUOUS
 62
    7
 10
84.989971429300439
 20
203.97000000000003
 11
84.329971429300457
 21
204.63000000000002
  0
LINE
  8
_0-1_作画層１
  6
CONTINUOUS
 62
    7
 10
84.803295239067225
 20
203.97000000000003
 11
84.143295239067243
 21
204.63000000000002
  0
LINE
  8
_0-1_作画層１
  6
CONTINUOUS
 62
    7
 10
84.616619048833968
 20
203.97000000000003
 11
83.956619048833957
 21
204.63000000000002
  0
LINE
  8
_0-1_作画層１
  6
CONTINUOUS
 62
    7
 10
84.429942858600711
 20
203.97000000000003
 11
83.7699428586007
 21
204.63000000000002
  0
LINE
  8
_0-1_作画層１
  6
CONTINUOUS
 62
    7
 10
84.243266668367454
 20
203.97000000000003
 11
83.583266668367443
 21
204.63000000000002
  0
LINE
  8
_0-1_作画層１
  6
CONTINUOUS
 62
    7
 10
84.05659047813424
 20
203.97000000000003
 11
83.396590478134229
 21
204.63000000000002
  0
LINE
  8
_0-1_作画層１
  6
CONTINUOUS
 62
    7
 10
83.869914287900983
 20
203.97000000000003
 11
83.209914287900972
 21
204.63000000000002
  0
LINE
  8
_0-1_作画層１
  6
CONTINUOUS
 62
    7
 10
83.683238097667726
 20
203.97000000000003
 11
83.023238097667715
 21
204.63000000000002
  0
LINE
  8
_0-1_作画層１
  6
CONTINUOUS
 62
    7
 10
83.49656190743454
 20
203.97000000000003
 11
82.836561907434529
 21
204.63000000000002
  0
LINE
  8
_0-1_作画層１
  6
CONTINUOUS
 62
    7
 10
83.309885717201297
 20
203.97000000000003
 11
82.649885717201272
 21
204.63000000000002
  0
LINE
  8
_0-1_作画層１
  6
CONTINUOUS
 62
    7
 10
83.12320952696804
 20
203.97000000000003
 11
82.521604763484021
 21
204.571604763484
  0
LINE
  8
_0-1_作画層１
  6
CONTINUOUS
 62
    7
 10
82.936533336734811
 20
203.97000000000003
 11
82.428266668367399
 21
204.47826666836741
  0
LINE
  8
_0-1_作画層１
  6
CONTINUOUS
 62
    7
 10
82.749857146501526
 20
203.97000000000003
 11
82.334928573250792
 21
204.38492857325073
  0
LINE
  8
_0-1_作画層１
  6
CONTINUOUS
 62
    7
 10
86.11999999999999
 20
211.76999999999998
 11
86.11999999999999
 21
208.46999999999997
  0
LINE
  8
_0-1_作画層１
  6
CONTINUOUS
 62
    7
 10
86.780000000000001
 20
211.76999999999998
 11
86.780000000000001
 21
208.46999999999997
  0
LINE
  8
_0-1_作画層１
  6
CONTINUOUS
 62
    7
 10
86.11999999999999
 20
208.46999999999997
 11
86.450000000000003
 21
208.13999999999996
  0
LINE
  8
_0-1_作画層１
  6
CONTINUOUS
 62
    7
 10
86.780000000000001
 20
208.46999999999997
 11
86.450000000000003
 21
208.13999999999996
  0
LINE
  8
_0-1_作画層１
  6
CONTINUOUS
 62
    7
 10
86.421690475583148
 20
208.16830952441683
 11
86.780000000000001
 21
208.52661904883365
  0
LINE
  8
_0-1_作画層１
  6
CONTINUOUS
 62
    7
 10
86.328352380466541
 20
208.26164761953342
 11
86.780000000000001
 21
208.71329523906689
  0
LINE
  8
_0-1_作画層１
  6
CONTINUOUS
 62
    7
 10
86.235014285349934
 20
208.35498571465004
 11
86.780000000000001
 21
208.89997142930011
  0
LINE
  8
_0-1_作画層１
  6
CONTINUOUS
 62
    7
 10
86.141676190233255
 20
208.44832380976669
 11
86.780000000000001
 21
209.08664761953341
  0
LINE
  8
_0-1_作画層１
  6
CONTINUOUS
 62
    7
 10
86.11999999999999
 20
208.61332380976665
 11
86.780000000000001
 21
209.27332380976659
  0
LINE
  8
_0-1_作画層１
  6
CONTINUOUS
 62
    7
 10
86.11999999999999
 20
208.79999999999987
 11
86.780000000000001
 21
209.45999999999987
  0
LINE
  8
_0-1_作画層１
  6
CONTINUOUS
 62
    7
 10
86.11999999999999
 20
208.98667619023308
 11
86.780000000000001
 21
209.64667619023311
  0
LINE
  8
_0-1_作画層１
  6
CONTINUOUS
 62
    7
 10
86.11999999999999
 20
209.17335238046635
 11
86.780000000000001
 21
209.83335238046629
  0
LINE
  8
_0-1_作画層１
  6
CONTINUOUS
 62
    7
 10
86.11999999999999
 20
209.36002857069951
 11
86.780000000000001
 21
210.02002857069957
  0
LINE
  8
_0-1_作画層１
  6
CONTINUOUS
 62
    7
 10
86.11999999999999
 20
209.54670476093278
 11
86.780000000000001
 21
210.20670476093272
  0
LINE
  8
_0-1_作画層１
  6
CONTINUOUS
 62
    7
 10
86.11999999999999
 20
209.73338095116605
 11
86.780000000000001
 21
210.39338095116605
  0
LINE
  8
_0-1_作画層１
  6
CONTINUOUS
 62
    7
 10
86.11999999999999
 20
209.92005714139927
 11
86.780000000000001
 21
210.58005714139927
  0
LINE
  8
_0-1_作画層１
  6
CONTINUOUS
 62
    7
 10
86.11999999999999
 20
210.10673333163254
 11
86.780000000000001
 21
210.76673333163254
  0
LINE
  8
_0-1_作画層１
  6
CONTINUOUS
 62
    7
 10
86.11999999999999
 20
210.29340952186575
 11
86.780000000000001
 21
210.95340952186581
  0
LINE
  8
_0-1_作画層１
  6
CONTINUOUS
 62
    7
 10
86.11999999999999
 20
210.48008571209903
 11
86.780000000000001
 21
211.14008571209902
  0
LINE
  8
_0-1_作画層１
  6
CONTINUOUS
 62
    7
 10
86.11999999999999
 20
210.6667619023323
 11
86.780000000000001
 21
211.32676190233229
  0
LINE
  8
_0-1_作画層１
  6
CONTINUOUS
 62
    7
 10
86.11999999999999
 20
210.85343809256545
 11
86.780000000000001
 21
211.51343809256545
  0
LINE
  8
_0-1_作画層１
  6
CONTINUOUS
 62
    7
 10
86.11999999999999
 20
211.04011428279873
 11
86.780000000000001
 21
211.70011428279872
  0
LINE
  8
_0-1_作画層１
  6
CONTINUOUS
 62
    7
 10
86.11999999999999
 20
211.22679047303194
 11
86.721604763483981
 21
211.828395236516
  0
LINE
  8
_0-1_作画層１
  6
CONTINUOUS
 62
    7
 10
86.11999999999999
 20
211.41346666326518
 11
86.628266668367374
 21
211.92173333163259
  0
LINE
  8
_0-1_作画層１
  6
CONTINUOUS
 62
    7
 10
86.11999999999999
 20
211.60014285349843
 11
86.534928573250752
 21
212.01507142674919
  0
LINE
  8
_0-1_作画層１
  6
CONTINUOUS
 62
    7
 10
86.11999999999999
 20
211.76999999999998
 11
86.450000000000003
 21
212.09999999999997
  0
LINE
  8
_0-1_作画層１
  6
CONTINUOUS
 62
    7
 10
86.450000000000003
 20
212.09999999999997
 11
86.780000000000001
 21
211.76999999999998
  0
LINE
  8
_0-1_作画層１
  6
CONTINUOUS
 62
    7
 10
86.780000000000044
 20
211.77000000000004
 11
86.450000000000031
 21
212.09999999999999
  0
LINE
  8
_0-1_作画層１
  6
CONTINUOUS
 62
    7
 10
86.11999999999999
 20
207.86999999999998
 11
86.11999999999999
 21
204.56999999999999
  0
LINE
  8
_0-1_作画層１
  6
CONTINUOUS
 62
    7
 10
86.780000000000001
 20
207.86999999999998
 11
86.780000000000001
 21
204.56999999999999
  0
LINE
  8
_0-1_作画層１
  6
CONTINUOUS
 62
    7
 10
86.11999999999999
 20
204.56999999999999
 11
86.450000000000003
 21
204.23999999999995
  0
LINE
  8
_0-1_作画層１
  6
CONTINUOUS
 62
    7
 10
86.780000000000001
 20
204.56999999999999
 11
86.450000000000003
 21
204.23999999999995
  0
LINE
  8
_0-1_作画層１
  6
CONTINUOUS
 62
    7
 10
86.421690475583148
 20
204.26830952441682
 11
86.780000000000001
 21
204.62661904883367
  0
LINE
  8
_0-1_作画層１
  6
CONTINUOUS
 62
    7
 10
86.328352380466541
 20
204.36164761953341
 11
86.780000000000001
 21
204.81329523906689
  0
LINE
  8
_0-1_作画層１
  6
CONTINUOUS
 62
    7
 10
86.235014285349934
 20
204.45498571465004
 11
86.780000000000001
 21
204.9999714293001
  0
LINE
  8
_0-1_作画層１
  6
CONTINUOUS
 62
    7
 10
86.141676190233255
 20
204.54832380976669
 11
86.780000000000001
 21
205.1866476195334
  0
LINE
  8
_0-1_作画層１
  6
CONTINUOUS
 62
    7
 10
86.11999999999999
 20
204.71332380976665
 11
86.780000000000001
 21
205.37332380976659
  0
LINE
  8
_0-1_作画層１
  6
CONTINUOUS
 62
    7
 10
86.11999999999999
 20
204.89999999999986
 11
86.780000000000001
 21
205.55999999999986
  0
LINE
  8
_0-1_作画層１
  6
CONTINUOUS
 62
    7
 10
86.11999999999999
 20
205.08667619023308
 11
86.780000000000001
 21
205.74667619023313
  0
LINE
  8
_0-1_作画層１
  6
CONTINUOUS
 62
    7
 10
86.11999999999999
 20
205.27335238046635
 11
86.780000000000001
 21
205.93335238046629
  0
LINE
  8
_0-1_作画層１
  6
CONTINUOUS
 62
    7
 10
86.11999999999999
 20
205.46002857069954
 11
86.780000000000001
 21
206.12002857069956
  0
LINE
  8
_0-1_作画層１
  6
CONTINUOUS
 62
    7
 10
86.11999999999999
 20
205.64670476093278
 11
86.780000000000001
 21
206.30670476093275
  0
LINE
  8
_0-1_作画層１
  6
CONTINUOUS
 62
    7
 10
86.11999999999999
 20
205.83338095116605
 11
86.780000000000001
 21
206.49338095116605
  0
LINE
  8
_0-1_作画層１
  6
CONTINUOUS
 62
    7
 10
86.11999999999999
 20
206.02005714139926
 11
86.780000000000001
 21
206.68005714139926
  0
LINE
  8
_0-1_作画層１
  6
CONTINUOUS
 62
    7
 10
86.11999999999999
 20
206.20673333163253
 11
86.780000000000001
 21
206.86673333163253
  0
LINE
  8
_0-1_作画層１
  6
CONTINUOUS
 62
    7
 10
86.11999999999999
 20
206.39340952186575
 11
86.780000000000001
 21
207.0534095218658
  0
LINE
  8
_0-1_作画層１
  6
CONTINUOUS
 62
    7
 10
86.11999999999999
 20
206.58008571209902
 11
86.780000000000001
 21
207.24008571209902
  0
LINE
  8
_0-1_作画層１
  6
CONTINUOUS
 62
    7
 10
86.11999999999999
 20
206.76676190233229
 11
86.780000000000001
 21
207.42676190233229
  0
LINE
  8
_0-1_作画層１
  6
CONTINUOUS
 62
    7
 10
86.11999999999999
 20
206.95343809256548
 11
86.780000000000001
 21
207.61343809256545
  0
LINE
  8
_0-1_作画層１
  6
CONTINUOUS
 62
    7
 10
86.11999999999999
 20
207.14011428279872
 11
86.780000000000001
 21
207.80011428279872
  0
LINE
  8
_0-1_作画層１
  6
CONTINUOUS
 62
    7
 10
86.11999999999999
 20
207.32679047303196
 11
86.721604763483981
 21
207.928395236516
  0
LINE
  8
_0-1_作画層１
  6
CONTINUOUS
 62
    7
 10
86.11999999999999
 20
207.51346666326518
 11
86.628266668367374
 21
208.02173333163259
  0
LINE
  8
_0-1_作画層１
  6
CONTINUOUS
 62
    7
 10
86.11999999999999
 20
207.70014285349845
 11
86.534928573250752
 21
208.11507142674918
  0
LINE
  8
_0-1_作画層１
  6
CONTINUOUS
 62
    7
 10
86.11999999999999
 20
207.86999999999998
 11
86.450000000000003
 21
208.19999999999996
  0
LINE
  8
_0-1_作画層１
  6
CONTINUOUS
 62
    7
 10
86.450000000000003
 20
208.19999999999996
 11
86.780000000000001
 21
207.86999999999998
  0
LINE
  8
_0-1_作画層１
  6
CONTINUOUS
 62
    7
 10
86.780000000000044
 20
207.87000000000003
 11
86.450000000000031
 21
208.19999999999999
  0
LINE
  8
_0-1_作画層１
  6
CONTINUOUS
 62
    7
 10
93.950000000000003
 20
212.09999999999997
 11
94.280000000000001
 21
211.76999999999998
  0
LINE
  8
_0-1_作画層１
  6
CONTINUOUS
 62
    7
 10
94.280000000000044
 20
211.77000000000004
 11
97.580000000000041
 21
211.77000000000004
  0
LINE
  8
_0-1_作画層１
  6
CONTINUOUS
 62
    7
 10
94.280000000000044
 20
211.77000000000004
 11
93.950000000000031
 21
212.09999999999999
  0
LINE
  8
_0-1_作画層１
  6
CONTINUOUS
 62
    7
 10
93.950000000000031
 20
212.09999999999999
 11
94.280000000000044
 21
212.43000000000001
  0
LINE
  8
_0-1_作画層１
  6
CONTINUOUS
 62
    7
 10
94.280000000000044
 20
212.43000000000001
 11
97.580000000000041
 21
212.43000000000001
  0
LINE
  8
_0-1_作画層１
  6
CONTINUOUS
 62
    7
 10
97.580000000000041
 20
211.77000000000004
 11
97.910000000000053
 21
212.09999999999999
  0
LINE
  8
_0-1_作画層１
  6
CONTINUOUS
 62
    7
 10
97.580000000000041
 20
212.43000000000001
 11
97.910000000000053
 21
212.09999999999999
  0
LINE
  8
_0-1_作画層１
  6
CONTINUOUS
 62
    7
 10
97.88169047558317
 20
212.07169047558318
 11
97.523380951166331
 21
212.43000000000001
  0
LINE
  8
_0-1_作画層１
  6
CONTINUOUS
 62
    7
 10
97.788352380466591
 20
211.97835238046656
 11
97.336704760933102
 21
212.43000000000001
  0
LINE
  8
_0-1_作画層１
  6
CONTINUOUS
 62
    7
 10
97.695014285349956
 20
211.88501428534991
 11
97.150028570699888
 21
212.43000000000001
  0
LINE
  8
_0-1_作画層１
  6
CONTINUOUS
 62
    7
 10
97.601676190233349
 20
211.79167619023329
 11
96.963352380466603
 21
212.43000000000001
  0
LINE
  8
_0-1_作画層１
  6
CONTINUOUS
 62
    7
 10
97.436676190233356
 20
211.77000000000004
 11
96.776676190233374
 21
212.43000000000001
  0
LINE
  8
_0-1_作画層１
  6
CONTINUOUS
 62
    7
 10
97.250000000000142
 20
211.77000000000004
 11
96.59000000000016
 21
212.43000000000001
  0
LINE
  8
_0-1_作画層１
  6
CONTINUOUS
 62
    7
 10
97.063323809766885
 20
211.77000000000004
 11
96.403323809766903
 21
212.43000000000001
  0
LINE
  8
_0-1_作画層１
  6
CONTINUOUS
 62
    7
 10
96.876647619533657
 20
211.77000000000004
 11
96.216647619533688
 21
212.43000000000001
  0
LINE
  8
_0-1_作画層１
  6
CONTINUOUS
 62
    7
 10
96.689971429300442
 20
211.77000000000004
 11
96.02997142930046
 21
212.43000000000001
  0
LINE
  8
_0-1_作画層１
  6
CONTINUOUS
 62
    7
 10
96.503295239067228
 20
211.77000000000004
 11
95.843295239067245
 21
212.43000000000001
  0
LINE
  8
_0-1_作画層１
  6
CONTINUOUS
 62
    7
 10
96.316619048833971
 20
211.77000000000004
 11
95.65661904883396
 21
212.43000000000001
  0
LINE
  8
_0-1_作画層１
  6
CONTINUOUS
 62
    7
 10
96.129942858600714
 20
211.77000000000004
 11
95.469942858600703
 21
212.43000000000001
  0
LINE
  8
_0-1_作画層１
  6
CONTINUOUS
 62
    7
 10
95.943266668367457
 20
211.77000000000004
 11
95.283266668367446
 21
212.43000000000001
  0
LINE
  8
_0-1_作画層１
  6
CONTINUOUS
 62
    7
 10
95.756590478134243
 20
211.77000000000004
 11
95.096590478134232
 21
212.43000000000001
  0
LINE
  8
_0-1_作画層１
  6
CONTINUOUS
 62
    7
 10
95.569914287900986
 20
211.77000000000004
 11
94.909914287900975
 21
212.43000000000001
  0
LINE
  8
_0-1_作画層１
  6
CONTINUOUS
 62
    7
 10
95.383238097667729
 20
211.77000000000004
 11
94.723238097667718
 21
212.43000000000001
  0
LINE
  8
_0-1_作画層１
  6
CONTINUOUS
 62
    7
 10
95.196561907434543
 20
211.77000000000004
 11
94.536561907434532
 21
212.43000000000001
  0
LINE
  8
_0-1_作画層１
  6
CONTINUOUS
 62
    7
 10
95.009885717201286
 20
211.77000000000004
 11
94.349885717201275
 21
212.43000000000001
  0
LINE
  8
_0-1_作画層１
  6
CONTINUOUS
 62
    7
 10
94.823209526968043
 20
211.77000000000004
 11
94.221604763484009
 21
212.37160476348399
  0
LINE
  8
_0-1_作画層１
  6
CONTINUOUS
 62
    7
 10
94.636533336734814
 20
211.77000000000004
 11
94.128266668367402
 21
212.27826666836739
  0
LINE
  8
_0-1_作画層１
  6
CONTINUOUS
 62
    7
 10
94.449857146501529
 20
211.77000000000004
 11
94.034928573250795
 21
212.18492857325072
  0
LINE
  8
_0-1_作画層１
  6
CONTINUOUS
 62
    7
 10
93.950000000000003
 20
204.29999999999995
 11
94.280000000000001
 21
203.96999999999997
  0
LINE
  8
_0-1_作画層１
  6
CONTINUOUS
 62
    7
 10
94.280000000000044
 20
203.97000000000003
 11
97.580000000000041
 21
203.97000000000003
  0
LINE
  8
_0-1_作画層１
  6
CONTINUOUS
 62
    7
 10
94.280000000000044
 20
203.97000000000003
 11
93.950000000000031
 21
204.30000000000001
  0
LINE
  8
_0-1_作画層１
  6
CONTINUOUS
 62
    7
 10
93.950000000000031
 20
204.30000000000001
 11
94.280000000000044
 21
204.63000000000002
  0
LINE
  8
_0-1_作画層１
  6
CONTINUOUS
 62
    7
 10
94.280000000000044
 20
204.63000000000002
 11
97.580000000000041
 21
204.63000000000002
  0
LINE
  8
_0-1_作画層１
  6
CONTINUOUS
 62
    7
 10
97.580000000000041
 20
203.97000000000003
 11
97.910000000000053
 21
204.30000000000001
  0
LINE
  8
_0-1_作画層１
  6
CONTINUOUS
 62
    7
 10
97.580000000000041
 20
204.63000000000002
 11
97.910000000000053
 21
204.30000000000001
  0
LINE
  8
_0-1_作画層１
  6
CONTINUOUS
 62
    7
 10
97.88169047558317
 20
204.27169047558317
 11
97.523380951166331
 21
204.63000000000002
  0
LINE
  8
_0-1_作画層１
  6
CONTINUOUS
 62
    7
 10
97.788352380466591
 20
204.17835238046655
 11
97.336704760933102
 21
204.63000000000002
  0
LINE
  8
_0-1_作画層１
  6
CONTINUOUS
 62
    7
 10
97.695014285349956
 20
204.08501428534993
 11
97.150028570699888
 21
204.63000000000002
  0
LINE
  8
_0-1_作画層１
  6
CONTINUOUS
 62
    7
 10
97.601676190233349
 20
203.99167619023328
 11
96.963352380466603
 21
204.63000000000002
  0
LINE
  8
_0-1_作画層１
  6
CONTINUOUS
 62
    7
 10
97.436676190233356
 20
203.97000000000003
 11
96.776676190233374
 21
204.63000000000002
  0
LINE
  8
_0-1_作画層１
  6
CONTINUOUS
 62
    7
 10
97.250000000000142
 20
203.97000000000003
 11
96.59000000000016
 21
204.63000000000002
  0
LINE
  8
_0-1_作画層１
  6
CONTINUOUS
 62
    7
 10
97.063323809766885
 20
203.97000000000003
 11
96.403323809766903
 21
204.63000000000002
  0
LINE
  8
_0-1_作画層１
  6
CONTINUOUS
 62
    7
 10
96.876647619533657
 20
203.97000000000003
 11
96.216647619533688
 21
204.63000000000002
  0
LINE
  8
_0-1_作画層１
  6
CONTINUOUS
 62
    7
 10
96.689971429300442
 20
203.97000000000003
 11
96.02997142930046
 21
204.63000000000002
  0
LINE
  8
_0-1_作画層１
  6
CONTINUOUS
 62
    7
 10
96.503295239067228
 20
203.97000000000003
 11
95.843295239067245
 21
204.63000000000002
  0
LINE
  8
_0-1_作画層１
  6
CONTINUOUS
 62
    7
 10
96.316619048833971
 20
203.97000000000003
 11
95.65661904883396
 21
204.63000000000002
  0
LINE
  8
_0-1_作画層１
  6
CONTINUOUS
 62
    7
 10
96.129942858600714
 20
203.97000000000003
 11
95.469942858600703
 21
204.63000000000002
  0
LINE
  8
_0-1_作画層１
  6
CONTINUOUS
 62
    7
 10
95.943266668367457
 20
203.97000000000003
 11
95.283266668367446
 21
204.63000000000002
  0
LINE
  8
_0-1_作画層１
  6
CONTINUOUS
 62
    7
 10
95.756590478134243
 20
203.97000000000003
 11
95.096590478134232
 21
204.63000000000002
  0
LINE
  8
_0-1_作画層１
  6
CONTINUOUS
 62
    7
 10
95.569914287900986
 20
203.97000000000003
 11
94.909914287900975
 21
204.63000000000002
  0
LINE
  8
_0-1_作画層１
  6
CONTINUOUS
 62
    7
 10
95.383238097667729
 20
203.97000000000003
 11
94.723238097667718
 21
204.63000000000002
  0
LINE
  8
_0-1_作画層１
  6
CONTINUOUS
 62
    7
 10
95.196561907434543
 20
203.97000000000003
 11
94.536561907434532
 21
204.63000000000002
  0
LINE
  8
_0-1_作画層１
  6
CONTINUOUS
 62
    7
 10
95.009885717201286
 20
203.97000000000003
 11
94.349885717201275
 21
204.63000000000002
  0
LINE
  8
_0-1_作画層１
  6
CONTINUOUS
 62
    7
 10
94.823209526968043
 20
203.97000000000003
 11
94.221604763484009
 21
204.571604763484
  0
LINE
  8
_0-1_作画層１
  6
CONTINUOUS
 62
    7
 10
94.636533336734814
 20
203.97000000000003
 11
94.128266668367402
 21
204.47826666836741
  0
LINE
  8
_0-1_作画層１
  6
CONTINUOUS
 62
    7
 10
94.449857146501529
 20
203.97000000000003
 11
94.034928573250795
 21
204.38492857325073
  0
LINE
  8
_0-1_作画層１
  6
CONTINUOUS
 62
    7
 10
97.819999999999993
 20
211.76999999999998
 11
97.819999999999993
 21
208.46999999999997
  0
LINE
  8
_0-1_作画層１
  6
CONTINUOUS
 62
    7
 10
98.480000000000004
 20
211.76999999999998
 11
98.480000000000004
 21
208.46999999999997
  0
LINE
  8
_0-1_作画層１
  6
CONTINUOUS
 62
    7
 10
97.819999999999993
 20
208.46999999999997
 11
98.150000000000006
 21
208.13999999999996
  0
LINE
  8
_0-1_作画層１
  6
CONTINUOUS
 62
    7
 10
98.480000000000004
 20
208.46999999999997
 11
98.150000000000006
 21
208.13999999999996
  0
LINE
  8
_0-1_作画層１
  6
CONTINUOUS
 62
    7
 10
98.121690475583151
 20
208.16830952441683
 11
98.480000000000004
 21
208.52661904883365
  0
LINE
  8
_0-1_作画層１
  6
CONTINUOUS
 62
    7
 10
98.028352380466544
 20
208.26164761953342
 11
98.480000000000004
 21
208.71329523906689
  0
LINE
  8
_0-1_作画層１
  6
CONTINUOUS
 62
    7
 10
97.935014285349936
 20
208.35498571465004
 11
98.480000000000004
 21
208.89997142930011
  0
LINE
  8
_0-1_作画層１
  6
CONTINUOUS
 62
    7
 10
97.841676190233258
 20
208.44832380976669
 11
98.480000000000004
 21
209.08664761953341
  0
LINE
  8
_0-1_作画層１
  6
CONTINUOUS
 62
    7
 10
97.819999999999993
 20
208.61332380976665
 11
98.480000000000004
 21
209.27332380976659
  0
LINE
  8
_0-1_作画層１
  6
CONTINUOUS
 62
    7
 10
97.819999999999993
 20
208.79999999999987
 11
98.480000000000004
 21
209.45999999999987
  0
LINE
  8
_0-1_作画層１
  6
CONTINUOUS
 62
    7
 10
97.819999999999993
 20
208.98667619023308
 11
98.480000000000004
 21
209.64667619023311
  0
LINE
  8
_0-1_作画層１
  6
CONTINUOUS
 62
    7
 10
97.819999999999993
 20
209.17335238046635
 11
98.480000000000004
 21
209.83335238046629
  0
LINE
  8
_0-1_作画層１
  6
CONTINUOUS
 62
    7
 10
97.819999999999993
 20
209.36002857069951
 11
98.480000000000004
 21
210.02002857069957
  0
LINE
  8
_0-1_作画層１
  6
CONTINUOUS
 62
    7
 10
97.819999999999993
 20
209.54670476093278
 11
98.480000000000004
 21
210.20670476093272
  0
LINE
  8
_0-1_作画層１
  6
CONTINUOUS
 62
    7
 10
97.819999999999993
 20
209.73338095116605
 11
98.480000000000004
 21
210.39338095116605
  0
LINE
  8
_0-1_作画層１
  6
CONTINUOUS
 62
    7
 10
97.819999999999993
 20
209.92005714139927
 11
98.480000000000004
 21
210.58005714139927
  0
LINE
  8
_0-1_作画層１
  6
CONTINUOUS
 62
    7
 10
97.819999999999993
 20
210.10673333163254
 11
98.480000000000004
 21
210.76673333163254
  0
LINE
  8
_0-1_作画層１
  6
CONTINUOUS
 62
    7
 10
97.819999999999993
 20
210.29340952186575
 11
98.480000000000004
 21
210.95340952186581
  0
LINE
  8
_0-1_作画層１
  6
CONTINUOUS
 62
    7
 10
97.819999999999993
 20
210.48008571209903
 11
98.480000000000004
 21
211.14008571209902
  0
LINE
  8
_0-1_作画層１
  6
CONTINUOUS
 62
    7
 10
97.819999999999993
 20
210.6667619023323
 11
98.480000000000004
 21
211.32676190233229
  0
LINE
  8
_0-1_作画層１
  6
CONTINUOUS
 62
    7
 10
97.819999999999993
 20
210.85343809256545
 11
98.480000000000004
 21
211.51343809256545
  0
LINE
  8
_0-1_作画層１
  6
CONTINUOUS
 62
    7
 10
97.819999999999993
 20
211.04011428279873
 11
98.480000000000004
 21
211.70011428279872
  0
LINE
  8
_0-1_作画層１
  6
CONTINUOUS
 62
    7
 10
97.819999999999993
 20
211.22679047303194
 11
98.421604763483984
 21
211.828395236516
  0
LINE
  8
_0-1_作画層１
  6
CONTINUOUS
 62
    7
 10
97.819999999999993
 20
211.41346666326518
 11
98.328266668367377
 21
211.92173333163259
  0
LINE
  8
_0-1_作画層１
  6
CONTINUOUS
 62
    7
 10
97.819999999999993
 20
211.60014285349843
 11
98.234928573250755
 21
212.01507142674919
  0
LINE
  8
_0-1_作画層１
  6
CONTINUOUS
 62
    7
 10
97.819999999999993
 20
211.76999999999998
 11
98.150000000000006
 21
212.09999999999997
  0
LINE
  8
_0-1_作画層１
  6
CONTINUOUS
 62
    7
 10
98.150000000000006
 20
212.09999999999997
 11
98.480000000000004
 21
211.76999999999998
  0
LINE
  8
_0-1_作画層１
  6
CONTINUOUS
 62
    7
 10
98.480000000000047
 20
211.77000000000004
 11
98.150000000000034
 21
212.09999999999999
  0
LINE
  8
_0-1_作画層１
  6
CONTINUOUS
 62
    7
 10
97.819999999999993
 20
207.86999999999998
 11
97.819999999999993
 21
204.56999999999999
  0
LINE
  8
_0-1_作画層１
  6
CONTINUOUS
 62
    7
 10
98.480000000000004
 20
207.86999999999998
 11
98.480000000000004
 21
204.56999999999999
  0
LINE
  8
_0-1_作画層１
  6
CONTINUOUS
 62
    7
 10
97.819999999999993
 20
204.56999999999999
 11
98.150000000000006
 21
204.23999999999995
  0
LINE
  8
_0-1_作画層１
  6
CONTINUOUS
 62
    7
 10
98.480000000000004
 20
204.56999999999999
 11
98.150000000000006
 21
204.23999999999995
  0
LINE
  8
_0-1_作画層１
  6
CONTINUOUS
 62
    7
 10
98.121690475583151
 20
204.26830952441682
 11
98.480000000000004
 21
204.62661904883367
  0
LINE
  8
_0-1_作画層１
  6
CONTINUOUS
 62
    7
 10
98.028352380466544
 20
204.36164761953341
 11
98.480000000000004
 21
204.81329523906689
  0
LINE
  8
_0-1_作画層１
  6
CONTINUOUS
 62
    7
 10
97.935014285349936
 20
204.45498571465004
 11
98.480000000000004
 21
204.9999714293001
  0
LINE
  8
_0-1_作画層１
  6
CONTINUOUS
 62
    7
 10
97.841676190233258
 20
204.54832380976669
 11
98.480000000000004
 21
205.1866476195334
  0
LINE
  8
_0-1_作画層１
  6
CONTINUOUS
 62
    7
 10
97.819999999999993
 20
204.71332380976665
 11
98.480000000000004
 21
205.37332380976659
  0
LINE
  8
_0-1_作画層１
  6
CONTINUOUS
 62
    7
 10
97.819999999999993
 20
204.89999999999986
 11
98.480000000000004
 21
205.55999999999986
  0
LINE
  8
_0-1_作画層１
  6
CONTINUOUS
 62
    7
 10
97.819999999999993
 20
205.08667619023308
 11
98.480000000000004
 21
205.74667619023313
  0
LINE
  8
_0-1_作画層１
  6
CONTINUOUS
 62
    7
 10
97.819999999999993
 20
205.27335238046635
 11
98.480000000000004
 21
205.93335238046629
  0
LINE
  8
_0-1_作画層１
  6
CONTINUOUS
 62
    7
 10
97.819999999999993
 20
205.46002857069954
 11
98.480000000000004
 21
206.12002857069956
  0
LINE
  8
_0-1_作画層１
  6
CONTINUOUS
 62
    7
 10
97.819999999999993
 20
205.64670476093278
 11
98.480000000000004
 21
206.30670476093275
  0
LINE
  8
_0-1_作画層１
  6
CONTINUOUS
 62
    7
 10
97.819999999999993
 20
205.83338095116605
 11
98.480000000000004
 21
206.49338095116605
  0
LINE
  8
_0-1_作画層１
  6
CONTINUOUS
 62
    7
 10
97.819999999999993
 20
206.02005714139926
 11
98.480000000000004
 21
206.68005714139926
  0
LINE
  8
_0-1_作画層１
  6
CONTINUOUS
 62
    7
 10
97.819999999999993
 20
206.20673333163253
 11
98.480000000000004
 21
206.86673333163253
  0
LINE
  8
_0-1_作画層１
  6
CONTINUOUS
 62
    7
 10
97.819999999999993
 20
206.39340952186575
 11
98.480000000000004
 21
207.0534095218658
  0
LINE
  8
_0-1_作画層１
  6
CONTINUOUS
 62
    7
 10
97.819999999999993
 20
206.58008571209902
 11
98.480000000000004
 21
207.24008571209902
  0
LINE
  8
_0-1_作画層１
  6
CONTINUOUS
 62
    7
 10
97.819999999999993
 20
206.76676190233229
 11
98.480000000000004
 21
207.42676190233229
  0
LINE
  8
_0-1_作画層１
  6
CONTINUOUS
 62
    7
 10
97.819999999999993
 20
206.95343809256548
 11
98.480000000000004
 21
207.61343809256545
  0
LINE
  8
_0-1_作画層１
  6
CONTINUOUS
 62
    7
 10
97.819999999999993
 20
207.14011428279872
 11
98.480000000000004
 21
207.80011428279872
  0
LINE
  8
_0-1_作画層１
  6
CONTINUOUS
 62
    7
 10
97.819999999999993
 20
207.32679047303196
 11
98.421604763483984
 21
207.928395236516
  0
LINE
  8
_0-1_作画層１
  6
CONTINUOUS
 62
    7
 10
97.819999999999993
 20
207.51346666326518
 11
98.328266668367377
 21
208.02173333163259
  0
LINE
  8
_0-1_作画層１
  6
CONTINUOUS
 62
    7
 10
97.819999999999993
 20
207.70014285349845
 11
98.234928573250755
 21
208.11507142674918
  0
LINE
  8
_0-1_作画層１
  6
CONTINUOUS
 62
    7
 10
97.819999999999993
 20
207.86999999999998
 11
98.150000000000006
 21
208.19999999999996
  0
LINE
  8
_0-1_作画層１
  6
CONTINUOUS
 62
    7
 10
98.150000000000006
 20
208.19999999999996
 11
98.480000000000004
 21
207.86999999999998
  0
LINE
  8
_0-1_作画層１
  6
CONTINUOUS
 62
    7
 10
98.480000000000047
 20
207.87000000000003
 11
98.150000000000034
 21
208.19999999999999
  0
LINE
  8
_0-1_作画層１
  6
CONTINUOUS
 62
    7
 10
101.11999999999999
 20
211.76999999999998
 11
101.11999999999999
 21
208.46999999999997
  0
LINE
  8
_0-1_作画層１
  6
CONTINUOUS
 62
    7
 10
101.78
 20
211.76999999999998
 11
101.78
 21
208.46999999999997
  0
LINE
  8
_0-1_作画層１
  6
CONTINUOUS
 62
    7
 10
101.11999999999999
 20
208.46999999999997
 11
101.45
 21
208.13999999999996
  0
LINE
  8
_0-1_作画層１
  6
CONTINUOUS
 62
    7
 10
101.78
 20
208.46999999999997
 11
101.45
 21
208.13999999999996
  0
LINE
  8
_0-1_作画層１
  6
CONTINUOUS
 62
    7
 10
101.42169047558315
 20
208.16830952441683
 11
101.78
 21
208.52661904883365
  0
LINE
  8
_0-1_作画層１
  6
CONTINUOUS
 62
    7
 10
101.32835238046654
 20
208.26164761953342
 11
101.78
 21
208.71329523906689
  0
LINE
  8
_0-1_作画層１
  6
CONTINUOUS
 62
    7
 10
101.23501428534993
 20
208.35498571465004
 11
101.78
 21
208.89997142930011
  0
LINE
  8
_0-1_作画層１
  6
CONTINUOUS
 62
    7
 10
101.14167619023326
 20
208.44832380976669
 11
101.78
 21
209.08664761953341
  0
LINE
  8
_0-1_作画層１
  6
CONTINUOUS
 62
    7
 10
101.11999999999999
 20
208.61332380976665
 11
101.78
 21
209.27332380976659
  0
LINE
  8
_0-1_作画層１
  6
CONTINUOUS
 62
    7
 10
101.11999999999999
 20
208.79999999999987
 11
101.78
 21
209.45999999999987
  0
LINE
  8
_0-1_作画層１
  6
CONTINUOUS
 62
    7
 10
101.11999999999999
 20
208.98667619023308
 11
101.78
 21
209.64667619023311
  0
LINE
  8
_0-1_作画層１
  6
CONTINUOUS
 62
    7
 10
101.11999999999999
 20
209.17335238046635
 11
101.78
 21
209.83335238046629
  0
LINE
  8
_0-1_作画層１
  6
CONTINUOUS
 62
    7
 10
101.11999999999999
 20
209.36002857069951
 11
101.78
 21
210.02002857069957
  0
LINE
  8
_0-1_作画層１
  6
CONTINUOUS
 62
    7
 10
101.11999999999999
 20
209.54670476093278
 11
101.78
 21
210.20670476093272
  0
LINE
  8
_0-1_作画層１
  6
CONTINUOUS
 62
    7
 10
101.11999999999999
 20
209.73338095116605
 11
101.78
 21
210.39338095116605
  0
LINE
  8
_0-1_作画層１
  6
CONTINUOUS
 62
    7
 10
101.11999999999999
 20
209.92005714139927
 11
101.78
 21
210.58005714139927
  0
LINE
  8
_0-1_作画層１
  6
CONTINUOUS
 62
    7
 10
101.11999999999999
 20
210.10673333163254
 11
101.78
 21
210.76673333163254
  0
LINE
  8
_0-1_作画層１
  6
CONTINUOUS
 62
    7
 10
101.11999999999999
 20
210.29340952186575
 11
101.78
 21
210.95340952186581
  0
LINE
  8
_0-1_作画層１
  6
CONTINUOUS
 62
    7
 10
101.11999999999999
 20
210.48008571209903
 11
101.78
 21
211.14008571209902
  0
LINE
  8
_0-1_作画層１
  6
CONTINUOUS
 62
    7
 10
101.11999999999999
 20
210.6667619023323
 11
101.78
 21
211.32676190233229
  0
LINE
  8
_0-1_作画層１
  6
CONTINUOUS
 62
    7
 10
101.11999999999999
 20
210.85343809256545
 11
101.78
 21
211.51343809256545
  0
LINE
  8
_0-1_作画層１
  6
CONTINUOUS
 62
    7
 10
101.11999999999999
 20
211.04011428279873
 11
101.78
 21
211.70011428279872
  0
LINE
  8
_0-1_作画層１
  6
CONTINUOUS
 62
    7
 10
101.11999999999999
 20
211.22679047303194
 11
101.72160476348398
 21
211.828395236516
  0
LINE
  8
_0-1_作画層１
  6
CONTINUOUS
 62
    7
 10
101.11999999999999
 20
211.41346666326518
 11
101.62826666836737
 21
211.92173333163259
  0
LINE
  8
_0-1_作画層１
  6
CONTINUOUS
 62
    7
 10
101.11999999999999
 20
211.60014285349843
 11
101.53492857325075
 21
212.01507142674919
  0
LINE
  8
_0-1_作画層１
  6
CONTINUOUS
 62
    7
 10
101.11999999999999
 20
207.80999999999995
 11
101.11999999999999
 21
204.50999999999993
  0
LINE
  8
_0-1_作画層１
  6
CONTINUOUS
 62
    7
 10
101.11999999999999
 20
207.80999999999995
 11
101.45
 21
208.13999999999996
  0
LINE
  8
_0-1_作画層１
  6
CONTINUOUS
 62
    7
 10
101.45
 20
208.13999999999996
 11
101.78
 21
207.80999999999995
  0
LINE
  8
_0-1_作画層１
  6
CONTINUOUS
 62
    7
 10
101.78
 20
207.80999999999995
 11
101.78
 21
204.50999999999993
  0
LINE
  8
_0-1_作画層１
  6
CONTINUOUS
 62
    7
 10
101.11999999999999
 20
204.50999999999993
 11
101.45
 21
204.17999999999998
  0
LINE
  8
_0-1_作画層１
  6
CONTINUOUS
 62
    7
 10
101.78
 20
204.50999999999993
 11
101.45
 21
204.17999999999998
  0
LINE
  8
_0-1_作画層１
  6
CONTINUOUS
 62
    7
 10
101.42169047558315
 20
204.20830952441685
 11
101.78
 21
204.56661904883367
  0
LINE
  8
_0-1_作画層１
  6
CONTINUOUS
 62
    7
 10
101.32835238046654
 20
204.30164761953341
 11
101.78
 21
204.75329523906694
  0
LINE
  8
_0-1_作画層１
  6
CONTINUOUS
 62
    7
 10
101.23501428534993
 20
204.39498571465006
 11
101.78
 21
204.9399714293001
  0
LINE
  8
_0-1_作画層１
  6
CONTINUOUS
 62
    7
 10
101.14167619023326
 20
204.48832380976665
 11
101.78
 21
205.12664761953343
  0
LINE
  8
_0-1_作画層１
  6
CONTINUOUS
 62
    7
 10
101.11999999999999
 20
204.65332380976662
 11
101.78
 21
205.31332380976664
  0
LINE
  8
_0-1_作画層１
  6
CONTINUOUS
 62
    7
 10
101.11999999999999
 20
204.83999999999986
 11
101.78
 21
205.49999999999986
  0
LINE
  8
_0-1_作画層１
  6
CONTINUOUS
 62
    7
 10
101.11999999999999
 20
205.0266761902331
 11
101.78
 21
205.68667619023307
  0
LINE
  8
_0-1_作画層１
  6
CONTINUOUS
 62
    7
 10
101.11999999999999
 20
205.21335238046632
 11
101.78
 21
205.87335238046634
  0
LINE
  8
_0-1_作画層１
  6
CONTINUOUS
 62
    7
 10
101.11999999999999
 20
205.40002857069953
 11
101.78
 21
206.06002857069953
  0
LINE
  8
_0-1_作画層１
  6
CONTINUOUS
 62
    7
 10
101.11999999999999
 20
205.58670476093275
 11
101.78
 21
206.2467047609328
  0
LINE
  8
_0-1_作画層１
  6
CONTINUOUS
 62
    7
 10
101.11999999999999
 20
205.77338095116602
 11
101.78
 21
206.43338095116604
  0
LINE
  8
_0-1_作画層１
  6
CONTINUOUS
 62
    7
 10
101.11999999999999
 20
205.96005714139929
 11
101.78
 21
206.62005714139929
  0
LINE
  8
_0-1_作画層１
  6
CONTINUOUS
 62
    7
 10
101.11999999999999
 20
206.14673333163256
 11
101.78
 21
206.80673333163253
  0
LINE
  8
_0-1_作画層１
  6
CONTINUOUS
 62
    7
 10
101.11999999999999
 20
206.33340952186578
 11
101.78
 21
206.99340952186577
  0
LINE
  8
_0-1_作画層１
  6
CONTINUOUS
 62
    7
 10
101.11999999999999
 20
206.52008571209905
 11
101.78
 21
207.18008571209901
  0
LINE
  8
_0-1_作画層１
  6
CONTINUOUS
 62
    7
 10
101.11999999999999
 20
206.70676190233226
 11
101.78
 21
207.36676190233229
  0
LINE
  8
_0-1_作画層１
  6
CONTINUOUS
 62
    7
 10
101.11999999999999
 20
206.89343809256548
 11
101.78
 21
207.55343809256547
  0
LINE
  8
_0-1_作画層１
  6
CONTINUOUS
 62
    7
 10
101.11999999999999
 20
207.08011428279869
 11
101.78
 21
207.74011428279874
  0
LINE
  8
_0-1_作画層１
  6
CONTINUOUS
 62
    7
 10
101.11999999999999
 20
207.26679047303196
 11
101.72160476348398
 21
207.86839523651597
  0
LINE
  8
_0-1_作画層１
  6
CONTINUOUS
 62
    7
 10
101.11999999999999
 20
207.45346666326523
 11
101.62826666836737
 21
207.96173333163262
  0
LINE
  8
_0-1_作画層１
  6
CONTINUOUS
 62
    7
 10
101.11999999999999
 20
207.64014285349845
 11
101.53492857325075
 21
208.05507142674918
  0
LINE
  8
_0-1_作画層１
  6
CONTINUOUS
 62
    7
 10
101.75
 20
212.09999999999997
 11
102.08000000000001
 21
211.76999999999998
  0
LINE
  8
_0-1_作画層１
  6
CONTINUOUS
 62
    7
 10
102.08000000000004
 20
211.77000000000004
 11
105.38000000000004
 21
211.77000000000004
  0
LINE
  8
_0-1_作画層１
  6
CONTINUOUS
 62
    7
 10
102.08000000000004
 20
211.77000000000004
 11
101.75000000000003
 21
212.09999999999999
  0
LINE
  8
_0-1_作画層１
  6
CONTINUOUS
 62
    7
 10
101.75000000000003
 20
212.09999999999999
 11
102.08000000000004
 21
212.43000000000001
  0
LINE
  8
_0-1_作画層１
  6
CONTINUOUS
 62
    7
 10
102.08000000000004
 20
212.43000000000001
 11
105.38000000000004
 21
212.43000000000001
  0
LINE
  8
_0-1_作画層１
  6
CONTINUOUS
 62
    7
 10
105.38000000000004
 20
211.77000000000004
 11
105.71000000000005
 21
212.09999999999999
  0
LINE
  8
_0-1_作画層１
  6
CONTINUOUS
 62
    7
 10
105.38000000000004
 20
212.43000000000001
 11
105.71000000000005
 21
212.09999999999999
  0
LINE
  8
_0-1_作画層１
  6
CONTINUOUS
 62
    7
 10
105.68169047558317
 20
212.07169047558318
 11
105.32338095116633
 21
212.43000000000001
  0
LINE
  8
_0-1_作画層１
  6
CONTINUOUS
 62
    7
 10
105.5883523804666
 20
211.97835238046656
 11
105.1367047609331
 21
212.43000000000001
  0
LINE
  8
_0-1_作画層１
  6
CONTINUOUS
 62
    7
 10
105.49501428534995
 20
211.88501428534991
 11
104.95002857069989
 21
212.43000000000001
  0
LINE
  8
_0-1_作画層１
  6
CONTINUOUS
 62
    7
 10
105.40167619023335
 20
211.79167619023329
 11
104.7633523804666
 21
212.43000000000001
  0
LINE
  8
_0-1_作画層１
  6
CONTINUOUS
 62
    7
 10
105.23667619023335
 20
211.77000000000004
 11
104.57667619023337
 21
212.43000000000001
  0
LINE
  8
_0-1_作画層１
  6
CONTINUOUS
 62
    7
 10
105.05000000000014
 20
211.77000000000004
 11
104.39000000000016
 21
212.43000000000001
  0
LINE
  8
_0-1_作画層１
  6
CONTINUOUS
 62
    7
 10
104.86332380976688
 20
211.77000000000004
 11
104.2033238097669
 21
212.43000000000001
  0
LINE
  8
_0-1_作画層１
  6
CONTINUOUS
 62
    7
 10
104.67664761953367
 20
211.77000000000004
 11
104.01664761953369
 21
212.43000000000001
  0
LINE
  8
_0-1_作画層１
  6
CONTINUOUS
 62
    7
 10
104.48997142930044
 20
211.77000000000004
 11
103.82997142930046
 21
212.43000000000001
  0
LINE
  8
_0-1_作画層１
  6
CONTINUOUS
 62
    7
 10
104.30329523906722
 20
211.77000000000004
 11
103.64329523906724
 21
212.43000000000001
  0
LINE
  8
_0-1_作画層１
  6
CONTINUOUS
 62
    7
 10
104.11661904883397
 20
211.77000000000004
 11
103.45661904883396
 21
212.43000000000001
  0
LINE
  8
_0-1_作画層１
  6
CONTINUOUS
 62
    7
 10
103.92994285860071
 20
211.77000000000004
 11
103.2699428586007
 21
212.43000000000001
  0
LINE
  8
_0-1_作画層１
  6
CONTINUOUS
 62
    7
 10
103.74326666836745
 20
211.77000000000004
 11
103.08326666836744
 21
212.43000000000001
  0
LINE
  8
_0-1_作画層１
  6
CONTINUOUS
 62
    7
 10
103.55659047813424
 20
211.77000000000004
 11
102.89659047813423
 21
212.43000000000001
  0
LINE
  8
_0-1_作画層１
  6
CONTINUOUS
 62
    7
 10
103.36991428790098
 20
211.77000000000004
 11
102.70991428790097
 21
212.43000000000001
  0
LINE
  8
_0-1_作画層１
  6
CONTINUOUS
 62
    7
 10
103.18323809766773
 20
211.77000000000004
 11
102.52323809766771
 21
212.43000000000001
  0
LINE
  8
_0-1_作画層１
  6
CONTINUOUS
 62
    7
 10
102.99656190743454
 20
211.77000000000004
 11
102.33656190743453
 21
212.43000000000001
  0
LINE
  8
_0-1_作画層１
  6
CONTINUOUS
 62
    7
 10
102.8098857172013
 20
211.77000000000004
 11
102.14988571720127
 21
212.43000000000001
  0
LINE
  8
_0-1_作画層１
  6
CONTINUOUS
 62
    7
 10
102.62320952696804
 20
211.77000000000004
 11
102.02160476348402
 21
212.37160476348399
  0
LINE
  8
_0-1_作画層１
  6
CONTINUOUS
 62
    7
 10
102.43653333673481
 20
211.77000000000004
 11
101.9282666683674
 21
212.27826666836739
  0
LINE
  8
_0-1_作画層１
  6
CONTINUOUS
 62
    7
 10
102.24985714650153
 20
211.77000000000004
 11
101.83492857325079
 21
212.18492857325072
  0
LINE
  8
_0-1_作画層１
  6
CONTINUOUS
 62
    7
 10
101.11999999999999
 20
211.76999999999998
 11
101.45
 21
212.09999999999997
  0
LINE
  8
_0-1_作画層１
  6
CONTINUOUS
 62
    7
 10
101.45
 20
212.09999999999997
 11
101.78
 21
211.76999999999998
  0
LINE
  8
_0-1_作画層１
  6
CONTINUOUS
 62
    7
 10
101.78000000000004
 20
211.77000000000004
 11
101.45000000000003
 21
212.09999999999999
  0
LINE
  8
_0-1_作画層１
  6
CONTINUOUS
 62
    7
 10
101.75
 20
204.29999999999995
 11
102.08000000000001
 21
203.96999999999997
  0
LINE
  8
_0-1_作画層１
  6
CONTINUOUS
 62
    7
 10
102.08000000000004
 20
203.97000000000003
 11
105.38000000000004
 21
203.97000000000003
  0
LINE
  8
_0-1_作画層１
  6
CONTINUOUS
 62
    7
 10
102.08000000000004
 20
203.97000000000003
 11
101.75000000000003
 21
204.30000000000001
  0
LINE
  8
_0-1_作画層１
  6
CONTINUOUS
 62
    7
 10
101.75000000000003
 20
204.30000000000001
 11
102.08000000000004
 21
204.63000000000002
  0
LINE
  8
_0-1_作画層１
  6
CONTINUOUS
 62
    7
 10
102.08000000000004
 20
204.63000000000002
 11
105.38000000000004
 21
204.63000000000002
  0
LINE
  8
_0-1_作画層１
  6
CONTINUOUS
 62
    7
 10
105.38000000000004
 20
203.97000000000003
 11
105.71000000000005
 21
204.30000000000001
  0
LINE
  8
_0-1_作画層１
  6
CONTINUOUS
 62
    7
 10
105.38000000000004
 20
204.63000000000002
 11
105.71000000000005
 21
204.30000000000001
  0
LINE
  8
_0-1_作画層１
  6
CONTINUOUS
 62
    7
 10
105.68169047558317
 20
204.27169047558317
 11
105.32338095116633
 21
204.63000000000002
  0
LINE
  8
_0-1_作画層１
  6
CONTINUOUS
 62
    7
 10
105.5883523804666
 20
204.17835238046655
 11
105.1367047609331
 21
204.63000000000002
  0
LINE
  8
_0-1_作画層１
  6
CONTINUOUS
 62
    7
 10
105.49501428534995
 20
204.08501428534993
 11
104.95002857069989
 21
204.63000000000002
  0
LINE
  8
_0-1_作画層１
  6
CONTINUOUS
 62
    7
 10
105.40167619023335
 20
203.99167619023328
 11
104.7633523804666
 21
204.63000000000002
  0
LINE
  8
_0-1_作画層１
  6
CONTINUOUS
 62
    7
 10
105.23667619023335
 20
203.97000000000003
 11
104.57667619023337
 21
204.63000000000002
  0
LINE
  8
_0-1_作画層１
  6
CONTINUOUS
 62
    7
 10
105.05000000000014
 20
203.97000000000003
 11
104.39000000000016
 21
204.63000000000002
  0
LINE
  8
_0-1_作画層１
  6
CONTINUOUS
 62
    7
 10
104.86332380976688
 20
203.97000000000003
 11
104.2033238097669
 21
204.63000000000002
  0
LINE
  8
_0-1_作画層１
  6
CONTINUOUS
 62
    7
 10
104.67664761953367
 20
203.97000000000003
 11
104.01664761953369
 21
204.63000000000002
  0
LINE
  8
_0-1_作画層１
  6
CONTINUOUS
 62
    7
 10
104.48997142930044
 20
203.97000000000003
 11
103.82997142930046
 21
204.63000000000002
  0
LINE
  8
_0-1_作画層１
  6
CONTINUOUS
 62
    7
 10
104.30329523906722
 20
203.97000000000003
 11
103.64329523906724
 21
204.63000000000002
  0
LINE
  8
_0-1_作画層１
  6
CONTINUOUS
 62
    7
 10
104.11661904883397
 20
203.97000000000003
 11
103.45661904883396
 21
204.63000000000002
  0
LINE
  8
_0-1_作画層１
  6
CONTINUOUS
 62
    7
 10
103.92994285860071
 20
203.97000000000003
 11
103.2699428586007
 21
204.63000000000002
  0
LINE
  8
_0-1_作画層１
  6
CONTINUOUS
 62
    7
 10
103.74326666836745
 20
203.97000000000003
 11
103.08326666836744
 21
204.63000000000002
  0
LINE
  8
_0-1_作画層１
  6
CONTINUOUS
 62
    7
 10
103.55659047813424
 20
203.97000000000003
 11
102.89659047813423
 21
204.63000000000002
  0
LINE
  8
_0-1_作画層１
  6
CONTINUOUS
 62
    7
 10
103.36991428790098
 20
203.97000000000003
 11
102.70991428790097
 21
204.63000000000002
  0
LINE
  8
_0-1_作画層１
  6
CONTINUOUS
 62
    7
 10
103.18323809766773
 20
203.97000000000003
 11
102.52323809766771
 21
204.63000000000002
  0
LINE
  8
_0-1_作画層１
  6
CONTINUOUS
 62
    7
 10
102.99656190743454
 20
203.97000000000003
 11
102.33656190743453
 21
204.63000000000002
  0
LINE
  8
_0-1_作画層１
  6
CONTINUOUS
 62
    7
 10
102.8098857172013
 20
203.97000000000003
 11
102.14988571720127
 21
204.63000000000002
  0
LINE
  8
_0-1_作画層１
  6
CONTINUOUS
 62
    7
 10
102.62320952696804
 20
203.97000000000003
 11
102.02160476348402
 21
204.571604763484
  0
LINE
  8
_0-1_作画層１
  6
CONTINUOUS
 62
    7
 10
102.43653333673481
 20
203.97000000000003
 11
101.9282666683674
 21
204.47826666836741
  0
LINE
  8
_0-1_作画層１
  6
CONTINUOUS
 62
    7
 10
102.24985714650153
 20
203.97000000000003
 11
101.83492857325079
 21
204.38492857325073
  0
LINE
  8
_0-1_作画層１
  6
CONTINUOUS
 62
    7
 10
105.61999999999999
 20
211.76999999999998
 11
105.61999999999999
 21
208.46999999999997
  0
LINE
  8
_0-1_作画層１
  6
CONTINUOUS
 62
    7
 10
106.28
 20
211.76999999999998
 11
106.28
 21
208.46999999999997
  0
LINE
  8
_0-1_作画層１
  6
CONTINUOUS
 62
    7
 10
105.61999999999999
 20
208.46999999999997
 11
105.95
 21
208.13999999999996
  0
LINE
  8
_0-1_作画層１
  6
CONTINUOUS
 62
    7
 10
106.28
 20
208.46999999999997
 11
105.95
 21
208.13999999999996
  0
LINE
  8
_0-1_作画層１
  6
CONTINUOUS
 62
    7
 10
105.92169047558315
 20
208.16830952441683
 11
106.28
 21
208.52661904883365
  0
LINE
  8
_0-1_作画層１
  6
CONTINUOUS
 62
    7
 10
105.82835238046654
 20
208.26164761953342
 11
106.28
 21
208.71329523906689
  0
LINE
  8
_0-1_作画層１
  6
CONTINUOUS
 62
    7
 10
105.73501428534993
 20
208.35498571465004
 11
106.28
 21
208.89997142930011
  0
LINE
  8
_0-1_作画層１
  6
CONTINUOUS
 62
    7
 10
105.64167619023326
 20
208.44832380976669
 11
106.28
 21
209.08664761953341
  0
LINE
  8
_0-1_作画層１
  6
CONTINUOUS
 62
    7
 10
105.61999999999999
 20
208.61332380976665
 11
106.28
 21
209.27332380976659
  0
LINE
  8
_0-1_作画層１
  6
CONTINUOUS
 62
    7
 10
105.61999999999999
 20
208.79999999999987
 11
106.28
 21
209.45999999999987
  0
LINE
  8
_0-1_作画層１
  6
CONTINUOUS
 62
    7
 10
105.61999999999999
 20
208.98667619023308
 11
106.28
 21
209.64667619023311
  0
LINE
  8
_0-1_作画層１
  6
CONTINUOUS
 62
    7
 10
105.61999999999999
 20
209.17335238046635
 11
106.28
 21
209.83335238046629
  0
LINE
  8
_0-1_作画層１
  6
CONTINUOUS
 62
    7
 10
105.61999999999999
 20
209.36002857069951
 11
106.28
 21
210.02002857069957
  0
LINE
  8
_0-1_作画層１
  6
CONTINUOUS
 62
    7
 10
105.61999999999999
 20
209.54670476093278
 11
106.28
 21
210.20670476093272
  0
LINE
  8
_0-1_作画層１
  6
CONTINUOUS
 62
    7
 10
105.61999999999999
 20
209.73338095116605
 11
106.28
 21
210.39338095116605
  0
LINE
  8
_0-1_作画層１
  6
CONTINUOUS
 62
    7
 10
105.61999999999999
 20
209.92005714139927
 11
106.28
 21
210.58005714139927
  0
LINE
  8
_0-1_作画層１
  6
CONTINUOUS
 62
    7
 10
105.61999999999999
 20
210.10673333163254
 11
106.28
 21
210.76673333163254
  0
LINE
  8
_0-1_作画層１
  6
CONTINUOUS
 62
    7
 10
105.61999999999999
 20
210.29340952186575
 11
106.28
 21
210.95340952186581
  0
LINE
  8
_0-1_作画層１
  6
CONTINUOUS
 62
    7
 10
105.61999999999999
 20
210.48008571209903
 11
106.28
 21
211.14008571209902
  0
LINE
  8
_0-1_作画層１
  6
CONTINUOUS
 62
    7
 10
105.61999999999999
 20
210.6667619023323
 11
106.28
 21
211.32676190233229
  0
LINE
  8
_0-1_作画層１
  6
CONTINUOUS
 62
    7
 10
105.61999999999999
 20
210.85343809256545
 11
106.28
 21
211.51343809256545
  0
LINE
  8
_0-1_作画層１
  6
CONTINUOUS
 62
    7
 10
105.61999999999999
 20
211.04011428279873
 11
106.28
 21
211.70011428279872
  0
LINE
  8
_0-1_作画層１
  6
CONTINUOUS
 62
    7
 10
105.61999999999999
 20
211.22679047303194
 11
106.22160476348398
 21
211.828395236516
  0
LINE
  8
_0-1_作画層１
  6
CONTINUOUS
 62
    7
 10
105.61999999999999
 20
211.41346666326518
 11
106.12826666836737
 21
211.92173333163259
  0
LINE
  8
_0-1_作画層１
  6
CONTINUOUS
 62
    7
 10
105.61999999999999
 20
211.60014285349843
 11
106.03492857325075
 21
212.01507142674919
  0
LINE
  8
_0-1_作画層１
  6
CONTINUOUS
 62
    7
 10
105.61999999999999
 20
211.76999999999998
 11
105.95
 21
212.09999999999997
  0
LINE
  8
_0-1_作画層１
  6
CONTINUOUS
 62
    7
 10
105.95
 20
212.09999999999997
 11
106.28
 21
211.76999999999998
  0
LINE
  8
_0-1_作画層１
  6
CONTINUOUS
 62
    7
 10
106.28000000000004
 20
211.77000000000004
 11
105.95000000000003
 21
212.09999999999999
  0
LINE
  8
_0-1_作画層１
  6
CONTINUOUS
 62
    7
 10
105.61999999999999
 20
207.86999999999998
 11
105.61999999999999
 21
204.56999999999999
  0
LINE
  8
_0-1_作画層１
  6
CONTINUOUS
 62
    7
 10
106.28
 20
207.86999999999998
 11
106.28
 21
204.56999999999999
  0
LINE
  8
_0-1_作画層１
  6
CONTINUOUS
 62
    7
 10
105.61999999999999
 20
204.56999999999999
 11
105.95
 21
204.23999999999995
  0
LINE
  8
_0-1_作画層１
  6
CONTINUOUS
 62
    7
 10
106.28
 20
204.56999999999999
 11
105.95
 21
204.23999999999995
  0
LINE
  8
_0-1_作画層１
  6
CONTINUOUS
 62
    7
 10
105.92169047558315
 20
204.26830952441682
 11
106.28
 21
204.62661904883367
  0
LINE
  8
_0-1_作画層１
  6
CONTINUOUS
 62
    7
 10
105.82835238046654
 20
204.36164761953341
 11
106.28
 21
204.81329523906689
  0
LINE
  8
_0-1_作画層１
  6
CONTINUOUS
 62
    7
 10
105.73501428534993
 20
204.45498571465004
 11
106.28
 21
204.9999714293001
  0
LINE
  8
_0-1_作画層１
  6
CONTINUOUS
 62
    7
 10
105.64167619023326
 20
204.54832380976669
 11
106.28
 21
205.1866476195334
  0
LINE
  8
_0-1_作画層１
  6
CONTINUOUS
 62
    7
 10
105.61999999999999
 20
204.71332380976665
 11
106.28
 21
205.37332380976659
  0
LINE
  8
_0-1_作画層１
  6
CONTINUOUS
 62
    7
 10
105.61999999999999
 20
204.89999999999986
 11
106.28
 21
205.55999999999986
  0
LINE
  8
_0-1_作画層１
  6
CONTINUOUS
 62
    7
 10
105.61999999999999
 20
205.08667619023308
 11
106.28
 21
205.74667619023313
  0
LINE
  8
_0-1_作画層１
  6
CONTINUOUS
 62
    7
 10
105.61999999999999
 20
205.27335238046635
 11
106.28
 21
205.93335238046629
  0
LINE
  8
_0-1_作画層１
  6
CONTINUOUS
 62
    7
 10
105.61999999999999
 20
205.46002857069954
 11
106.28
 21
206.12002857069956
  0
LINE
  8
_0-1_作画層１
  6
CONTINUOUS
 62
    7
 10
105.61999999999999
 20
205.64670476093278
 11
106.28
 21
206.30670476093275
  0
LINE
  8
_0-1_作画層１
  6
CONTINUOUS
 62
    7
 10
105.61999999999999
 20
205.83338095116605
 11
106.28
 21
206.49338095116605
  0
LINE
  8
_0-1_作画層１
  6
CONTINUOUS
 62
    7
 10
105.61999999999999
 20
206.02005714139926
 11
106.28
 21
206.68005714139926
  0
LINE
  8
_0-1_作画層１
  6
CONTINUOUS
 62
    7
 10
105.61999999999999
 20
206.20673333163253
 11
106.28
 21
206.86673333163253
  0
LINE
  8
_0-1_作画層１
  6
CONTINUOUS
 62
    7
 10
105.61999999999999
 20
206.39340952186575
 11
106.28
 21
207.0534095218658
  0
LINE
  8
_0-1_作画層１
  6
CONTINUOUS
 62
    7
 10
105.61999999999999
 20
206.58008571209902
 11
106.28
 21
207.24008571209902
  0
LINE
  8
_0-1_作画層１
  6
CONTINUOUS
 62
    7
 10
105.61999999999999
 20
206.76676190233229
 11
106.28
 21
207.42676190233229
  0
LINE
  8
_0-1_作画層１
  6
CONTINUOUS
 62
    7
 10
105.61999999999999
 20
206.95343809256548
 11
106.28
 21
207.61343809256545
  0
LINE
  8
_0-1_作画層１
  6
CONTINUOUS
 62
    7
 10
105.61999999999999
 20
207.14011428279872
 11
106.28
 21
207.80011428279872
  0
LINE
  8
_0-1_作画層１
  6
CONTINUOUS
 62
    7
 10
105.61999999999999
 20
207.32679047303196
 11
106.22160476348398
 21
207.928395236516
  0
LINE
  8
_0-1_作画層１
  6
CONTINUOUS
 62
    7
 10
105.61999999999999
 20
207.51346666326518
 11
106.12826666836737
 21
208.02173333163259
  0
LINE
  8
_0-1_作画層１
  6
CONTINUOUS
 62
    7
 10
105.61999999999999
 20
207.70014285349845
 11
106.03492857325075
 21
208.11507142674918
  0
LINE
  8
_0-1_作画層１
  6
CONTINUOUS
 62
    7
 10
105.61999999999999
 20
207.86999999999998
 11
105.95
 21
208.19999999999996
  0
LINE
  8
_0-1_作画層１
  6
CONTINUOUS
 62
    7
 10
105.95
 20
208.19999999999996
 11
106.28
 21
207.86999999999998
  0
LINE
  8
_0-1_作画層１
  6
CONTINUOUS
 62
    7
 10
106.28000000000004
 20
207.87000000000003
 11
105.95000000000003
 21
208.19999999999999
  0
LINE
  8
_0-1_作画層１
  6
CONTINUOUS
 62
    7
 10
93.950000000000003
 20
208.19999999999996
 11
94.280000000000001
 21
207.86999999999998
  0
LINE
  8
_0-1_作画層１
  6
CONTINUOUS
 62
    7
 10
94.280000000000044
 20
207.87000000000003
 11
97.580000000000041
 21
207.87000000000003
  0
LINE
  8
_0-1_作画層１
  6
CONTINUOUS
 62
    7
 10
94.280000000000044
 20
207.87000000000003
 11
93.950000000000031
 21
208.19999999999999
  0
LINE
  8
_0-1_作画層１
  6
CONTINUOUS
 62
    7
 10
93.950000000000031
 20
208.19999999999999
 11
94.280000000000044
 21
208.53000000000003
  0
LINE
  8
_0-1_作画層１
  6
CONTINUOUS
 62
    7
 10
94.280000000000044
 20
208.53000000000003
 11
97.580000000000041
 21
208.53000000000003
  0
LINE
  8
_0-1_作画層１
  6
CONTINUOUS
 62
    7
 10
97.580000000000041
 20
207.87000000000003
 11
97.910000000000053
 21
208.19999999999999
  0
LINE
  8
_0-1_作画層１
  6
CONTINUOUS
 62
    7
 10
97.580000000000041
 20
208.53000000000003
 11
97.910000000000053
 21
208.19999999999999
  0
LINE
  8
_0-1_作画層１
  6
CONTINUOUS
 62
    7
 10
97.88169047558317
 20
208.17169047558318
 11
97.523380951166331
 21
208.53000000000003
  0
LINE
  8
_0-1_作画層１
  6
CONTINUOUS
 62
    7
 10
97.788352380466591
 20
208.07835238046655
 11
97.336704760933102
 21
208.53000000000003
  0
LINE
  8
_0-1_作画層１
  6
CONTINUOUS
 62
    7
 10
97.695014285349956
 20
207.98501428534991
 11
97.150028570699888
 21
208.53000000000003
  0
LINE
  8
_0-1_作画層１
  6
CONTINUOUS
 62
    7
 10
97.601676190233349
 20
207.89167619023328
 11
96.963352380466603
 21
208.53000000000003
  0
LINE
  8
_0-1_作画層１
  6
CONTINUOUS
 62
    7
 10
97.436676190233356
 20
207.87000000000003
 11
96.776676190233374
 21
208.53000000000003
  0
LINE
  8
_0-1_作画層１
  6
CONTINUOUS
 62
    7
 10
97.250000000000142
 20
207.87000000000003
 11
96.59000000000016
 21
208.53000000000003
  0
LINE
  8
_0-1_作画層１
  6
CONTINUOUS
 62
    7
 10
97.063323809766885
 20
207.87000000000003
 11
96.403323809766903
 21
208.53000000000003
  0
LINE
  8
_0-1_作画層１
  6
CONTINUOUS
 62
    7
 10
96.876647619533657
 20
207.87000000000003
 11
96.216647619533688
 21
208.53000000000003
  0
LINE
  8
_0-1_作画層１
  6
CONTINUOUS
 62
    7
 10
96.689971429300442
 20
207.87000000000003
 11
96.02997142930046
 21
208.53000000000003
  0
LINE
  8
_0-1_作画層１
  6
CONTINUOUS
 62
    7
 10
96.503295239067228
 20
207.87000000000003
 11
95.843295239067245
 21
208.53000000000003
  0
LINE
  8
_0-1_作画層１
  6
CONTINUOUS
 62
    7
 10
96.316619048833971
 20
207.87000000000003
 11
95.65661904883396
 21
208.53000000000003
  0
LINE
  8
_0-1_作画層１
  6
CONTINUOUS
 62
    7
 10
96.129942858600714
 20
207.87000000000003
 11
95.469942858600703
 21
208.53000000000003
  0
LINE
  8
_0-1_作画層１
  6
CONTINUOUS
 62
    7
 10
95.943266668367457
 20
207.87000000000003
 11
95.283266668367446
 21
208.53000000000003
  0
LINE
  8
_0-1_作画層１
  6
CONTINUOUS
 62
    7
 10
95.756590478134243
 20
207.87000000000003
 11
95.096590478134232
 21
208.53000000000003
  0
LINE
  8
_0-1_作画層１
  6
CONTINUOUS
 62
    7
 10
95.569914287900986
 20
207.87000000000003
 11
94.909914287900975
 21
208.53000000000003
  0
LINE
  8
_0-1_作画層１
  6
CONTINUOUS
 62
    7
 10
95.383238097667729
 20
207.87000000000003
 11
94.723238097667718
 21
208.53000000000003
  0
LINE
  8
_0-1_作画層１
  6
CONTINUOUS
 62
    7
 10
95.196561907434543
 20
207.87000000000003
 11
94.536561907434532
 21
208.53000000000003
  0
LINE
  8
_0-1_作画層１
  6
CONTINUOUS
 62
    7
 10
95.009885717201286
 20
207.87000000000003
 11
94.349885717201275
 21
208.53000000000003
  0
LINE
  8
_0-1_作画層１
  6
CONTINUOUS
 62
    7
 10
94.823209526968043
 20
207.87000000000003
 11
94.221604763484009
 21
208.47160476348398
  0
LINE
  8
_0-1_作画層１
  6
CONTINUOUS
 62
    7
 10
94.636533336734814
 20
207.87000000000003
 11
94.128266668367402
 21
208.37826666836742
  0
LINE
  8
_0-1_作画層１
  6
CONTINUOUS
 62
    7
 10
94.449857146501529
 20
207.87000000000003
 11
94.034928573250795
 21
208.28492857325074
  0
CIRCLE
  8
_0-1_作画層１
  6
CONTINUOUS
 62
    7
 10
89.629999999999967
 20
210.10499999999996
 40
0.675
  0
CIRCLE
  8
_0-1_作画層１
  6
CONTINUOUS
 62
    7
 10
89.629999999999967
 20
206.05499999999998
 40
0.675
  0
LINE
  8
_0-1_作画層１
  6
CONTINUOUS
 62
    7
 10
90.277999999999992
 20
209.91600000000003
 11
90.277999999999992
 21
210.29399999999987
  0
LINE
  8
_0-1_作画層１
  6
CONTINUOUS
 62
    7
 10
90.17000000000003
 20
209.69999999999999
 11
90.17000000000003
 21
210.50999999999993
  0
LINE
  8
_0-1_作画層１
  6
CONTINUOUS
 62
    7
 10
90.062000000000026
 20
209.58634693676794
 11
90.062000000000026
 21
210.62365306323198
  0
LINE
  8
_0-1_作画層１
  6
CONTINUOUS
 62
    7
 10
89.954000000000022
 20
209.51284377061452
 11
89.954000000000022
 21
210.69715622938537
  0
LINE
  8
_0-1_作画層１
  6
CONTINUOUS
 62
    7
 10
89.846000000000046
 20
209.46549315875436
 11
89.846000000000046
 21
210.7445068412456
  0
LINE
  8
_0-1_作画層１
  6
CONTINUOUS
 62
    7
 10
89.738000000000042
 20
209.43869601532032
 11
89.738000000000042
 21
210.77130398467961
  0
LINE
  8
_0-1_作画層１
  6
CONTINUOUS
 62
    7
 10
89.630000000000038
 20
209.42999999999998
 11
89.630000000000038
 21
210.77999999999997
  0
LINE
  8
_0-1_作画層１
  6
CONTINUOUS
 62
    7
 10
89.522000000000077
 20
209.43869601532029
 11
89.522000000000077
 21
210.77130398467966
  0
LINE
  8
_0-1_作画層１
  6
CONTINUOUS
 62
    7
 10
89.414000000000073
 20
209.46549315875427
 11
89.414000000000073
 21
210.74450684124568
  0
LINE
  8
_0-1_作画層１
  6
CONTINUOUS
 62
    7
 10
89.306000000000068
 20
209.51284377061447
 11
89.306000000000068
 21
210.69715622938548
  0
LINE
  8
_0-1_作画層１
  6
CONTINUOUS
 62
    7
 10
89.198000000000093
 20
209.58634693676785
 11
89.198000000000093
 21
210.6236530632321
  0
LINE
  8
_0-1_作画層１
  6
CONTINUOUS
 62
    7
 10
89.090000000000089
 20
209.69999999999987
 11
89.090000000000089
 21
210.51000000000008
  0
LINE
  8
_0-1_作画層１
  6
CONTINUOUS
 62
    7
 10
88.982000000000085
 20
209.91599999999963
 11
88.982000000000085
 21
210.29400000000032
  0
LINE
  8
_0-1_作画層１
  6
CONTINUOUS
 62
    7
 10
90.251000000000019
 20
205.79045510777945
 11
90.251000000000019
 21
206.31954489222045
  0
LINE
  8
_0-1_作画層１
  6
CONTINUOUS
 62
    7
 10
90.143000000000058
 20
205.61630192614967
 11
90.143000000000058
 21
206.49369807385028
  0
LINE
  8
_0-1_作画層１
  6
CONTINUOUS
 62
    7
 10
90.035000000000011
 20
205.51499999999996
 11
90.035000000000011
 21
206.59499999999989
  0
LINE
  8
_0-1_作画層１
  6
CONTINUOUS
 62
    7
 10
89.927000000000049
 20
205.44885150334267
 11
89.927000000000049
 21
206.66114849665729
  0
LINE
  8
_0-1_作画層１
  6
CONTINUOUS
 62
    7
 10
89.819000000000074
 20
205.40699999999998
 11
89.819000000000074
 21
206.70299999999997
  0
LINE
  8
_0-1_作画層１
  6
CONTINUOUS
 62
    7
 10
89.711000000000041
 20
205.38487762311647
 11
89.711000000000041
 21
206.72512237688343
  0
LINE
  8
_0-1_作画層１
  6
CONTINUOUS
 62
    7
 10
89.603000000000065
 20
205.38054021617296
 11
89.603000000000065
 21
206.72945978382694
  0
LINE
  8
_0-1_作画層１
  6
CONTINUOUS
 62
    7
 10
89.495000000000061
 20
205.39363776944847
 11
89.495000000000061
 21
206.71636223055143
  0
LINE
  8
_0-1_作画層１
  6
CONTINUOUS
 62
    7
 10
89.387000000000057
 20
205.42525719535661
 11
89.387000000000057
 21
206.68474280464335
  0
LINE
  8
_0-1_作画層１
  6
CONTINUOUS
 62
    7
 10
89.279000000000082
 20
205.47843777439022
 11
89.279000000000082
 21
206.63156222560974
  0
LINE
  8
_0-1_作画層１
  6
CONTINUOUS
 62
    7
 10
89.171000000000078
 20
205.56008182494466
 11
89.171000000000078
 21
206.54991817505524
  0
LINE
  8
_0-1_作画層１
  6
CONTINUOUS
 62
    7
 10
89.063000000000073
 20
205.68875418091102
 11
89.063000000000073
 21
206.42124581908888
  0
TEXT
  8
_0-7_注記層１
 62
    7
 10
59.375
 20
227.25
 40
2.5
 41
1
 50
0
  1
SUNAO
  0
LINE
  8
_0-1_作画層１
  6
CONTINUOUS
 62
    7
 10
63.159516765286014
 20
227.61365877712032
 11
63.170188260729105
 21
227.60411497733551
  0
LINE
  8
_0-1_作画層１
  6
CONTINUOUS
 62
    7
 10
63.170188260729105
 20
227.60411497733551
 11
63.17916692000847
 21
227.59650206589563
  0
LINE
  8
_0-1_作画層１
  6
CONTINUOUS
 62
    7
 10
63.17916692000847
 20
227.59650206589563
 11
63.190379693362388
 21
227.58716361055468
  0
LINE
  8
_0-1_作画層１
  6
CONTINUOUS
 62
    7
 10
63.190379693362388
 20
227.58716361055468
 11
63.203680710567852
 21
227.57622595916067
  0
LINE
  8
_0-1_作画層１
  6
CONTINUOUS
 62
    7
 10
63.203680710567852
 20
227.57622595916067
 11
63.218924101401825
 21
227.5638154595614
  0
LINE
  8
_0-1_作画層１
  6
CONTINUOUS
 62
    7
 10
63.218924101401825
 20
227.5638154595614
 11
63.235963995641271
 21
227.55005845960477
  0
LINE
  8
_0-1_作画層１
  6
CONTINUOUS
 62
    7
 10
63.235963995641271
 20
227.55005845960477
 11
63.254654523063238
 21
227.53508130713897
  0
LINE
  8
_0-1_作画層１
  6
CONTINUOUS
 62
    7
 10
63.254654523063238
 20
227.53508130713897
 11
63.274849813444632
 21
227.51901035001154
  0
LINE
  8
_0-1_作画層１
  6
CONTINUOUS
 62
    7
 10
63.274849813444632
 20
227.51901035001154
 11
63.29640399656256
 21
227.50197193607079
  0
LINE
  8
_0-1_作画層１
  6
CONTINUOUS
 62
    7
 10
63.29640399656256
 20
227.50197193607079
 11
63.319171202193871
 21
227.48409241316432
  0
LINE
  8
_0-1_作画層１
  6
CONTINUOUS
 62
    7
 10
63.319171202193871
 20
227.48409241316432
 11
63.343005560115671
 21
227.46549812914031
  0
LINE
  8
_0-1_作画層１
  6
CONTINUOUS
 62
    7
 10
63.343005560115671
 20
227.46549812914031
 11
63.367761200104866
 21
227.44631543184656
  0
LINE
  8
_0-1_作画層１
  6
CONTINUOUS
 62
    7
 10
63.367761200104866
 20
227.44631543184656
 11
63.393292251938504
 21
227.42667066913108
  0
LINE
  8
_0-1_作画層１
  6
CONTINUOUS
 62
    7
 10
63.393292251938504
 20
227.42667066913108
 11
63.419452845393522
 21
227.40669018884165
  0
LINE
  8
_0-1_作画層１
  6
CONTINUOUS
 62
    7
 10
63.419452845393522
 20
227.40669018884165
 11
63.44609711024691
 21
227.38650033882635
  0
LINE
  8
_0-1_作画層１
  6
CONTINUOUS
 62
    7
 10
63.44609711024691
 20
227.38650033882635
 11
63.473079176275689
 21
227.36622746693303
  0
LINE
  8
_0-1_作画層１
  6
CONTINUOUS
 62
    7
 10
63.473079176275689
 20
227.36622746693303
 11
63.500253173256851
 21
227.34599792100965
  0
LINE
  8
_0-1_作画層１
  6
CONTINUOUS
 62
    7
 10
63.500253173256851
 20
227.34599792100965
 11
63.527473230967331
 21
227.32593804890411
  0
LINE
  8
_0-1_作画層１
  6
CONTINUOUS
 62
    7
 10
63.527473230967331
 20
227.32593804890411
 11
63.554593479184177
 21
227.30617419846436
  0
LINE
  8
_0-1_作画層１
  6
CONTINUOUS
 62
    7
 10
63.554593479184177
 20
227.30617419846436
 11
63.581468047684297
 21
227.28683271753829
  0
LINE
  8
_0-1_作画層１
  6
CONTINUOUS
 62
    7
 10
63.581468047684297
 20
227.28683271753829
 11
63.607951066244766
 21
227.26803995397387
  0
LINE
  8
_0-1_作画層１
  6
CONTINUOUS
 62
    7
 10
63.607951066244766
 20
227.26803995397387
 11
63.633896664642521
 21
227.24992225561905
  0
LINE
  8
_0-1_作画層１
  6
CONTINUOUS
 62
    7
 10
63.633896664642521
 20
227.24992225561905
 11
63.659158972654552
 21
227.23260597032169
  0
LINE
  8
_0-1_作画層１
  6
CONTINUOUS
 62
    7
 10
63.659158972654552
 20
227.23260597032169
 11
63.683592120057881
 21
227.21621744592977
  0
LINE
  8
_0-1_作画層１
  6
CONTINUOUS
 62
    7
 10
63.683592120057881
 20
227.21621744592977
 11
63.70705023662947
 21
227.20088303029115
  0
LINE
  8
_0-1_作画層１
  6
CONTINUOUS
 62
    7
 10
63.70705023662947
 20
227.20088303029115
 11
63.729387452146284
 21
227.18672907125384
  0
LINE
  8
_0-1_作画層１
  6
CONTINUOUS
 62
    7
 10
63.729387452146284
 20
227.18672907125384
 11
63.750457896385313
 21
227.17388191666572
  0
LINE
  8
_0-1_作画層１
  6
CONTINUOUS
 62
    7
 10
63.750457896385313
 20
227.17388191666572
 11
63.770115699123579
 21
227.1624679143747
  0
LINE
  8
_0-1_作画層１
  6
CONTINUOUS
 62
    7
 10
63.770115699123579
 20
227.1624679143747
 11
63.788214990138073
 21
227.15261341222879
  0
LINE
  8
_0-1_作画層１
  6
CONTINUOUS
 62
    7
 10
63.788214990138073
 20
227.15261341222879
 11
63.832418120537852
 21
227.13038895114667
  0
LINE
  8
_0-1_作画層１
  6
CONTINUOUS
 62
    7
 10
63.832418120537852
 20
227.13038895114667
 11
63.85663873207352
 21
227.1188227771419
  0
LINE
  8
_0-1_作画層１
  6
CONTINUOUS
 62
    7
 10
63.85663873207352
 20
227.1188227771419
 11
63.882138907072232
 21
227.10700986459861
  0
LINE
  8
_0-1_作画層１
  6
CONTINUOUS
 62
    7
 10
63.882138907072232
 20
227.10700986459861
 11
63.908818794963423
 21
227.09499213134487
  0
LINE
  8
_0-1_作画層１
  6
CONTINUOUS
 62
    7
 10
63.908818794963423
 20
227.09499213134487
 11
63.936578545176445
 21
227.08281149520857
  0
LINE
  8
_0-1_作画層１
  6
CONTINUOUS
 62
    7
 10
63.936578545176445
 20
227.08281149520857
 11
63.965318307140762
 21
227.07050987401777
  0
LINE
  8
_0-1_作画層１
  6
CONTINUOUS
 62
    7
 10
63.965318307140762
 20
227.07050987401777
 11
63.994938230285783
 21
227.05812918560056
  0
LINE
  8
_0-1_作画層１
  6
CONTINUOUS
 62
    7
 10
63.994938230285783
 20
227.05812918560056
 11
64.025338464040857
 21
227.0457113477847
  0
LINE
  8
_0-1_作画層１
  6
CONTINUOUS
 62
    7
 10
64.025338464040857
 20
227.0457113477847
 11
64.056419157835478
 21
227.03329827839849
  0
LINE
  8
_0-1_作画層１
  6
CONTINUOUS
 62
    7
 10
64.056419157835478
 20
227.03329827839849
 11
64.088080461098997
 21
227.0209318952696
  0
LINE
  8
_0-1_作画層１
  6
CONTINUOUS
 62
    7
 10
64.088080461098997
 20
227.0209318952696
 11
64.12022252326085
 21
227.00865411622627
  0
LINE
  8
_0-1_作画層１
  6
CONTINUOUS
 62
    7
 10
64.12022252326085
 20
227.00865411622627
 11
64.152745493750416
 21
226.9965068590964
  0
LINE
  8
_0-1_作画層１
  6
CONTINUOUS
 62
    7
 10
64.152745493750416
 20
226.9965068590964
 11
64.18554952199716
 21
226.98453204170801
  0
LINE
  8
_0-1_作画層１
  6
CONTINUOUS
 62
    7
 10
64.18554952199716
 20
226.98453204170801
 11
64.218534757430405
 21
226.97277158188905
  0
LINE
  8
_0-1_作画層１
  6
CONTINUOUS
 62
    7
 10
64.218534757430405
 20
226.97277158188905
 11
64.251601349479643
 21
226.96126739746757
  0
LINE
  8
_0-1_作画層１
  6
CONTINUOUS
 62
    7
 10
64.251601349479643
 20
226.96126739746757
 11
64.284649447574225
 21
226.95006140627149
  0
LINE
  8
_0-1_作画層１
  6
CONTINUOUS
 62
    7
 10
64.284649447574225
 20
226.95006140627149
 11
64.317579201143616
 21
226.93919552612886
  0
LINE
  8
_0-1_作画層１
  6
CONTINUOUS
 62
    7
 10
64.317579201143616
 20
226.93919552612886
 11
64.350290759617167
 21
226.92871167486771
  0
LINE
  8
_0-1_作画層１
  6
CONTINUOUS
 62
    7
 10
64.350290759617167
 20
226.92871167486771
 11
64.382684272424342
 21
226.91865177031599
  0
LINE
  8
_0-1_作画層１
  6
CONTINUOUS
 62
    7
 10
64.382684272424342
 20
226.91865177031599
 11
64.414659888994493
 21
226.90905773030167
  0
LINE
  8
_0-1_作画層１
  6
CONTINUOUS
 62
    7
 10
64.414659888994493
 20
226.90905773030167
 11
64.446117758757055
 21
226.89997147265274
  0
LINE
  8
_0-1_作画層１
  6
CONTINUOUS
 62
    7
 10
64.446117758757055
 20
226.89997147265274
 11
64.476958031141464
 21
226.89143491519735
  0
LINE
  8
_0-1_作画層１
  6
CONTINUOUS
 62
    7
 10
64.476958031141464
 20
226.89143491519735
 11
64.507080855577101
 21
226.88348997576327
  0
LINE
  8
_0-1_作画層１
  6
CONTINUOUS
 62
    7
 10
64.507080855577101
 20
226.88348997576327
 11
64.536386381493372
 21
226.87617857217862
  0
LINE
  8
_0-1_作画層１
  6
CONTINUOUS
 62
    7
 10
64.536386381493372
 20
226.87617857217862
 11
64.564774758319686
 21
226.86954262227138
  0
LINE
  8
_0-1_作画層１
  6
CONTINUOUS
 62
    7
 10
64.564774758319686
 20
226.86954262227138
 11
64.59214613548545
 21
226.86362404386952
  0
LINE
  8
_0-1_作画層１
  6
CONTINUOUS
 62
    7
 10
64.59214613548545
 20
226.86362404386952
 11
64.6184006624201
 21
226.85846475480108
  0
LINE
  8
_0-1_作画層１
  6
CONTINUOUS
 62
    7
 10
64.6184006624201
 20
226.85846475480108
 11
64.643438488552988
 21
226.85410667289398
  0
LINE
  8
_0-1_作画層１
  6
CONTINUOUS
 62
    7
 10
64.643438488552988
 20
226.85410667289398
 11
64.667159763313606
 21
226.85059171597632
  0
LINE
  8
_0-1_作画層１
  6
CONTINUOUS
 62
    7
 10
64.667159763313606
 20
226.85059171597632
 11
64.739272730571514
 21
226.84277676254951
  0
LINE
  8
_0-1_作画層１
  6
CONTINUOUS
 62
    7
 10
64.739272730571514
 20
226.84277676254951
 11
64.778481730529535
 21
226.83976830612406
  0
LINE
  8
_0-1_作画層１
  6
CONTINUOUS
 62
    7
 10
64.778481730529535
 20
226.83976830612406
 11
64.819579550073598
 21
226.83734306111359
  0
LINE
  8
_0-1_作画層１
  6
CONTINUOUS
 62
    7
 10
64.819579550073598
 20
226.83734306111359
 11
64.862406545728732
 21
226.83548892593532
  0
LINE
  8
_0-1_作画層１
  6
CONTINUOUS
 62
    7
 10
64.862406545728732
 20
226.83548892593532
 11
64.90680307401999
 21
226.83419379900658
  0
LINE
  8
_0-1_作画層１
  6
CONTINUOUS
 62
    7
 10
64.90680307401999
 20
226.83419379900658
 11
64.952609491472288
 21
226.83344557874443
  0
LINE
  8
_0-1_作画層１
  6
CONTINUOUS
 62
    7
 10
64.952609491472288
 20
226.83344557874443
 11
64.999666154610736
 21
226.83323216356646
  0
LINE
  8
_0-1_作画層１
  6
CONTINUOUS
 62
    7
 10
64.999666154610736
 20
226.83323216356646
 11
65.047813419960306
 21
226.83354145188963
  0
LINE
  8
_0-1_作画層１
  6
CONTINUOUS
 62
    7
 10
65.047813419960306
 20
226.83354145188963
 11
65.096891644046082
 21
226.83436134213142
  0
LINE
  8
_0-1_作画層１
  6
CONTINUOUS
 62
    7
 10
65.096891644046082
 20
226.83436134213142
 11
65.146741183392948
 21
226.8356797327088
  0
LINE
  8
_0-1_作画層１
  6
CONTINUOUS
 62
    7
 10
65.146741183392948
 20
226.8356797327088
 11
65.197202394526045
 21
226.83748452203935
  0
LINE
  8
_0-1_作画層１
  6
CONTINUOUS
 62
    7
 10
65.197202394526045
 20
226.83748452203935
 11
65.248115633970315
 21
226.8397636085401
  0
LINE
  8
_0-1_作画層１
  6
CONTINUOUS
 62
    7
 10
65.248115633970315
 20
226.8397636085401
 11
65.299321258250814
 21
226.84250489062842
  0
LINE
  8
_0-1_作画層１
  6
CONTINUOUS
 62
    7
 10
65.299321258250814
 20
226.84250489062842
 11
65.350659623892511
 21
226.84569626672152
  0
LINE
  8
_0-1_作画層１
  6
CONTINUOUS
 62
    7
 10
65.350659623892511
 20
226.84569626672152
 11
65.401971087420463
 21
226.84932563523662
  0
LINE
  8
_0-1_作画層１
  6
CONTINUOUS
 62
    7
 10
65.401971087420463
 20
226.84932563523662
 11
65.453096005359669
 21
226.85338089459103
  0
LINE
  8
_0-1_作画層１
  6
CONTINUOUS
 62
    7
 10
65.453096005359669
 20
226.85338089459103
 11
65.503874734235154
 21
226.85784994320204
  0
LINE
  8
_0-1_作画層１
  6
CONTINUOUS
 62
    7
 10
65.503874734235154
 20
226.85784994320204
 11
65.554147630571947
 21
226.86272067948681
  0
LINE
  8
_0-1_作画層１
  6
CONTINUOUS
 62
    7
 10
65.554147630571947
 20
226.86272067948681
 11
65.603755050895018
 21
226.86798100186272
  0
LINE
  8
_0-1_作画層１
  6
CONTINUOUS
 62
    7
 10
65.603755050895018
 20
226.86798100186272
 11
65.652537351729393
 21
226.87361880874681
  0
LINE
  8
_0-1_作画層１
  6
CONTINUOUS
 62
    7
 10
65.652537351729393
 20
226.87361880874681
 11
65.700334889600128
 21
226.87962199855656
  0
LINE
  8
_0-1_作画層１
  6
CONTINUOUS
 62
    7
 10
65.700334889600128
 20
226.87962199855656
 11
65.746988021032195
 21
226.88597846970919
  0
LINE
  8
_0-1_作画層１
  6
CONTINUOUS
 62
    7
 10
65.746988021032195
 20
226.88597846970919
 11
65.792337102550619
 21
226.89267612062187
  0
LINE
  8
_0-1_作画層１
  6
CONTINUOUS
 62
    7
 10
65.792337102550619
 20
226.89267612062187
 11
65.836222490680456
 21
226.8997028497119
  0
LINE
  8
_0-1_作画層１
  6
CONTINUOUS
 62
    7
 10
65.836222490680456
 20
226.8997028497119
 11
65.878484541946648
 21
226.90704655539648
  0
LINE
  8
_0-1_作画層１
  6
CONTINUOUS
 62
    7
 10
65.878484541946648
 20
226.90704655539648
 11
65.918963612874279
 21
226.91469513609297
  0
LINE
  8
_0-1_作画層１
  6
CONTINUOUS
 62
    7
 10
65.918963612874279
 20
226.91469513609297
 11
65.95750005998832
 21
226.92263649021857
  0
LINE
  8
_0-1_作画層１
  6
CONTINUOUS
 62
    7
 10
65.95750005998832
 20
226.92263649021857
 11
65.993934239813797
 21
226.93085851619045
  0
LINE
  8
_0-1_作画層１
  6
CONTINUOUS
 62
    7
 10
65.993934239813797
 20
226.93085851619045
 11
66.028106508875737
 21
226.93934911242604
  0
LINE
  8
_0-1_作画層１
  6
CONTINUOUS
 62
    7
 10
66.028106508875737
 20
226.93934911242604
 11
66.066756426635067
 21
226.95030378391894
  0
LINE
  8
_0-1_作画層１
  6
CONTINUOUS
 62
    7
 10
66.066756426635067
 20
226.95030378391894
 11
66.087575834191767
 21
226.95679640157368
  0
LINE
  8
_0-1_作画層１
  6
CONTINUOUS
 62
    7
 10
66.087575834191767
 20
226.95679640157368
 11
66.109279469958835
 21
226.96392243283933
  0
LINE
  8
_0-1_作画層１
  6
CONTINUOUS
 62
    7
 10
66.109279469958835
 20
226.96392243283933
 11
66.131783280755542
 21
226.97164929696996
  0
LINE
  8
_0-1_作画層１
  6
CONTINUOUS
 62
    7
 10
66.131783280755542
 20
226.97164929696996
 11
66.155003213401187
 21
226.97994441321956
  0
LINE
  8
_0-1_作画層１
  6
CONTINUOUS
 62
    7
 10
66.155003213401187
 20
226.97994441321956
 11
66.178855214714929
 21
226.98877520084207
  0
LINE
  8
_0-1_作画層１
  6
CONTINUOUS
 62
    7
 10
66.178855214714929
 20
226.98877520084207
 11
66.203255231516152
 21
226.99810907909182
  0
LINE
  8
_0-1_作画層１
  6
CONTINUOUS
 62
    7
 10
66.203255231516152
 20
226.99810907909182
 11
66.228119210624072
 21
227.00791346722255
  0
LINE
  8
_0-1_作画層１
  6
CONTINUOUS
 62
    7
 10
66.228119210624072
 20
227.00791346722255
 11
66.25336309885796
 21
227.01815578448861
  0
LINE
  8
_0-1_作画層１
  6
CONTINUOUS
 62
    7
 10
66.25336309885796
 20
227.01815578448861
 11
66.278902843037059
 21
227.02880345014364
  0
LINE
  8
_0-1_作画層１
  6
CONTINUOUS
 62
    7
 10
66.278902843037059
 20
227.02880345014364
 11
66.304654389980669
 21
227.03982388344204
  0
LINE
  8
_0-1_作画層１
  6
CONTINUOUS
 62
    7
 10
66.304654389980669
 20
227.03982388344204
 11
66.330533686508062
 21
227.05118450363764
  0
LINE
  8
_0-1_作画層１
  6
CONTINUOUS
 62
    7
 10
66.330533686508062
 20
227.05118450363764
 11
66.356456679438452
 21
227.06285272998457
  0
LINE
  8
_0-1_作画層１
  6
CONTINUOUS
 62
    7
 10
66.356456679438452
 20
227.06285272998457
 11
66.382339315591139
 21
227.07479598173686
  0
LINE
  8
_0-1_作画層１
  6
CONTINUOUS
 62
    7
 10
66.382339315591139
 20
227.07479598173686
 11
66.408097541785395
 21
227.0869816781485
  0
LINE
  8
_0-1_作画層１
  6
CONTINUOUS
 62
    7
 10
66.408097541785395
 20
227.0869816781485
 11
66.433647304840463
 21
227.09937723847355
  0
LINE
  8
_0-1_作画層１
  6
CONTINUOUS
 62
    7
 10
66.433647304840463
 20
227.09937723847355
 11
66.458904551575614
 21
227.11195008196609
  0
LINE
  8
_0-1_作画層１
  6
CONTINUOUS
 62
    7
 10
66.458904551575614
 20
227.11195008196609
 11
66.48378522881012
 21
227.12466762788009
  0
LINE
  8
_0-1_作画層１
  6
CONTINUOUS
 62
    7
 10
66.48378522881012
 20
227.12466762788009
 11
66.508205283363253
 21
227.1374972954697
  0
LINE
  8
_0-1_作画層１
  6
CONTINUOUS
 62
    7
 10
66.508205283363253
 20
227.1374972954697
 11
66.532080662054227
 21
227.15040650398876
  0
LINE
  8
_0-1_作画層１
  6
CONTINUOUS
 62
    7
 10
66.532080662054227
 20
227.15040650398876
 11
66.555327311702399
 21
227.16336267269151
  0
LINE
  8
_0-1_作画層１
  6
CONTINUOUS
 62
    7
 10
66.555327311702399
 20
227.16336267269151
 11
66.577861179126984
 21
227.17633322083196
  0
LINE
  8
_0-1_作画層１
  6
CONTINUOUS
 62
    7
 10
66.577861179126984
 20
227.17633322083196
 11
66.599598211147224
 21
227.18928556766406
  0
LINE
  8
_0-1_作画層１
  6
CONTINUOUS
 62
    7
 10
66.599598211147224
 20
227.18928556766406
 11
66.620454354582421
 21
227.20218713244188
  0
LINE
  8
_0-1_作画層１
  6
CONTINUOUS
 62
    7
 10
66.620454354582421
 20
227.20218713244188
 11
66.640345556251816
 21
227.21500533441946
  0
LINE
  8
_0-1_作画層１
  6
CONTINUOUS
 62
    7
 10
66.640345556251816
 20
227.21500533441946
 11
66.659187762974682
 21
227.22770759285086
  0
LINE
  8
_0-1_作画層１
  6
CONTINUOUS
 62
    7
 10
66.659187762974682
 20
227.22770759285086
 11
66.67689692157029
 21
227.24026132699009
  0
LINE
  8
_0-1_作画層１
  6
CONTINUOUS
 62
    7
 10
66.67689692157029
 20
227.24026132699009
 11
66.693388978857911
 21
227.25263395609122
  0
LINE
  8
_0-1_作画層１
  6
CONTINUOUS
 62
    7
 10
66.693388978857911
 20
227.25263395609122
 11
66.708579881656817
 21
227.26479289940829
  0
LINE
  8
_0-1_作画層１
  6
CONTINUOUS
 62
    7
 10
66.708579881656817
 20
227.26479289940829
 11
66.766547140557122
 21
227.31599640511871
  0
LINE
  8
_0-1_作画層１
  6
CONTINUOUS
 62
    7
 10
66.766547140557122
 20
227.31599640511871
 11
66.795625322463223
 21
227.34392710126795
  0
LINE
  8
_0-1_作画層１
  6
CONTINUOUS
 62
    7
 10
66.795625322463223
 20
227.34392710126795
 11
66.824763572988388
 21
227.37333736139217
  0
LINE
  8
_0-1_作画層１
  6
CONTINUOUS
 62
    7
 10
66.824763572988388
 20
227.37333736139217
 11
66.85395966736894
 21
227.40417238682573
  0
LINE
  8
_0-1_作画層１
  6
CONTINUOUS
 62
    7
 10
66.85395966736894
 20
227.40417238682573
 11
66.883211380841203
 21
227.43637737890282
  0
LINE
  8
_0-1_作画層１
  6
CONTINUOUS
 62
    7
 10
66.883211380841203
 20
227.43637737890282
 11
66.912516488641529
 21
227.46989753895761
  0
LINE
  8
_0-1_作画層１
  6
CONTINUOUS
 62
    7
 10
66.912516488641529
 20
227.46989753895761
 11
66.94187276600627
 21
227.50467806832464
  0
LINE
  8
_0-1_作画層１
  6
CONTINUOUS
 62
    7
 10
66.94187276600627
 20
227.50467806832464
 11
66.971277988171664
 21
227.5406641683378
  0
LINE
  8
_0-1_作画層１
  6
CONTINUOUS
 62
    7
 10
66.971277988171664
 20
227.5406641683378
 11
67.000729930374177
 21
227.57780104033176
  0
LINE
  8
_0-1_作画層１
  6
CONTINUOUS
 62
    7
 10
67.000729930374177
 20
227.57780104033176
 11
67.030226367850048
 21
227.61603388564032
  0
LINE
  8
_0-1_作画層１
  6
CONTINUOUS
 62
    7
 10
67.030226367850048
 20
227.61603388564032
 11
67.0597650758356
 21
227.65530790559816
  0
LINE
  8
_0-1_作画層１
  6
CONTINUOUS
 62
    7
 10
67.0597650758356
 20
227.65530790559816
 11
67.089343829567213
 21
227.69556830153928
  0
LINE
  8
_0-1_作画層１
  6
CONTINUOUS
 62
    7
 10
67.089343829567213
 20
227.69556830153928
 11
67.118960404281211
 21
227.73676027479803
  0
LINE
  8
_0-1_作画層１
  6
CONTINUOUS
 62
    7
 10
67.118960404281211
 20
227.73676027479803
 11
67.148612575213917
 21
227.77882902670859
  0
LINE
  8
_0-1_作画層１
  6
CONTINUOUS
 62
    7
 10
67.148612575213917
 20
227.77882902670859
 11
67.178298117601628
 21
227.82171975860538
  0
LINE
  8
_0-1_作画層１
  6
CONTINUOUS
 62
    7
 10
67.178298117601628
 20
227.82171975860538
 11
67.208014806680751
 21
227.86537767182247
  0
LINE
  8
_0-1_作画層１
  6
CONTINUOUS
 62
    7
 10
67.208014806680751
 20
227.86537767182247
 11
67.237760417687525
 21
227.90974796769424
  0
LINE
  8
_0-1_作画層１
  6
CONTINUOUS
 62
    7
 10
67.237760417687525
 20
227.90974796769424
 11
67.267532725858359
 21
227.95477584755494
  0
LINE
  8
_0-1_作画層１
  6
CONTINUOUS
 62
    7
 10
67.267532725858359
 20
227.95477584755494
 11
67.29732950642952
 21
228.00040651273875
  0
LINE
  8
_0-1_作画層１
  6
CONTINUOUS
 62
    7
 10
67.29732950642952
 20
228.00040651273875
 11
67.327148534637388
 21
228.04658516457994
  0
LINE
  8
_0-1_作画層１
  6
CONTINUOUS
 62
    7
 10
67.327148534637388
 20
228.04658516457994
 11
67.356987585718258
 21
228.09325700441286
  0
LINE
  8
_0-1_作画層１
  6
CONTINUOUS
 62
    7
 10
67.356987585718258
 20
228.09325700441286
 11
67.386844434908511
 21
228.14036723357174
  0
LINE
  8
_0-1_作画層１
  6
CONTINUOUS
 62
    7
 10
67.386844434908511
 20
228.14036723357174
 11
67.416716857444442
 21
228.1878610533908
  0
LINE
  8
_0-1_作画層１
  6
CONTINUOUS
 62
    7
 10
67.416716857444442
 20
228.1878610533908
 11
67.446602628562374
 21
228.23568366520431
  0
LINE
  8
_0-1_作画層１
  6
CONTINUOUS
 62
    7
 10
67.446602628562374
 20
228.23568366520431
 11
67.47649952349866
 21
228.28378027034651
  0
LINE
  8
_0-1_作画層１
  6
CONTINUOUS
 62
    7
 10
67.47649952349866
 20
228.28378027034651
 11
67.506405317489623
 21
228.33209607015169
  0
LINE
  8
_0-1_作画層１
  6
CONTINUOUS
 62
    7
 10
67.506405317489623
 20
228.33209607015169
 11
67.536317785771587
 21
228.38057626595406
  0
LINE
  8
_0-1_作画層１
  6
CONTINUOUS
 62
    7
 10
67.536317785771587
 20
228.38057626595406
 11
67.566234703580875
 21
228.42916605908795
  0
LINE
  8
_0-1_作画層１
  6
CONTINUOUS
 62
    7
 10
67.566234703580875
 20
228.42916605908795
 11
67.59615384615384
 21
228.47781065088756
  0
TEXT
  8
_0-7_注記層１
 62
    7
 10
116.74706840390881
 20
213.25
 40
2.6000000000000001
 41
1
 50
0
  1
1ch
  0
LINE
  8
_0-1_作画層１
  6
CONTINUOUS
 62
    7
 10
59.357495069033519
 20
229.66740631163708
 11
59.356808575951533
 21
229.67717612119364
  0
LINE
  8
_0-1_作画層１
  6
CONTINUOUS
 62
    7
 10
59.356808575951533
 20
229.67717612119364
 11
59.356758807357323
 21
229.68528280175633
  0
LINE
  8
_0-1_作画層１
  6
CONTINUOUS
 62
    7
 10
59.356758807357323
 20
229.68528280175633
 11
59.356908905895551
 21
229.69535224318562
  0
LINE
  8
_0-1_作画層１
  6
CONTINUOUS
 62
    7
 10
59.356908905895551
 20
229.69535224318562
 11
59.357262032942202
 21
229.70724562823943
  0
LINE
  8
_0-1_作画層１
  6
CONTINUOUS
 62
    7
 10
59.357262032942202
 20
229.70724562823943
 11
59.357821349873262
 21
229.72082413967536
  0
LINE
  8
_0-1_作画層１
  6
CONTINUOUS
 62
    7
 10
59.357821349873262
 20
229.72082413967536
 11
59.358590018064604
 21
229.73594896025119
  0
LINE
  8
_0-1_作画層１
  6
CONTINUOUS
 62
    7
 10
59.358590018064604
 20
229.73594896025119
 11
59.35957119889224
 21
229.75248127272499
  0
LINE
  8
_0-1_作画層１
  6
CONTINUOUS
 62
    7
 10
59.35957119889224
 20
229.75248127272499
 11
59.36076805373213
 21
229.7702822598541
  0
LINE
  8
_0-1_作画層１
  6
CONTINUOUS
 62
    7
 10
59.36076805373213
 20
229.7702822598541
 11
59.36218374396023
 21
229.78921310439668
  0
LINE
  8
_0-1_作画層１
  6
CONTINUOUS
 62
    7
 10
59.36218374396023
 20
229.78921310439668
 11
59.363821430952441
 21
229.80913498911013
  0
LINE
  8
_0-1_作画層１
  6
CONTINUOUS
 62
    7
 10
59.363821430952441
 20
229.80913498911013
 11
59.365684276084778
 21
229.8299090967526
  0
LINE
  8
_0-1_作画層１
  6
CONTINUOUS
 62
    7
 10
59.365684276084778
 20
229.8299090967526
 11
59.367775440733169
 21
229.85139661008168
  0
LINE
  8
_0-1_作画層１
  6
CONTINUOUS
 62
    7
 10
59.367775440733169
 20
229.85139661008168
 11
59.3700980862736
 21
229.87345871185516
  0
LINE
  8
_0-1_作画層１
  6
CONTINUOUS
 62
    7
 10
59.3700980862736
 20
229.87345871185516
 11
59.372655374082001
 21
229.8959565848308
  0
LINE
  8
_0-1_作画層１
  6
CONTINUOUS
 62
    7
 10
59.372655374082001
 20
229.8959565848308
 11
59.3754504655343
 21
229.91875141176635
  0
LINE
  8
_0-1_作画層１
  6
CONTINUOUS
 62
    7
 10
59.3754504655343
 20
229.91875141176635
 11
59.378486522006483
 21
229.94170437541968
  0
LINE
  8
_0-1_作画層１
  6
CONTINUOUS
 62
    7
 10
59.378486522006483
 20
229.94170437541968
 11
59.381766704874508
 21
229.96467665854851
  0
LINE
  8
_0-1_作画層１
  6
CONTINUOUS
 62
    7
 10
59.381766704874508
 20
229.96467665854851
 11
59.385294175514332
 21
229.9875294439106
  0
LINE
  8
_0-1_作画層１
  6
CONTINUOUS
 62
    7
 10
59.385294175514332
 20
229.9875294439106
 11
59.389072095301913
 21
230.01012391426377
  0
LINE
  8
_0-1_作画層１
  6
CONTINUOUS
 62
    7
 10
59.389072095301913
 20
230.01012391426377
 11
59.393103625613179
 21
230.0323212523657
  0
LINE
  8
_0-1_作画層１
  6
CONTINUOUS
 62
    7
 10
59.393103625613179
 20
230.0323212523657
 11
59.397391927824117
 21
230.05398264097431
  0
LINE
  8
_0-1_作画層１
  6
CONTINUOUS
 62
    7
 10
59.397391927824117
 20
230.05398264097431
 11
59.401940163310655
 21
230.0749692628473
  0
LINE
  8
_0-1_作画層１
  6
CONTINUOUS
 62
    7
 10
59.401940163310655
 20
230.0749692628473
 11
59.406751493448752
 21
230.09514230074242
  0
LINE
  8
_0-1_作画層１
  6
CONTINUOUS
 62
    7
 10
59.406751493448752
 20
230.09514230074242
 11
59.411829079614392
 21
230.11436293741747
  0
LINE
  8
_0-1_作画層１
  6
CONTINUOUS
 62
    7
 10
59.411829079614392
 20
230.11436293741747
 11
59.417176083183506
 21
230.13249235563023
  0
LINE
  8
_0-1_作画層１
  6
CONTINUOUS
 62
    7
 10
59.417176083183506
 20
230.13249235563023
 11
59.422795665532021
 21
230.14939173813846
  0
LINE
  8
_0-1_作画層１
  6
CONTINUOUS
 62
    7
 10
59.422795665532021
 20
230.14939173813846
 11
59.428690988035953
 21
230.16492226769995
  0
LINE
  8
_0-1_作画層１
  6
CONTINUOUS
 62
    7
 10
59.428690988035953
 20
230.16492226769995
 11
59.43486521207123
 21
230.17894512707247
  0
LINE
  8
_0-1_作画層１
  6
CONTINUOUS
 62
    7
 10
59.43486521207123
 20
230.17894512707247
 11
59.44132149901381
 21
230.19132149901381
  0
LINE
  8
_0-1_作画層１
  6
CONTINUOUS
 62
    7
 10
59.44132149901381
 20
230.19132149901381
 11
59.476170050881052
 21
230.24617799742899
  0
LINE
  8
_0-1_作画層１
  6
CONTINUOUS
 62
    7
 10
59.476170050881052
 20
230.24617799742899
 11
59.496769874387354
 21
230.27487226746018
  0
LINE
  8
_0-1_作画層１
  6
CONTINUOUS
 62
    7
 10
59.496769874387354
 20
230.27487226746018
 11
59.519321355971726
 21
230.30426877400882
  0
LINE
  8
_0-1_作画層１
  6
CONTINUOUS
 62
    7
 10
59.519321355971726
 20
230.30426877400882
 11
59.543700465406346
 21
230.33426118405126
  0
LINE
  8
_0-1_作画層１
  6
CONTINUOUS
 62
    7
 10
59.543700465406346
 20
230.33426118405126
 11
59.569783172463445
 21
230.36474316456381
  0
LINE
  8
_0-1_作画層１
  6
CONTINUOUS
 62
    7
 10
59.569783172463445
 20
230.36474316456381
 11
59.597445446915174
 21
230.39560838252268
  0
LINE
  8
_0-1_作画層１
  6
CONTINUOUS
 62
    7
 10
59.597445446915174
 20
230.39560838252268
 11
59.626563258533793
 21
230.4267505049045
  0
LINE
  8
_0-1_作画層１
  6
CONTINUOUS
 62
    7
 10
59.626563258533793
 20
230.4267505049045
 11
59.65701257709145
 21
230.45806319868521
  0
LINE
  8
_0-1_作画層１
  6
CONTINUOUS
 62
    7
 10
59.65701257709145
 20
230.45806319868521
 11
59.688669372360408
 21
230.48944013084153
  0
LINE
  8
_0-1_作画層１
  6
CONTINUOUS
 62
    7
 10
59.688669372360408
 20
230.48944013084153
 11
59.721409614112787
 21
230.52077496834934
  0
LINE
  8
_0-1_作画層１
  6
CONTINUOUS
 62
    7
 10
59.721409614112787
 20
230.52077496834934
 11
59.755109272120848
 21
230.55196137818535
  0
LINE
  8
_0-1_作画層１
  6
CONTINUOUS
 62
    7
 10
59.755109272120848
 20
230.55196137818535
 11
59.789644316156767
 21
230.58289302732567
  0
LINE
  8
_0-1_作画層１
  6
CONTINUOUS
 62
    7
 10
59.789644316156767
 20
230.58289302732567
 11
59.824890715992751
 21
230.61346358274668
  0
LINE
  8
_0-1_作画層１
  6
CONTINUOUS
 62
    7
 10
59.824890715992751
 20
230.61346358274668
 11
59.860724441400976
 21
230.64356671142465
  0
LINE
  8
_0-1_作画層１
  6
CONTINUOUS
 62
    7
 10
59.860724441400976
 20
230.64356671142465
 11
59.897021462153674
 21
230.67309608033594
  0
LINE
  8
_0-1_作画層１
  6
CONTINUOUS
 62
    7
 10
59.897021462153674
 20
230.67309608033594
 11
59.933657748023052
 21
230.70194535645686
  0
LINE
  8
_0-1_作画層１
  6
CONTINUOUS
 62
    7
 10
59.933657748023052
 20
230.70194535645686
 11
59.970509268781257
 21
230.73000820676376
  0
LINE
  8
_0-1_作画層１
  6
CONTINUOUS
 62
    7
 10
59.970509268781257
 20
230.73000820676376
 11
60.007451994200551
 21
230.75717829823293
  0
LINE
  8
_0-1_作画層１
  6
CONTINUOUS
 62
    7
 10
60.007451994200551
 20
230.75717829823293
 11
60.044361894053111
 21
230.78334929784072
  0
LINE
  8
_0-1_作画層１
  6
CONTINUOUS
 62
    7
 10
60.044361894053111
 20
230.78334929784072
 11
60.081114938111085
 21
230.80841487256333
  0
LINE
  8
_0-1_作画層１
  6
CONTINUOUS
 62
    7
 10
60.081114938111085
 20
230.80841487256333
 11
60.117587096146735
 21
230.83226868937723
  0
LINE
  8
_0-1_作画層１
  6
CONTINUOUS
 62
    7
 10
60.117587096146735
 20
230.83226868937723
 11
60.153654337932295
 21
230.85480441525874
  0
LINE
  8
_0-1_作画層１
  6
CONTINUOUS
 62
    7
 10
60.153654337932295
 20
230.85480441525874
 11
60.189192633239884
 21
230.87591571718406
  0
LINE
  8
_0-1_作画層１
  6
CONTINUOUS
 62
    7
 10
60.189192633239884
 20
230.87591571718406
 11
60.224077951841736
 21
230.8954962621296
  0
LINE
  8
_0-1_作画層１
  6
CONTINUOUS
 62
    7
 10
60.224077951841736
 20
230.8954962621296
 11
60.258186263510026
 21
230.91343971707164
  0
LINE
  8
_0-1_作画層１
  6
CONTINUOUS
 62
    7
 10
60.258186263510026
 20
230.91343971707164
 11
60.291393538017019
 21
230.92963974898652
  0
LINE
  8
_0-1_作画層１
  6
CONTINUOUS
 62
    7
 10
60.291393538017019
 20
230.92963974898652
 11
60.32357574513486
 21
230.94399002485056
  0
LINE
  8
_0-1_作画層１
  6
CONTINUOUS
 62
    7
 10
60.32357574513486
 20
230.94399002485056
 11
60.354608854635728
 21
230.95638421164003
  0
LINE
  8
_0-1_作画層１
  6
CONTINUOUS
 62
    7
 10
60.354608854635728
 20
230.95638421164003
 11
60.384368836291912
 21
230.96671597633136
  0
LINE
  8
_0-1_作画層１
  6
CONTINUOUS
 62
    7
 10
60.384368836291912
 20
230.96671597633136
 11
60.444713566983495
 21
230.98246810763146
  0
LINE
  8
_0-1_作画層１
  6
CONTINUOUS
 62
    7
 10
60.444713566983495
 20
230.98246810763146
 11
60.477879256224952
 21
230.98880880631995
  0
LINE
  8
_0-1_作画層１
  6
CONTINUOUS
 62
    7
 10
60.477879256224952
 20
230.98880880631995
 11
60.512839531191759
 21
230.9941646551998
  0
LINE
  8
_0-1_作画層１
  6
CONTINUOUS
 62
    7
 10
60.512839531191759
 20
230.9941646551998
 11
60.549443669230101
 21
230.99856470039524
  0
LINE
  8
_0-1_作画層１
  6
CONTINUOUS
 62
    7
 10
60.549443669230101
 20
230.99856470039524
 11
60.587540947686136
 21
231.00203798803059
  0
LINE
  8
_0-1_作画層１
  6
CONTINUOUS
 62
    7
 10
60.587540947686136
 20
231.00203798803059
 11
60.626980643906052
 21
231.00461356422994
  0
LINE
  8
_0-1_作画層１
  6
CONTINUOUS
 62
    7
 10
60.626980643906052
 20
231.00461356422994
 11
60.667612035236118
 21
231.00632047511789
  0
LINE
  8
_0-1_作画層１
  6
CONTINUOUS
 62
    7
 10
60.667612035236118
 20
231.00632047511789
 11
60.709284399022351
 21
231.00718776681842
  0
LINE
  8
_0-1_作画層１
  6
CONTINUOUS
 62
    7
 10
60.709284399022351
 20
231.00718776681842
 11
60.751847012611108
 21
231.00724448545606
  0
LINE
  8
_0-1_作画層１
  6
CONTINUOUS
 62
    7
 10
60.751847012611108
 20
231.00724448545606
 11
60.795149153348405
 21
231.00651967715476
  0
LINE
  8
_0-1_作画層１
  6
CONTINUOUS
 62
    7
 10
60.795149153348405
 20
231.00651967715476
 11
60.83904009858054
 21
231.0050423880391
  0
LINE
  8
_0-1_作画層１
  6
CONTINUOUS
 62
    7
 10
60.83904009858054
 20
231.0050423880391
 11
60.883369125653644
 21
231.00284166423322
  0
LINE
  8
_0-1_作画層１
  6
CONTINUOUS
 62
    7
 10
60.883369125653644
 20
231.00284166423322
 11
60.92798551191396
 21
230.9999465518614
  0
LINE
  8
_0-1_作画層１
  6
CONTINUOUS
 62
    7
 10
60.92798551191396
 20
230.9999465518614
 11
60.97273853470756
 21
230.99638609704789
  0
LINE
  8
_0-1_作画層１
  6
CONTINUOUS
 62
    7
 10
60.97273853470756
 20
230.99638609704789
 11
61.017477471380687
 21
230.99218934591701
  0
LINE
  8
_0-1_作画層１
  6
CONTINUOUS
 62
    7
 10
61.017477471380687
 20
230.99218934591701
 11
61.062051599279528
 21
230.98738534459301
  0
LINE
  8
_0-1_作画層１
  6
CONTINUOUS
 62
    7
 10
61.062051599279528
 20
230.98738534459301
 11
61.106310195750268
 21
230.98200313920015
  0
LINE
  8
_0-1_作画層１
  6
CONTINUOUS
 62
    7
 10
61.106310195750268
 20
230.98200313920015
 11
61.150102538139038
 21
230.97607177586269
  0
LINE
  8
_0-1_作画層１
  6
CONTINUOUS
 62
    7
 10
61.150102538139038
 20
230.97607177586269
 11
61.19327790379208
 21
230.969620300705
  0
LINE
  8
_0-1_作画層１
  6
CONTINUOUS
 62
    7
 10
61.19327790379208
 20
230.969620300705
 11
61.235685570055523
 21
230.96267775985118
  0
LINE
  8
_0-1_作画層１
  6
CONTINUOUS
 62
    7
 10
61.235685570055523
 20
230.96267775985118
 11
61.277174814275611
 21
230.95527319942568
  0
LINE
  8
_0-1_作画層１
  6
CONTINUOUS
 62
    7
 10
61.277174814275611
 20
230.95527319942568
 11
61.317594913798473
 21
230.94743566555272
  0
LINE
  8
_0-1_作画層１
  6
CONTINUOUS
 62
    7
 10
61.317594913798473
 20
230.94743566555272
 11
61.356795145970295
 21
230.93919420435648
  0
LINE
  8
_0-1_作画層１
  6
CONTINUOUS
 62
    7
 10
61.356795145970295
 20
230.93919420435648
 11
61.394624788137293
 21
230.93057786196138
  0
LINE
  8
_0-1_作画層１
  6
CONTINUOUS
 62
    7
 10
61.394624788137293
 20
230.93057786196138
 11
61.430933117645594
 21
230.92161568449154
  0
LINE
  8
_0-1_作画層１
  6
CONTINUOUS
 62
    7
 10
61.430933117645594
 20
230.92161568449154
 11
61.465569411841443
 21
230.91233671807134
  0
LINE
  8
_0-1_作画層１
  6
CONTINUOUS
 62
    7
 10
61.465569411841443
 20
230.91233671807134
 11
61.49838294807094
 21
230.902770008825
  0
LINE
  8
_0-1_作画層１
  6
CONTINUOUS
 62
    7
 10
61.49838294807094
 20
230.902770008825
 11
61.529223003680329
 21
230.89294460287684
  0
LINE
  8
_0-1_作画層１
  6
CONTINUOUS
 62
    7
 10
61.529223003680329
 20
230.89294460287684
 11
61.557938856015767
 21
230.88288954635109
  0
LINE
  8
_0-1_作画層１
  6
CONTINUOUS
 62
    7
 10
61.557938856015767
 20
230.88288954635109
 11
61.6536898267575
 21
230.84376482200884
  0
LINE
  8
_0-1_作画層１
  6
CONTINUOUS
 62
    7
 10
61.6536898267575
 20
230.84376482200884
 11
61.702532504652027
 21
230.82103489988069
  0
LINE
  8
_0-1_作画層１
  6
CONTINUOUS
 62
    7
 10
61.702532504652027
 20
230.82103489988069
 11
61.751989634267488
 21
230.7962926455445
  0
LINE
  8
_0-1_作画層１
  6
CONTINUOUS
 62
    7
 10
61.751989634267488
 20
230.7962926455445
 11
61.802038458132699
 21
230.76961258982286
  0
LINE
  8
_0-1_作画層１
  6
CONTINUOUS
 62
    7
 10
61.802038458132699
 20
230.76961258982286
 11
61.852656218776559
 21
230.74106926353824
  0
LINE
  8
_0-1_作画層１
  6
CONTINUOUS
 62
    7
 10
61.852656218776559
 20
230.74106926353824
 11
61.903820158727882
 21
230.71073719751308
  0
LINE
  8
_0-1_作画層１
  6
CONTINUOUS
 62
    7
 10
61.903820158727882
 20
230.71073719751308
 11
61.955507520515567
 21
230.67869092257018
  0
LINE
  8
_0-1_作画層１
  6
CONTINUOUS
 62
    7
 10
61.955507520515567
 20
230.67869092257018
 11
62.007695546668401
 21
230.64500496953173
  0
LINE
  8
_0-1_作画層１
  6
CONTINUOUS
 62
    7
 10
62.007695546668401
 20
230.64500496953173
 11
62.060361479715368
 21
230.60975386922055
  0
LINE
  8
_0-1_作画層１
  6
CONTINUOUS
 62
    7
 10
62.060361479715368
 20
230.60975386922055
 11
62.113482562185141
 21
230.5730121524588
  0
LINE
  8
_0-1_作画層１
  6
CONTINUOUS
 62
    7
 10
62.113482562185141
 20
230.5730121524588
 11
62.167036036606731
 21
230.53485435006934
  0
LINE
  8
_0-1_作画層１
  6
CONTINUOUS
 62
    7
 10
62.167036036606731
 20
230.53485435006934
 11
62.220999145508927
 21
230.4953549928745
  0
LINE
  8
_0-1_作画層１
  6
CONTINUOUS
 62
    7
 10
62.220999145508927
 20
230.4953549928745
 11
62.275349131420597
 21
230.45458861169686
  0
LINE
  8
_0-1_作画層１
  6
CONTINUOUS
 62
    7
 10
62.275349131420597
 20
230.45458861169686
 11
62.330063236870558
 21
230.41262973735891
  0
LINE
  8
_0-1_作画層１
  6
CONTINUOUS
 62
    7
 10
62.330063236870558
 20
230.41262973735891
 11
62.385118704387708
 21
230.3695529006832
  0
LINE
  8
_0-1_作画層１
  6
CONTINUOUS
 62
    7
 10
62.385118704387708
 20
230.3695529006832
 11
62.440492776500889
 21
230.32543263249221
  0
LINE
  8
_0-1_作画層１
  6
CONTINUOUS
 62
    7
 10
62.440492776500889
 20
230.32543263249221
 11
62.496162695738974
 21
230.28034346360849
  0
LINE
  8
_0-1_作画層１
  6
CONTINUOUS
 62
    7
 10
62.496162695738974
 20
230.28034346360849
 11
62.552105704630804
 21
230.23435992485457
  0
LINE
  8
_0-1_作画層１
  6
CONTINUOUS
 62
    7
 10
62.552105704630804
 20
230.23435992485457
 11
62.608299045705223
 21
230.18755654705296
  0
LINE
  8
_0-1_作画層１
  6
CONTINUOUS
 62
    7
 10
62.608299045705223
 20
230.18755654705296
 11
62.664719961491073
 21
230.14000786102608
  0
LINE
  8
_0-1_作画層１
  6
CONTINUOUS
 62
    7
 10
62.664719961491073
 20
230.14000786102608
 11
62.721345694517254
 21
230.09178839759656
  0
LINE
  8
_0-1_作画層１
  6
CONTINUOUS
 62
    7
 10
62.721345694517254
 20
230.09178839759656
 11
62.778153487312579
 21
230.04297268758697
  0
LINE
  8
_0-1_作画層１
  6
CONTINUOUS
 62
    7
 10
62.778153487312579
 20
230.04297268758697
 11
62.835120582405921
 21
229.99363526181969
  0
LINE
  8
_0-1_作画層１
  6
CONTINUOUS
 62
    7
 10
62.835120582405921
 20
229.99363526181969
 11
62.892224222326149
 21
229.94385065111729
  0
LINE
  8
_0-1_作画層１
  6
CONTINUOUS
 62
    7
 10
62.892224222326149
 20
229.94385065111729
 11
62.949441649602107
 21
229.89369338630235
  0
LINE
  8
_0-1_作画層１
  6
CONTINUOUS
 62
    7
 10
62.949441649602107
 20
229.89369338630235
 11
63.006750106762638
 21
229.84323799819728
  0
LINE
  8
_0-1_作画層１
  6
CONTINUOUS
 62
    7
 10
63.006750106762638
 20
229.84323799819728
 11
63.064126836336584
 21
229.79255901762468
  0
LINE
  8
_0-1_作画層１
  6
CONTINUOUS
 62
    7
 10
63.064126836336584
 20
229.79255901762468
 11
63.121549080852844
 21
229.74173097540699
  0
LINE
  8
_0-1_作画層１
  6
CONTINUOUS
 62
    7
 10
63.121549080852844
 20
229.74173097540699
 11
63.178994082840234
 21
229.69082840236686
  0
LINE
  8
_0-1_作画層１
  6
CONTINUOUS
 62
    7
 10
126.25
 20
159.75
 11
126.25
 21
234.75
  0
LINE
  8
_0-1_作画層１
  6
CONTINUOUS
 62
    7
 10
126.25
 20
159.75
 11
51.25
 21
159.75
  0
LINE
  8
_0-1_作画層１
  6
CONTINUOUS
 62
    7
 10
124.75
 20
161.25
 11
52.75
 21
161.25
  0
LINE
  8
_0-1_作画層１
  6
CONTINUOUS
 62
    7
 10
124.75
 20
233.25
 11
124.75
 21
161.25
  0
LINE
  8
_0-1_作画層１
  6
CONTINUOUS
 62
    7
 10
51.25
 20
159.75
 11
51.25
 21
234.75
  0
LINE
  8
_0-1_作画層１
  6
CONTINUOUS
 62
    7
 10
126.25
 20
234.75
 11
51.25
 21
234.75
  0
LINE
  8
_0-1_作画層１
  6
CONTINUOUS
 62
    7
 10
52.75
 20
233.25
 11
124.75
 21
233.25
  0
LINE
  8
_0-1_作画層１
  6
CONTINUOUS
 62
    7
 10
52.75
 20
233.25
 11
52.75
 21
161.25
  0
TEXT
  8
_0-7_注記層１
 62
    7
 10
66.150000000000006
 20
175.94999999999999
 40
2.6000000000000001
 41
1
 50
0
  1
項目
  0
TEXT
  8
_0-7_注記層１
 62
    7
 10
98.650000000000006
 20
175.94999999999999
 40
2.6000000000000001
 41
1
 50
0
  1
表示
  0
TEXT
  8
_0-7_注記層１
 62
    7
 10
106.15000000000001
 20
175.94999999999999
 40
2.6000000000000001
 41
1
 50
0
  1
登録
  0
LINE
  8
_0-1_作画層１
  6
CONTINUOUS
 62
    7
 10
75.625
 20
178.5
 11
75.625
 21
176
  0
LINE
  8
_0-1_作画層１
  6
CONTINUOUS
 62
    7
 10
75.625
 20
176
 11
78.125
 21
177.25
  0
LINE
  8
_0-1_作画層１
  6
CONTINUOUS
 62
    7
 10
78.125
 20
177.25
 11
75.625
 21
178.5
  0
LINE
  8
_0-1_作画層１
  6
CONTINUOUS
 62
    7
 10
83.249999999999986
 20
176
 11
85.749999999999986
 21
176
  0
LINE
  8
_0-1_作画層１
  6
CONTINUOUS
 62
    7
 10
85.749999999999986
 20
176
 11
84.499999999999986
 21
178.5
  0
LINE
  8
_0-1_作画層１
  6
CONTINUOUS
 62
    7
 10
84.499999999999986
 20
178.5
 11
83.249999999999986
 21
176
  0
LINE
  8
_0-1_作画層１
  6
CONTINUOUS
 62
    7
 10
84.5201010126776
 20
178.4597979746448
 11
84.493299662440791
 21
178.48659932488161
  0
LINE
  8
_0-1_作画層１
  6
CONTINUOUS
 62
    7
 10
84.446159210361685
 20
178.39231842072343
 11
84.661522368914916
 21
178.17695526217017
  0
LINE
  8
_0-1_作画層１
  6
CONTINUOUS
 62
    7
 10
84.802943725152204
 20
177.89411254969559
 11
84.399018758282594
 21
178.29803751656522
  0
LINE
  8
_0-1_作画層１
  6
CONTINUOUS
 62
    7
 10
84.94436508138952
 20
177.61126983722096
 11
84.351878306203474
 21
178.20375661240701
  0
LINE
  8
_0-1_作画層１
  6
CONTINUOUS
 62
    7
 10
85.085786437626808
 20
177.32842712474638
 11
84.304737854124383
 21
178.10947570824879
  0
LINE
  8
_0-1_作画層１
  6
CONTINUOUS
 62
    7
 10
85.227207793864125
 20
177.04558441227175
 11
84.257597402045278
 21
178.01519480409058
  0
LINE
  8
_0-1_作画層１
  6
CONTINUOUS
 62
    7
 10
84.210456949966201
 20
177.9209138999324
 11
85.368629150101384
 21
176.76274169979723
  0
LINE
  8
_0-1_作画層１
  6
CONTINUOUS
 62
    7
 10
85.5100505063387
 20
176.4798989873226
 11
84.163316497887095
 21
177.82663299577422
  0
LINE
  8
_0-1_作画層１
  6
CONTINUOUS
 62
    7
 10
85.651471862576017
 20
176.19705627484797
 11
84.11617604580799
 21
177.73235209161601
  0
LINE
  8
_0-1_作画層１
  6
CONTINUOUS
 62
    7
 10
84.069035593728898
 20
177.6380711874578
 11
85.707106781186695
 21
176
  0
LINE
  8
_0-1_作画層１
  6
CONTINUOUS
 62
    7
 10
85.565685424949379
 20
176
 11
84.021895141649779
 21
177.54379028329959
  0
LINE
  8
_0-1_作画層１
  6
CONTINUOUS
 62
    7
 10
85.424264068712048
 20
176
 11
83.974754689570673
 21
177.44950937914138
  0
LINE
  8
_0-1_作画層１
  6
CONTINUOUS
 62
    7
 10
85.282842712474775
 20
176
 11
83.927614237491582
 21
177.35522847498319
  0
LINE
  8
_0-1_作画層１
  6
CONTINUOUS
 62
    7
 10
83.880473785412491
 20
177.26094757082501
 11
85.141421356237501
 21
176
  0
LINE
  8
_0-1_作画層１
  6
CONTINUOUS
 62
    7
 10
85.000000000000171
 20
176
 11
83.833333333333385
 21
177.1666666666668
  0
LINE
  8
_0-1_作画層１
  6
CONTINUOUS
 62
    7
 10
83.78619288125428
 20
177.07238576250859
 11
84.858578643762868
 21
176
  0
LINE
  8
_0-1_作画層１
  6
CONTINUOUS
 62
    7
 10
84.717157287525566
 20
176
 11
83.739052429175175
 21
176.97810485835038
  0
LINE
  8
_0-1_作画層１
  6
CONTINUOUS
 62
    7
 10
83.691911977096083
 20
176.88382395419222
 11
84.575735931288293
 21
176
  0
LINE
  8
_0-1_作画層１
  6
CONTINUOUS
 62
    7
 10
84.434314575050962
 20
176
 11
83.644771525016978
 21
176.78954305003398
  0
LINE
  8
_0-1_作画層１
  6
CONTINUOUS
 62
    7
 10
84.292893218813674
 20
176
 11
83.597631072937887
 21
176.6952621458758
  0
LINE
  8
_0-1_作画層１
  6
CONTINUOUS
 62
    7
 10
84.151471862576344
 20
176
 11
83.550490620858781
 21
176.60098124171759
  0
LINE
  8
_0-1_作画層１
  6
CONTINUOUS
 62
    7
 10
84.010050506339056
 20
176
 11
83.503350168779676
 21
176.50670033755938
  0
LINE
  8
_0-1_作画層１
  6
CONTINUOUS
 62
    7
 10
83.868629150101754
 20
176
 11
83.45620971670057
 21
176.41241943340117
  0
LINE
  8
_0-1_作画層１
  6
CONTINUOUS
 62
    7
 10
83.727207793864466
 20
176
 11
83.409069264621479
 21
176.31813852924299
  0
LINE
  8
_0-1_作画層１
  6
CONTINUOUS
 62
    7
 10
83.585786437627135
 20
176
 11
83.361928812542374
 21
176.22385762508478
  0
LINE
  8
_0-1_作画層１
  6
CONTINUOUS
 62
    7
 10
83.314788360463268
 20
176.12957672092659
 11
83.444365081389847
 21
176
  0
LINE
  8
_0-1_作画層１
  6
CONTINUOUS
 62
    7
 10
83.267647908384163
 20
176.03529581676838
 11
83.302943725152531
 21
176
  0
LINE
  8
_0-1_作画層１
  6
CONTINUOUS
 62
    7
 10
91.374999999999986
 20
178.5
 11
93.874999999999986
 21
178.5
  0
LINE
  8
_0-1_作画層１
  6
CONTINUOUS
 62
    7
 10
93.874999999999986
 20
178.5
 11
92.624999999999986
 21
176
  0
LINE
  8
_0-1_作画層１
  6
CONTINUOUS
 62
    7
 10
92.624999999999986
 20
176
 11
91.374999999999986
 21
178.5
  0
LINE
  8
_0-1_作画層１
  6
CONTINUOUS
 62
    7
 10
92.6451010126776
 20
176.0402020253552
 11
92.618299662440791
 21
176.01340067511839
  0
LINE
  8
_0-1_作画層１
  6
CONTINUOUS
 62
    7
 10
92.571159210361685
 20
176.10768157927657
 11
92.786522368914916
 21
176.32304473782983
  0
LINE
  8
_0-1_作画層１
  6
CONTINUOUS
 62
    7
 10
92.927943725152204
 20
176.60588745030441
 11
92.524018758282594
 21
176.20196248343478
  0
LINE
  8
_0-1_作画層１
  6
CONTINUOUS
 62
    7
 10
93.06936508138952
 20
176.88873016277904
 11
92.476878306203474
 21
176.29624338759299
  0
LINE
  8
_0-1_作画層１
  6
CONTINUOUS
 62
    7
 10
93.210786437626808
 20
177.17157287525362
 11
92.429737854124383
 21
176.39052429175121
  0
LINE
  8
_0-1_作画層１
  6
CONTINUOUS
 62
    7
 10
93.352207793864125
 20
177.45441558772825
 11
92.382597402045278
 21
176.48480519590942
  0
LINE
  8
_0-1_作画層１
  6
CONTINUOUS
 62
    7
 10
92.335456949966201
 20
176.5790861000676
 11
93.493629150101384
 21
177.73725830020277
  0
LINE
  8
_0-1_作画層１
  6
CONTINUOUS
 62
    7
 10
93.6350505063387
 20
178.0201010126774
 11
92.288316497887095
 21
176.67336700422578
  0
LINE
  8
_0-1_作画層１
  6
CONTINUOUS
 62
    7
 10
93.776471862576017
 20
178.30294372515203
 11
92.24117604580799
 21
176.76764790838399
  0
LINE
  8
_0-1_作画層１
  6
CONTINUOUS
 62
    7
 10
92.194035593728898
 20
176.8619288125422
 11
93.832106781186695
 21
178.5
  0
LINE
  8
_0-1_作画層１
  6
CONTINUOUS
 62
    7
 10
93.690685424949379
 20
178.5
 11
92.146895141649779
 21
176.95620971670041
  0
LINE
  8
_0-1_作画層１
  6
CONTINUOUS
 62
    7
 10
93.549264068712048
 20
178.5
 11
92.099754689570673
 21
177.05049062085862
  0
LINE
  8
_0-1_作画層１
  6
CONTINUOUS
 62
    7
 10
93.407842712474775
 20
178.5
 11
92.052614237491582
 21
177.14477152501681
  0
LINE
  8
_0-1_作画層１
  6
CONTINUOUS
 62
    7
 10
92.005473785412491
 20
177.23905242917499
 11
93.266421356237501
 21
178.5
  0
LINE
  8
_0-1_作画層１
  6
CONTINUOUS
 62
    7
 10
93.125000000000171
 20
178.5
 11
91.958333333333385
 21
177.3333333333332
  0
LINE
  8
_0-1_作画層１
  6
CONTINUOUS
 62
    7
 10
91.91119288125428
 20
177.42761423749141
 11
92.983578643762868
 21
178.5
  0
LINE
  8
_0-1_作画層１
  6
CONTINUOUS
 62
    7
 10
92.842157287525566
 20
178.5
 11
91.864052429175175
 21
177.52189514164962
  0
LINE
  8
_0-1_作画層１
  6
CONTINUOUS
 62
    7
 10
91.816911977096083
 20
177.61617604580778
 11
92.700735931288293
 21
178.5
  0
LINE
  8
_0-1_作画層１
  6
CONTINUOUS
 62
    7
 10
92.559314575050962
 20
178.5
 11
91.769771525016978
 21
177.71045694996602
  0
LINE
  8
_0-1_作画層１
  6
CONTINUOUS
 62
    7
 10
92.417893218813674
 20
178.5
 11
91.722631072937887
 21
177.8047378541242
  0
LINE
  8
_0-1_作画層１
  6
CONTINUOUS
 62
    7
 10
92.276471862576344
 20
178.5
 11
91.675490620858781
 21
177.89901875828241
  0
LINE
  8
_0-1_作画層１
  6
CONTINUOUS
 62
    7
 10
92.135050506339056
 20
178.5
 11
91.628350168779676
 21
177.99329966244062
  0
LINE
  8
_0-1_作画層１
  6
CONTINUOUS
 62
    7
 10
91.993629150101754
 20
178.5
 11
91.58120971670057
 21
178.08758056659883
  0
LINE
  8
_0-1_作画層１
  6
CONTINUOUS
 62
    7
 10
91.852207793864466
 20
178.5
 11
91.534069264621479
 21
178.18186147075701
  0
LINE
  8
_0-1_作画層１
  6
CONTINUOUS
 62
    7
 10
91.710786437627135
 20
178.5
 11
91.486928812542374
 21
178.27614237491522
  0
LINE
  8
_0-1_作画層１
  6
CONTINUOUS
 62
    7
 10
91.439788360463268
 20
178.37042327907341
 11
91.569365081389847
 21
178.5
  0
LINE
  8
_0-1_作画層１
  6
CONTINUOUS
 62
    7
 10
91.392647908384163
 20
178.46470418323162
 11
91.427943725152531
 21
178.5
  0
TEXT
  8
_0-7_注記層１
 62
    7
 10
68.699999999999989
 20
169.69999999999999
 40
2.6000000000000001
 41
1
 50
0
  1
入
  0
TEXT
  8
_0-7_注記層１
 62
    7
 10
81.824999999999989
 20
169.69999999999999
 40
2.6000000000000001
 41
1
 50
0
  1
切
  0
TEXT
  8
_0-7_注記層１
 62
    7
 10
73.650000000000006
 20
166.57499999999999
 40
2.6000000000000001
 41
1
 50
0
  1
自動
  0
TEXT
  8
_0-7_注記層１
 62
    7
 10
72.349999999999994
 20
163.44999999999999
 40
2.6000000000000001
 41
1
 50
0
  1
出力１
  0
INSERT
  2
-004-_D4
  8
_0-9_寸法線層１
 10
6.25
 20
4.75
 41
1
 42
1
 50
0
  0
INSERT
  2
-005-_D5
  8
_0-9_寸法線層１
 10
6.25
 20
4.75
 41
1
 42
1
 50
0
  0
CIRCLE
  8
_0-1_作画層１
  6
CONTINUOUS
 62
    7
 10
153.75
 20
69.75
 40
5
  0
CIRCLE
  8
_0-1_作画層１
  6
CONTINUOUS
 62
    7
 10
171.25
 20
69.75
 40
5
  0
LINE
  8
_0-1_作画層１
  6
CONTINUOUS
 62
    7
 10
170
 20
74.125
 11
172.5
 21
74.125
  0
LINE
  8
_0-1_作画層１
  6
CONTINUOUS
 62
    7
 10
172.5
 20
65.375
 11
170
 21
65.375
  0
LINE
  8
_0-1_作画層１
  6
CONTINUOUS
 62
    7
 10
175.625
 20
71
 11
175.625
 21
68.5
  0
LINE
  8
_0-1_作画層１
  6
CONTINUOUS
 62
    7
 10
166.875
 20
68.5
 11
166.875
 21
71
  0
ARC
  8
_0-1_作画層１
  6
CONTINUOUS
 62
    7
 10
169.00000000000003
 20
71.999999999999986
 40
0.9999999999999715
 50
269.99999999999835
 51
0.0000000000008142
  0
LINE
  8
_0-1_作画層１
  6
CONTINUOUS
 62
    7
 10
166.875
 20
68.5
 11
169
 21
68.5
  0
ARC
  8
_0-1_作画層１
  6
CONTINUOUS
 62
    7
 10
169.00000000000003
 20
67.500000000000028
 40
0.9999999999999786
 50
359.99999999999881
 51
90.00000000000162
  0
LINE
  8
_0-1_作画層１
  6
CONTINUOUS
 62
    7
 10
175.625
 20
71
 11
173.5
 21
71
  0
ARC
  8
_0-1_作画層１
  6
CONTINUOUS
 62
    7
 10
173.49999999999997
 20
71.999999999999986
 40
0.9999999999999857
 50
179.99999999999918
 51
270.00000000000165
  0
LINE
  8
_0-1_作画層１
  6
CONTINUOUS
 62
    7
 10
169.0000001271566
 20
71
 11
166.875
 21
71
  0
LINE
  8
_0-1_作画層１
  6
CONTINUOUS
 62
    7
 10
175.625
 20
68.5
 11
173.5
 21
68.5
  0
LINE
  8
_0-1_作画層１
  6
CONTINUOUS
 62
    7
 10
172.5
 20
65.375
 11
172.5
 21
67.5
  0
ARC
  8
_0-1_作画層１
  6
CONTINUOUS
 62
    7
 10
173.49999999999997
 20
67.500000000000028
 40
0.9999999999999786
 50
89.99999999999838
 51
180.00000000000122
  0
LINE
  8
_0-1_作画層１
  6
CONTINUOUS
 62
    7
 10
170
 20
71.999999999999986
 11
170
 21
74.125
  0
LINE
  8
_0-1_作画層１
  6
CONTINUOUS
 62
    7
 10
170
 20
67.500000000000014
 11
170
 21
65.375
  0
LINE
  8
_0-1_作画層１
  6
CONTINUOUS
 62
    7
 10
172.5
 20
71.999999999999986
 11
172.5
 21
74.125
  0
CIRCLE
  8
_0-1_作画層１
  6
CONTINUOUS
 62
    7
 10
188.75
 20
69.75
 40
5
  0
LINE
  8
_0-1_作画層１
  6
CONTINUOUS
 62
    7
 10
187.5
 20
74.125
 11
190
 21
74.125
  0
LINE
  8
_0-1_作画層１
  6
CONTINUOUS
 62
    7
 10
190
 20
65.375
 11
187.5
 21
65.375
  0
LINE
  8
_0-1_作画層１
  6
CONTINUOUS
 62
    7
 10
193.125
 20
71
 11
193.125
 21
68.5
  0
LINE
  8
_0-1_作画層１
  6
CONTINUOUS
 62
    7
 10
184.375
 20
68.5
 11
184.375
 21
71
  0
ARC
  8
_0-1_作画層１
  6
CONTINUOUS
 62
    7
 10
186.50000000000003
 20
71.999999999999986
 40
0.9999999999999715
 50
269.99999999999835
 51
0.0000000000008142
  0
LINE
  8
_0-1_作画層１
  6
CONTINUOUS
 62
    7
 10
184.375
 20
68.5
 11
186.5
 21
68.5
  0
ARC
  8
_0-1_作画層１
  6
CONTINUOUS
 62
    7
 10
186.50000000000003
 20
67.500000000000028
 40
0.9999999999999786
 50
359.99999999999881
 51
90.00000000000162
  0
LINE
  8
_0-1_作画層１
  6
CONTINUOUS
 62
    7
 10
193.125
 20
71
 11
191
 21
71
  0
ARC
  8
_0-1_作画層１
  6
CONTINUOUS
 62
    7
 10
190.99999999999997
 20
71.999999999999986
 40
0.9999999999999857
 50
179.99999999999918
 51
270.00000000000165
  0
LINE
  8
_0-1_作画層１
  6
CONTINUOUS
 62
    7
 10
186.5000001271566
 20
71
 11
184.375
 21
71
  0
LINE
  8
_0-1_作画層１
  6
CONTINUOUS
 62
    7
 10
193.125
 20
68.5
 11
191
 21
68.5
  0
LINE
  8
_0-1_作画層１
  6
CONTINUOUS
 62
    7
 10
190
 20
65.375
 11
190
 21
67.5
  0
ARC
  8
_0-1_作画層１
  6
CONTINUOUS
 62
    7
 10
190.99999999999997
 20
67.500000000000028
 40
0.9999999999999786
 50
89.99999999999838
 51
180.00000000000122
  0
LINE
  8
_0-1_作画層１
  6
CONTINUOUS
 62
    7
 10
187.5
 20
71.999999999999986
 11
187.5
 21
74.125
  0
LINE
  8
_0-1_作画層１
  6
CONTINUOUS
 62
    7
 10
187.5
 20
67.500000000000014
 11
187.5
 21
65.375
  0
LINE
  8
_0-1_作画層１
  6
CONTINUOUS
 62
    7
 10
190
 20
71.999999999999986
 11
190
 21
74.125
  0
LINE
  8
_0-1_作画層１
  6
CONTINUOUS
 62
    7
 10
146.25
 20
62.25
 11
146.25
 21
77.25
  0
CIRCLE
  8
_0-1_作画層１
  6
CONTINUOUS
 62
    7
 10
223.75
 20
69.75
 40
5
  0
LINE
  8
_0-1_作画層１
  6
CONTINUOUS
 62
    7
 10
222.5
 20
74.125
 11
225
 21
74.125
  0
LINE
  8
_0-1_作画層１
  6
CONTINUOUS
 62
    7
 10
225
 20
65.375
 11
222.5
 21
65.375
  0
LINE
  8
_0-1_作画層１
  6
CONTINUOUS
 62
    7
 10
228.125
 20
71
 11
228.125
 21
68.5
  0
LINE
  8
_0-1_作画層１
  6
CONTINUOUS
 62
    7
 10
219.375
 20
68.5
 11
219.375
 21
71
  0
ARC
  8
_0-1_作画層１
  6
CONTINUOUS
 62
    7
 10
221.50000000000003
 20
71.999999999999986
 40
0.9999999999999715
 50
269.99999999999835
 51
0.0000000000008142
  0
LINE
  8
_0-1_作画層１
  6
CONTINUOUS
 62
    7
 10
219.375
 20
68.5
 11
221.5
 21
68.5
  0
ARC
  8
_0-1_作画層１
  6
CONTINUOUS
 62
    7
 10
221.50000000000003
 20
67.500000000000028
 40
0.9999999999999786
 50
359.99999999999881
 51
90.00000000000162
  0
LINE
  8
_0-1_作画層１
  6
CONTINUOUS
 62
    7
 10
228.125
 20
71
 11
226
 21
71
  0
ARC
  8
_0-1_作画層１
  6
CONTINUOUS
 62
    7
 10
225.99999999999997
 20
71.999999999999986
 40
0.9999999999999857
 50
179.99999999999918
 51
270.00000000000165
  0
LINE
  8
_0-1_作画層１
  6
CONTINUOUS
 62
    7
 10
221.5000001271566
 20
71
 11
219.375
 21
71
  0
LINE
  8
_0-1_作画層１
  6
CONTINUOUS
 62
    7
 10
228.125
 20
68.5
 11
226
 21
68.5
  0
LINE
  8
_0-1_作画層１
  6
CONTINUOUS
 62
    7
 10
225
 20
65.375
 11
225
 21
67.5
  0
ARC
  8
_0-1_作画層１
  6
CONTINUOUS
 62
    7
 10
225.99999999999997
 20
67.500000000000028
 40
0.9999999999999786
 50
89.99999999999838
 51
180.00000000000122
  0
LINE
  8
_0-1_作画層１
  6
CONTINUOUS
 62
    7
 10
222.5
 20
71.999999999999986
 11
222.5
 21
74.125
  0
LINE
  8
_0-1_作画層１
  6
CONTINUOUS
 62
    7
 10
222.5
 20
67.500000000000014
 11
222.5
 21
65.375
  0
LINE
  8
_0-1_作画層１
  6
CONTINUOUS
 62
    7
 10
225
 20
71.999999999999986
 11
225
 21
74.125
  0
LINE
  8
_0-1_作画層１
  6
CONTINUOUS
 62
    7
 10
231.25
 20
77.25
 11
231.25
 21
62.25
  0
CIRCLE
  8
_0-1_作画層１
  6
CONTINUOUS
 62
    7
 10
206.25
 20
69.75
 40
5
  0
LINE
  8
_0-1_作画層１
  6
CONTINUOUS
 62
    7
 10
205
 20
74.125
 11
207.5
 21
74.125
  0
LINE
  8
_0-1_作画層１
  6
CONTINUOUS
 62
    7
 10
207.5
 20
65.375
 11
205
 21
65.375
  0
LINE
  8
_0-1_作画層１
  6
CONTINUOUS
 62
    7
 10
201.875
 20
68.5
 11
201.875
 21
71
  0
ARC
  8
_0-1_作画層１
  6
CONTINUOUS
 62
    7
 10
204.00000000000003
 20
71.999999999999986
 40
0.9999999999999715
 50
269.99999999999835
 51
0.0000000000008142
  0
LINE
  8
_0-1_作画層１
  6
CONTINUOUS
 62
    7
 10
201.875
 20
68.5
 11
204
 21
68.5
  0
ARC
  8
_0-1_作画層１
  6
CONTINUOUS
 62
    7
 10
204.00000000000003
 20
67.500000000000028
 40
0.9999999999999786
 50
359.99999999999881
 51
90.00000000000162
  0
LINE
  8
_0-1_作画層１
  6
CONTINUOUS
 62
    7
 10
210.625
 20
71
 11
208.5
 21
71
  0
ARC
  8
_0-1_作画層１
  6
CONTINUOUS
 62
    7
 10
208.49999999999997
 20
71.999999999999986
 40
0.9999999999999857
 50
179.99999999999918
 51
270.00000000000165
  0
LINE
  8
_0-1_作画層１
  6
CONTINUOUS
 62
    7
 10
204.0000001271566
 20
71
 11
201.875
 21
71
  0
LINE
  8
_0-1_作画層１
  6
CONTINUOUS
 62
    7
 10
210.625
 20
68.5
 11
208.5
 21
68.5
  0
LINE
  8
_0-1_作画層１
  6
CONTINUOUS
 62
    7
 10
207.5
 20
65.375
 11
207.5
 21
67.5
  0
ARC
  8
_0-1_作画層１
  6
CONTINUOUS
 62
    7
 10
208.49999999999997
 20
67.500000000000028
 40
0.9999999999999786
 50
89.99999999999838
 51
180.00000000000122
  0
LINE
  8
_0-1_作画層１
  6
CONTINUOUS
 62
    7
 10
205
 20
71.999999999999986
 11
205
 21
74.125
  0
LINE
  8
_0-1_作画層１
  6
CONTINUOUS
 62
    7
 10
205
 20
67.500000000000014
 11
205
 21
65.375
  0
LINE
  8
_0-1_作画層１
  6
CONTINUOUS
 62
    7
 10
207.5
 20
71.999999999999986
 11
207.5
 21
74.125
  0
LINE
  8
_0-1_作画層１
  6
DASHED
 62
    7
 10
133.75
 20
102.25
 11
133.75
 21
69.75
  0
LINE
  8
_0-1_作画層１
  6
DASHED
 62
    7
 10
133.75
 20
69.75
 11
146.25
 21
69.75
  0
LINE
  8
_0-1_作画層１
  6
DASHED
 62
    7
 10
243.75
 20
102.25
 11
243.75
 21
69.75
  0
LINE
  8
_0-1_作画層１
  6
DASHED
 62
    7
 10
243.75
 20
69.75
 11
231.25
 21
69.75
  0
LINE
  8
_0-1_作画層１
  6
CONTINUOUS
 62
    7
 10
231.25
 20
77.25
 11
146.25
 21
77.25
  0
LINE
  8
_0-1_作画層１
  6
CONTINUOUS
 62
    7
 10
231.25
 20
62.25
 11
146.25
 21
62.25
  0
TEXT
  8
_0-7_注記層１
 62
    7
 10
185.375
 20
58
 40
3.5
 41
1
 50
0
  1
3
  0
LINE
  8
_0-1_作画層１
  6
CONTINUOUS
 62
    7
 10
206.25
 20
92.25
 11
206.25
 21
77.25
  0
LINE
  8
_0-1_作画層１
  6
CONTINUOUS
 62
    7
 10
223.75
 20
92.25
 11
223.75
 21
77.25
  0
TEXT
  8
_0-7_注記層１
 62
    7
 10
206.625
 20
93
 40
3.5
 41
1
 50
0
  1
内 部 回 路
  0
LINE
  8
_0-1_作画層１
  6
CONTINUOUS
 62
    7
 10
203.75
 20
97.25
 11
203.75
 21
92.25
  0
LINE
  8
_0-1_作画層１
  6
CONTINUOUS
 62
    7
 10
226.25
 20
92.25
 11
226.25
 21
97.25
  0
LINE
  8
_0-1_作画層１
  6
CONTINUOUS
 62
    7
 10
203.75
 20
92.25
 11
226.25
 21
92.25
  0
LINE
  8
_0-1_作画層１
  6
CONTINUOUS
 62
    7
 10
203.75
 20
97.25
 11
226.25
 21
97.25
  0
CIRCLE
  8
_0-1_作画層１
  6
CONTINUOUS
 62
    7
 10
175
 20
92.25
 40
1.25
  0
CIRCLE
  8
_0-1_作画層１
  6
CONTINUOUS
 62
    7
 10
185
 20
92.25
 40
1.25
  0
LINE
  8
_0-1_作画層１
  6
CONTINUOUS
 62
    7
 10
173.75
 20
92.25
 11
171.25
 21
92.25
  0
LINE
  8
_0-1_作画層１
  6
CONTINUOUS
 62
    7
 10
186.25
 20
92.25
 11
188.75
 21
92.25
  0
LINE
  8
_0-1_作画層１
  6
CONTINUOUS
 62
    7
 10
171.25
 20
77.25
 11
171.25
 21
92.25
  0
LINE
  8
_0-1_作画層１
  6
CONTINUOUS
 62
    7
 10
188.75
 20
77.25
 11
188.75
 21
92.25
  0
LINE
  8
_0-1_作画層１
  6
CONTINUOUS
 62
    7
 10
175.75
 20
93.25
 11
183.75
 21
97.25
  0
TEXT
  8
_0-7_注記層１
 62
    7
 10
174.25
 20
100.5
 40
3.5
 41
1
 50
0
  1
接点出力
  0
TEXT
  8
_0-7_注記層１
 62
    7
 10
150.375
 20
58
 40
3.5
 41
1
 50
0
  1
1
  0
TEXT
  8
_0-7_注記層１
 62
    7
 10
167.875
 20
58
 40
3.5
 41
1
 50
0
  1
2
  0
TEXT
  8
_0-7_注記層１
 62
    7
 10
202.875
 20
58
 40
3.5
 41
1
 50
0
  1
4
  0
TEXT
  8
_0-7_注記層１
 62
    7
 10
220.375
 20
58
 40
3.5
 41
1
 50
0
  1
5
  0
LINE
  8
_0-1_作画層１
  6
CONTINUOUS
 62
    7
 10
210
 20
47.25
 11
206.25
 21
47.25
  0
LINE
  8
_0-1_作画層１
  6
CONTINUOUS
 62
    7
 10
223.75
 20
47.25
 11
223.75
 21
62.25
  0
LINE
  8
_0-1_作画層１
  6
CONTINUOUS
 62
    7
 10
223.75
 20
47.25
 11
220
 21
47.25
  0
LINE
  8
_0-1_作画層１
  6
CONTINUOUS
 62
    7
 10
206.25
 20
47.25
 11
206.25
 21
62.25
  0
CIRCLE
  8
_0-1_作画層１
  6
CONTINUOUS
 62
    7
 10
215
 20
47.25
 40
5
  0
ARC
  8
_0-1_作画層１
  6
CONTINUOUS
 62
    7
 10
213.4375
 20
47.409974466828913
 40
1.5706680362308238
 50
185.84578235473452
 51
354.15421764526542
  0
ARC
  8
_0-1_作画層１
  6
CONTINUOUS
 62
    7
 10
216.5625
 20
47.090025533171058
 40
1.5706680362308283
 50
5.8457823547360706
 51
174.15421764526394
  0
TEXT
  8
_0-7_注記層１
 62
    7
 10
220.25
 20
40.5
 40
3.5
 41
1
 50
0
  1
電源
  0
TEXT
  8
_0-7_注記層１
 62
    7
 10
214.125
 20
37
 40
3.5
 41
1
 50
0
  1
AC100V-200V
  0
TEXT
  8
_0-7_注記層１
 62
    7
 10
202.5
 20
24.75
 40
3.5
 41
1
 50
0
  1
負荷用電源
  0
LINE
  8
_0-1_作画層１
  6
CONTINUOUS
 62
    7
 10
188.75
 20
62.25
 11
188.75
 21
29.75
  0
LINE
  8
_0-1_作画層１
  6
CONTINUOUS
 62
    7
 10
171.25
 20
62.25
 11
171.25
 21
22.25
  0
LINE
  8
_0-1_作画層１
  6
CONTINUOUS
 62
    7
 10
191.25
 20
29.75
 11
188.75
 21
29.75
  0
TEXT
  8
_0-7_注記層１
 62
    7
 10
192.75
 20
28
 40
3.5
 41
1
 50
0
  1
負荷
  0
LINE
  8
_0-1_作画層１
  6
CONTINUOUS
 62
    7
 10
191.25
 20
27.25
 11
201.25
 21
27.25
  0
LINE
  8
_0-1_作画層１
  6
CONTINUOUS
 62
    7
 10
201.25
 20
27.25
 11
201.25
 21
32.25
  0
LINE
  8
_0-1_作画層１
  6
CONTINUOUS
 62
    7
 10
201.25
 20
32.25
 11
191.25
 21
32.25
  0
LINE
  8
_0-1_作画層１
  6
CONTINUOUS
 62
    7
 10
191.25
 20
32.25
 11
191.25
 21
27.25
  0
LINE
  8
_0-1_作画層１
  6
CONTINUOUS
 62
    7
 10
201.25
 20
29.75
 11
218.75
 21
29.75
  0
LINE
  8
_0-1_作画層１
  6
CONTINUOUS
 62
    7
 10
171.25
 20
22.25
 11
218.75
 21
22.25
  0
CIRCLE
  8
_0-1_作画層１
  6
CONTINUOUS
 62
    7
 10
298.75
 20
157.25
 40
2
  0
CIRCLE
  8
_0-1_作画層１
  6
CONTINUOUS
 62
    7
 10
354.75
 20
157.25
 40
2
  0
CIRCLE
  8
_0-1_作画層１
  6
CONTINUOUS
 62
    7
 10
298.75
 20
68.25
 40
2
  0
CIRCLE
  8
_0-1_作画層１
  6
CONTINUOUS
 62
    7
 10
354.75
 20
68.25
 40
2
  0
LINE
  8
_0-1_作画層１
  6
DIVIDE
 62
    7
 10
298.75
 20
164.75
 11
298.75
 21
59.75
  0
LINE
  8
_0-1_作画層１
  6
DIVIDE
 62
    7
 10
354.75
 20
164.75
 11
354.75
 21
59.75
  0
LINE
  8
_0-1_作画層１
  6
DIVIDE
 62
    7
 10
291.25
 20
157.25
 11
361.25
 21
157.25
  0
LINE
  8
_0-1_作画層１
  6
DIVIDE
 62
    7
 10
291.25
 20
68.25
 11
361.25
 21
68.25
  0
INSERT
  2
-006-_D6
  8
_0-9_寸法線層１
 10
6.25
 20
4.75
 41
1
 42
1
 50
0
  0
INSERT
  2
-007-_D7
  8
_0-9_寸法線層１
 10
6.25
 20
4.75
 41
1
 42
1
 50
0
  0
TEXT
  8
_0-7_注記層１
 62
    7
 10
311.25
 20
44.75
 40
5
 41
1
 50
0
  1
取付穴加工寸法
  0
LINE
  8
_0-1_作画層１
  6
CONTINUOUS
 62
    7
 10
308.75
 20
44.75
 11
348.75
 21
44.75
  0
CIRCLE
  8
_0-1_作画層１
  6
CONTINUOUS
 62
    7
 10
103.125
 20
96
 40
1.5
  0
ARC
  8
_0-1_作画層１
  6
CONTINUOUS
 62
    7
 10
102.65625
 20
96.047992340048651
 40
0.471200410869245
 50
185.84578235473205
 51
354.15421764526803
  0
ARC
  8
_0-1_作画層１
  6
CONTINUOUS
 62
    7
 10
103.59375
 20
95.952007659951335
 40
0.4712004108692465
 50
5.8457823547337489
 51
174.15421764526624
  0
LINE
  8
_0-1_作画層１
  6
CONTINUOUS
 62
    7
 10
104.59957621030587
 20
96.274999999999991
 11
106.78749999999999
 21
96.274999999999991
  0
LINE
  8
_0-1_作画層１
  6
CONTINUOUS
 62
    7
 10
101.65042378969413
 20
96.274999999999991
 11
99.699999999999989
 21
96.274999999999991
  0
TEXT
  8
_0-7_注記層１
 62
    7
 10
62.697068403908816
 20
220.75
 40
2.6000000000000001
 41
1
 50
0
  1
日　月　火　水　木　金　土年　月日　時分
  0
TEXT
  8
_0-7_注記層１
 62
    7
 10
346.25
 20
27.25
 40
4
 41
1
 50
0
  1
平野
  0
TEXT
  8
_0-7_注記層１
 62
    7
 10
109.5
 20
228.5
 40
2.5
 41
1.2
 50
0
  1
SSC-7371
  0
LINE
  8
_0-0_BaseLayer
  6
CONTINUOUS
 62
    7
 10
102.5925234054791
 20
190.79297381053982
 11
103.8425234054791
 21
190.79297381053982
  0
LINE
  8
_0-0_BaseLayer
  6
CONTINUOUS
 62
    7
 10
103.8425234054791
 20
190.79297381053982
 11
103.8425234054791
 21
192.66797381053982
  0
LINE
  8
_0-0_BaseLayer
  6
CONTINUOUS
 62
    7
 10
103.8425234054791
 20
192.66797381053982
 11
105.0925234054791
 21
192.66797381053982
  0
LINE
  8
_0-0_BaseLayer
  6
CONTINUOUS
 62
    7
 10
105.0925234054791
 20
192.66797381053982
 11
105.0925234054791
 21
190.79297381053982
  0
LINE
  8
_0-0_BaseLayer
  6
CONTINUOUS
 62
    7
 10
105.0925234054791
 20
190.79297381053982
 11
106.3425234054791
 21
190.79297381053982
  0
TEXT
  8
_0-0_BaseLayer
 62
    7
 10
61.9145918093879
 20
190.54297381053982
 40
2.5
 41
1
 50
0
  1
時計　年間　週間  動作　入　切　　 　 ﾊﾟﾀｰﾝ
  0
LINE
  8
_0-0_BaseLayer
  6
CONTINUOUS
 62
    7
 10
79.474210246267432
 20
189.63910436552709
 11
79.474210246267432
 21
190.581292943172
  0
LINE
  8
_0-0_BaseLayer
  6
CONTINUOUS
 62
    7
 10
72.071299993343132
 20
189.63910436552709
 11
79.474210246267432
 21
189.63910436552709
  0
LINE
  8
_0-0_BaseLayer
  6
CONTINUOUS
 62
    7
 10
72.071299993343132
 20
190.581292943172
 11
72.071299993343132
 21
189.63910436552709
  0
TEXT
  8
_0-0_BaseLayer
 62
    7
 10
72.071299993343132
 20
185.73575168671246
 40
3
 41
1
 50
0
  1
期間
  0
TEXT
  8
_0-7_注記層１
 62
    7
 10
179.18355675269353
 20
170.60627505637694
 40
2.2999999999999998
 41
1
 50
90
  1
年間プログラムタイマー　 　　　 SSC-7371S
  0
TEXT
  8
_0-7_注記層１
 62
    7
 10
272.5
 20
28
 40
3.5
 41
1
 50
0
  1
2018.09.20
  0
TEXT
  8
_0-7_注記層１
 62
    7
 10
363.75
 20
17.25
 40
5
 41
1
 50
0
  1
SSC-7371S-001-01
  0
TEXT
  8
_0-7_注記層１
 62
    7
 10
306.25
 20
263
 40
3.5
 41
1
 50
0
  1
SSC-7371S
  0
TEXT
  8
_0-7_注記層１
 62
    7
 10
306.25
 20
208
 40
3.5
 41
1
 50
0
  1
1分又は1秒（ﾊﾟﾙｽ動作）
  0
TEXT
  8
_0-7_注記層１
 62
    7
 10
318.5
 20
28
 40
3.5
 41
1
 50
0
  1
イシヅ
  0
ENDSEC
  0
EOF
