  0
SECTION
  2
HEADER
  9
$ACADVER
  1
AC1009
  9
$INSBASE
 10
0
 20
0
 30
0
  9
$EXTMIN
 10
0
 20
0
  9
$EXTMAX
 10
297
 20
210
  9
$LIMMIN
 10
0
 20
0
  9
$LIMMAX
 10
297
 20
210
  9
$LTSCALE
 40
1
  0
ENDSEC
  0
SECTION
  2
TABLES
  0
TABLE
  2
LTYPE
 70
     9
  0
LTYPE
  2
CONTINUOUS
 70
    64
  3
実線
 72
    65
 73
     0
 40
0.0
  0
LTYPE
  2
DASHED1
 70
    64
  3
--  --  --  --  --  --  --  --  
 72
    65
 73
     2
 40
2.5
 49
1.25
 49
-1.25
  0
LTYPE
  2
DASHED2
 70
    64
  3
----    ----    ----    ----    
 72
    65
 73
     2
 40
5.0
 49
2.5
 49
-2.5
  0
LTYPE
  2
DASHED3
 70
    64
  3
------  ------  ------  ------  
 72
    65
 73
     2
 40
5.0
 49
3.75
 49
-1.25
  0
LTYPE
  2
CENTER1
 70
    64
  3
----- - ----- - ----- - ----- - 
 72
    65
 73
     4
 40
10.0
 49
6.25
 49
-1.25
 49
1.25
 49
-1.25
  0
LTYPE
  2
CENTER2
 70
    64
  3
----------  --  ----------  --  
 72
    65
 73
     4
 40
20.0
 49
12.5
 49
-2.5
 49
2.5
 49
-2.5
  0
LTYPE
  2
PHANTOM1
 70
    64
  3
--- - - --- - - --- - - --- - - 
 72
    65
 73
     6
 40
10.0
 49
3.25
 49
-1.25
 49
1.25
 49
-1.25
 49
1.25
 49
-1.25
  0
LTYPE
  2
PHANTOM2
 70
    64
  3
--------  -  -  --------  -  -  
 72
    65
 73
     6
 40
20.0
 49
10.0
 49
-2.5
 49
1.25
 49
-2.5
 49
1.25
 49
-2.5
  0
LTYPE
  2
DOT
 70
    64
  3
-   -   -   -   -   -   -   -   
 72
    65
 73
     2
 40
2.5
 49
0.625
 49
-1.875
  0
LTYPE
  2
DUMMY
 70
    64
  3
ダミー
 72
    65
 73
     0
 40
0.0
  0
LTYPE
  2
RAND1
 70
    64
  3
ランダム線1
 72
    65
 73
     4
 40
10.0
 49
1.0
 49
-2.0
 49
3.0
 49
-4.0
  0
LTYPE
  2
RAND2
 70
    64
  3
ランダム線2
 72
    65
 73
     4
 40
14.0
 49
2.0
 49
-3.0
 49
4.0
 49
-5.0
  0
LTYPE
  2
RAND3
 70
    64
  3
ランダム線3
 72
    65
 73
     4
 40
18.0
 49
3.0
 49
-4.0
 49
5.0
 49
-6.0
  0
LTYPE
  2
RAND4
 70
    64
  3
ランダム線4
 72
    65
 73
     4
 40
22.0
 49
4.0
 49
-5.0
 49
6.0
 49
-7.0
  0
LTYPE
  2
RAND5
 70
    64
  3
ランダム線5
 72
    65
 73
     4
 40
26.0
 49
5.0
 49
-6.0
 49
7.0
 49
-8.0
  0
LTYPE
  2
LONG1
 70
    64
  3
----------  --  ----------  --  
 72
    65
 73
     4
 40
40.0
 49
32.5
 49
-2.5
 49
2.5
 49
-2.5
  0
LTYPE
  2
LONG2
 70
    64
  3
--------  -  -  --------  -  -  
 72
    65
 73
     6
 40
40.0
 49
30.0
 49
-2.5
 49
1.25
 49
-2.5
 49
1.25
 49
-2.5
  0
LTYPE
  2
LONG3
 70
    64
  3
+++++++++++++++..+++++++++++++++
 72
    65
 73
     2
 40
40.0
 49
37.5
 49
-2.5
  0
LTYPE
  2
LONG4
 70
    64
  3
+++++++++++++++..+++++++++++++++
 72
    65
 73
     2
 40
80.0
 49
75.0
 49
-5.0
  0
LTYPE
  2
LONG5
 70
    64
  3
----------  --  ----------  --  
 72
    65
 73
     4
 40
60.0
 49
37.5
 49
-7.5
 49
7.5
 49
-7.5
  0
LTYPE
  2
dashed
 70
   64
  3
-------   -------------   ------
 72
   65
 73
    2
 40
7.5
 49
6
 49
-1.5
  0
LTYPE
  2
dashed_spaced
 70
   64
  3
----        --------        ----
 72
   65
 73
    2
 40
12
 49
6
 49
-6
  0
LTYPE
  2
long_dashed_dotted
 70
   64
  3
------------- --- --------------
 72
   65
 73
    4
 40
15.25
 49
12
 49
-1.5
 49
0.25
 49
-1.5
  0
LTYPE
  2
long_dashed_double-dotted
 70
   64
  3
----------- --- --- ------------
 72
   65
 73
    6
 40
17
 49
12
 49
-1.5
 49
0.25
 49
-1.5
 49
0.25
 49
-1.5
  0
LTYPE
  2
long_dashed_triplicate-dotted
 70
   64
  3
--------- --- --- --- ----------
 72
   65
 73
    8
 40
18.75
 49
12
 49
-1.5
 49
0.25
 49
-1.5
 49
0.25
 49
-1.5
 49
0.25
 49
-1.5
  0
LTYPE
  2
dotted
 70
   64
  3
   -       -       -       -    
 72
   65
 73
    2
 40
1.75
 49
0.25
 49
-1.5
  0
LTYPE
  2
chain
 70
   64
  3
-------------- -- --------------
 72
   65
 73
    4
 40
18.5
 49
12
 49
-1.5
 49
3.5
 49
-1.5
  0
LTYPE
  2
chain_double_dash
 70
   64
  3
------------ -- -- -------------
 72
   65
 73
    6
 40
23.5
 49
12
 49
-1.5
 49
3.5
 49
-1.5
 49
3.5
 49
-1.5
  0
LTYPE
  2
dashed_dotted
 70
   64
  3
-----------     -     ----------
 72
   65
 73
    4
 40
9.25
 49
6
 49
-1.5
 49
0.25
 49
-1.5
  0
LTYPE
  2
double-dashed_dotted
 70
   64
  3
------   -----------   -   -----
 72
   65
 73
    6
 40
16.75
 49
6
 49
-1.5
 49
6
 49
-1.5
 49
0.25
 49
-1.5
  0
LTYPE
  2
dashed_double-dotted
 70
   64
  3
---------    -    -    ---------
 72
   65
 73
    6
 40
11
 49
6
 49
-1.5
 49
0.25
 49
-1.5
 49
0.25
 49
-1.5
  0
LTYPE
  2
double-dashed_double-dotted
 70
   64
  3
-----   ---------   -   -   ----
 72
   65
 73
    8
 40
18.5
 49
6
 49
-1.5
 49
6
 49
-1.5
 49
0.25
 49
-1.5
 49
0.25
 49
-1.5
  0
LTYPE
  2
dashed_triplicate-dotted
 70
   64
  3
-------    -    -    -    ------
 72
   65
 73
    8
 40
12.75
 49
6
 49
-1.5
 49
0.25
 49
-1.5
 49
0.25
 49
-1.5
 49
0.25
 49
-1.5
  0
LTYPE
  2
double-dashed_triplicate-dotted
 70
   64
  3
-----  ---------  -  -  -  -----
 72
   65
 73
   10
 40
20.25
 49
6
 49
-1.5
 49
6
 49
-1.5
 49
0.25
 49
-1.5
 49
0.25
 49
-1.5
 49
0.25
 49
-1.5
  0
LTYPE
  2
undefined
 70
   64
  3
--------------------------------
 72
   65
 73
    0
 40
0
  0
LTYPE
  2
DASHED
 70
   64
  3
----        --------        ----
 72
   65
 73
    2
 40
4
 49
2
 49
-2
  0
LTYPE
  2
DOT_18
 70
   64
  3
---           -----           --
 72
   65
 73
    2
 40
3
 49
1
 49
-2
  0
LTYPE
  2
DASHDOT
 70
   64
  3
---------    ------    ---------
 72
   65
 73
    4
 40
17
 49
10
 49
-2
 49
3
 49
-2
  0
LTYPE
  2
DIVIDE
 70
   64
  3
-----------  --  --  -----------
 72
   65
 73
    6
 40
30
 49
20
 49
-2
 49
2
 49
-2
 49
2
 49
-2
  0
LTYPE
  2
CENTER
 70
   64
  3
-------------  --  -------------
 72
   65
 73
    4
 40
13
 49
10
 49
-1
 49
1
 49
-1
  0
LTYPE
  2
_
 70
   64
  3
                                
 72
   65
 73
    0
 40
0
  0
LTYPE
  2
__23
 70
   64
  3
                                
 72
   65
 73
    0
 40
0
  0
LTYPE
  2
__24
 70
   64
  3
                                
 72
   65
 73
    0
 40
0
  0
LTYPE
  2
__25
 70
   64
  3
                                
 72
   65
 73
    0
 40
0
  0
LTYPE
  2
__26
 70
   64
  3
                                
 72
   65
 73
    0
 40
0
  0
LTYPE
  2
__27
 70
   64
  3
                                
 72
   65
 73
    0
 40
0
  0
LTYPE
  2
__28
 70
   64
  3
                                
 72
   65
 73
    0
 40
0
  0
LTYPE
  2
__29
 70
   64
  3
                                
 72
   65
 73
    0
 40
0
  0
LTYPE
  2
__30
 70
   64
  3
                                
 72
   65
 73
    0
 40
0
  0
LTYPE
  2
__31
 70
   64
  3
                                
 72
   65
 73
    0
 40
0
  0
LTYPE
  2
__32
 70
   64
  3
                                
 72
   65
 73
    0
 40
0
  0
ENDTAB
  0
TABLE
  2
STYLE
  5
3
100
AcDbSymbolTable
 70
     1
  0
STYLE
  5
10
100
AcDbSymbolTableRecord
100
AcDbTextStyleTableRecord
  2
STANDARD
 70
     0
 40
0.0
 41
1.0
 50
0.0
 71
     0
 42
0.2
  3
txt
  4
bigfont.shx
  0
STYLE
  5
26
100
AcDbSymbolTableRecord
100
AcDbTextStyleTableRecord
  2
TATEGAKI
 70
    68
 40
0.0
 41
1.0
 50
0.0
 71
     0
 42
1.0
  3
txt
  4
bigfont.shx
  0
ENDTAB
  0
TABLE
  2
LAYER
 70
    5
  0
LAYER
  2
_0-0_BaseLayer
 70
   64
 62
    7
  6
CONTINUOUS
  0
LAYER
  2
_0-1_作画層１
 70
   64
 62
    7
  6
CONTINUOUS
  0
LAYER
  2
_0-7_注記層１
 70
   64
 62
    7
  6
CONTINUOUS
  0
LAYER
  2
_0-9_寸法線層１
 70
   64
 62
    7
  6
CONTINUOUS
  0
LAYER
  2
ADD_LINE
 70
   64
 62
    7
  6
CONTINUOUS
  0
ENDTAB
  0
ENDSEC
  0
SECTION
  2
BLOCKS
  0
BLOCK
  2
-000-_D0
 70
   64
 10
0
 20
0
 30
0
  0
LINE
  8
_0-9_寸法線層１
  6
CONTINUOUS
 62
    7
 10
135
 20
230
 11
135
 21
155
  0
TEXT
  8
_0-9_寸法線層１
 62
    7
 10
134
 20
190.61177143234622
 40
3
 41
1
 50
90
  1
75
  0
LINE
  8
_0-9_寸法線層１
  6
CONTINUOUS
 62
    7
 10
144.5
 20
230
 11
133
 21
230
  0
LINE
  8
_0-9_寸法線層１
  6
CONTINUOUS
 62
    7
 10
144.5
 20
155
 11
133
 21
155
  0
ENDBLK
  0
BLOCK
  2
-001-_D1
 70
   64
 10
0
 20
0
 30
0
  0
LINE
  8
_0-9_寸法線層１
  6
CONTINUOUS
 62
    7
 10
120
 20
247.5
 11
45
 21
247.5
  0
TEXT
  8
_0-9_寸法線層１
 62
    7
 10
80.611771432346217
 20
248.5
 40
3
 41
1
 50
0
  1
75
  0
LINE
  8
_0-9_寸法線層１
  6
CONTINUOUS
 62
    7
 10
120
 20
230.5
 11
120
 21
249.5
  0
LINE
  8
_0-9_寸法線層１
  6
CONTINUOUS
 62
    7
 10
45
 20
230.5
 11
45
 21
249.5
  0
ENDBLK
  0
BLOCK
  2
-002-_D2
 70
   64
 10
0
 20
0
 30
0
  0
LINE
  8
_0-9_寸法線層１
  6
CONTINUOUS
 62
    7
 10
27.5
 20
155
 11
27.5
 21
230
  0
TEXT
  8
_0-9_寸法線層１
 62
    7
 10
26.5
 20
190.61177143234622
 40
3
 41
1
 50
90
  1
75
  0
LINE
  8
_0-9_寸法線層１
  6
CONTINUOUS
 62
    7
 10
46
 20
155
 11
25.5
 21
155
  0
LINE
  8
_0-9_寸法線層１
  6
CONTINUOUS
 62
    7
 10
46
 20
230
 11
25.5
 21
230
  0
ENDBLK
  0
BLOCK
  2
-003-_D3
 70
   64
 10
0
 20
0
 30
0
  0
LINE
  8
_0-9_寸法線層１
  6
CONTINUOUS
 62
    7
 10
35
 20
228.5
 11
35
 21
156.5
  0
TEXT
  8
_0-9_寸法線層１
 62
    7
 10
34
 20
190.61177143234622
 40
3
 41
1
 50
90
  1
72
  0
LINE
  8
_0-9_寸法線層１
  6
CONTINUOUS
 62
    7
 10
46
 20
228.5
 11
33
 21
228.5
  0
LINE
  8
_0-9_寸法線層１
  6
CONTINUOUS
 62
    7
 10
46
 20
156.5
 11
33
 21
156.5
  0
ENDBLK
  0
BLOCK
  2
-004-_D4
 70
   64
 10
0
 20
0
 30
0
  0
LINE
  8
_0-9_寸法線層１
  6
CONTINUOUS
 62
    7
 10
46.5
 20
240
 11
118.5
 21
240
  0
TEXT
  8
_0-9_寸法線層１
 62
    7
 10
80.611771432346217
 20
241
 40
3
 41
1
 50
0
  1
72
  0
LINE
  8
_0-9_寸法線層１
  6
CONTINUOUS
 62
    7
 10
46.5
 20
229
 11
46.5
 21
242
  0
LINE
  8
_0-9_寸法線層１
  6
CONTINUOUS
 62
    7
 10
118.5
 20
229
 11
118.5
 21
242
  0
ENDBLK
  0
BLOCK
  2
-005-_D5
 70
   64
 10
0
 20
0
 30
0
  0
LINE
  8
_0-9_寸法線層１
  6
CONTINUOUS
 62
    7
 10
206.59059833684026
 20
240
 11
144.59059446254071
 21
240
  0
TEXT
  8
_0-9_寸法線層１
 62
    7
 10
173.70236783203669
 20
241
 40
3
 41
1
 50
0
  1
62
  0
LINE
  8
_0-9_寸法線層１
  6
CONTINUOUS
 62
    7
 10
206.59059833684026
 20
226.75000381469727
 11
206.59059833684026
 21
242
  0
LINE
  8
_0-9_寸法線層１
  6
CONTINUOUS
 62
    7
 10
144.59059446254071
 20
155.5
 11
144.59059446254071
 21
242
  0
ENDBLK
  0
BLOCK
  2
-006-_D6
 70
   64
 10
0
 20
0
 30
0
  0
LINE
  8
_0-9_寸法線層１
  6
CONTINUOUS
 62
    7
 10
374
 20
157.5
 11
340
 21
157.5
  0
TEXT
  8
_0-9_寸法線層１
 62
    7
 10
352.74001143498862
 20
159.09999999999999
 40
3
 41
1
 50
0
  1
68
  0
TEXT
  8
_0-9_寸法線層１
 62
    7
 10
356.51646857029613
 20
160.59999999999999
 40
2.0999999999999996
 41
1
 50
0
  1
+0.8
  0
TEXT
  8
_0-9_寸法線層１
 62
    7
 10
356.51646857029613
 20
158.5
 40
2.0999999999999996
 41
1
 50
0
  1
-0
  0
LINE
  8
_0-9_寸法線層１
  6
CONTINUOUS
 62
    7
 10
374
 20
154.5
 11
374
 21
159.5
  0
LINE
  8
_0-9_寸法線層１
  6
CONTINUOUS
 62
    7
 10
340
 20
154.5
 11
340
 21
159.5
  0
ENDBLK
  0
BLOCK
  2
-007-_D7
 70
   64
 10
0
 20
0
 30
0
  0
LINE
  8
_0-9_寸法線層１
  6
CONTINUOUS
 62
    7
 10
380
 20
120
 11
380
 21
154
  0
TEXT
  8
_0-9_寸法線層１
 62
    7
 10
378.39999999999998
 20
132.74001143498859
 40
3
 41
1
 50
90
  1
68
  0
TEXT
  8
_0-9_寸法線層１
 62
    7
 10
376.89999999999998
 20
136.51646857029613
 40
2.0999999999999996
 41
1
 50
90
  1
+0.8
  0
TEXT
  8
_0-9_寸法線層１
 62
    7
 10
379
 20
136.51646857029613
 40
2.0999999999999996
 41
1
 50
90
  1
-0
  0
LINE
  8
_0-9_寸法線層１
  6
CONTINUOUS
 62
    7
 10
374.5
 20
120
 11
382
 21
120
  0
LINE
  8
_0-9_寸法線層１
  6
CONTINUOUS
 62
    7
 10
374.5
 20
154
 11
382
 21
154
  0
ENDBLK
  0
ENDSEC
  0
SECTION
  2
ENTITIES
  0
TEXT
  8
_0-7_注記層１
 62
    7
 10
117.68355675269353
 20
127.10627505637694
 40
2.2999999999999998
 41
1
 50
90
  1
年間プログラムタイマー　 　　　 SSC-7372P
  0
LINE
  8
_0-1_作画層１
  6
CONTINUOUS
 62
    7
 10
41.75
 20
136.25
 11
36.75
 21
136.25
  0
LINE
  8
_0-1_作画層１
  6
CONTINUOUS
 62
    7
 10
36.75
 20
136.25
 11
36.75
 21
141.25
  0
LINE
  8
_0-1_作画層１
  6
CONTINUOUS
 62
    7
 10
36.75
 20
141.25
 11
41.75
 21
141.25
  0
LINE
  8
_0-1_作画層１
  6
CONTINUOUS
 62
    7
 10
41.75
 20
141.25
 11
41.75
 21
136.25
  0
TEXT
  8
_0-7_注記層１
 62
    7
 10
239.625
 20
-15.5
 40
3.5
 41
1
 50
0
  1
1/1
  0
TEXT
  8
_0-7_注記層１
 62
    7
 10
273.75
 20
-13
 40
3.5
 41
1
 50
0
  1
承認
  0
TEXT
  8
_0-7_注記層１
 62
    7
 10
212.25
 20
-26.25
 40
5
 41
1
 50
0
  1
スナオ電気株式会社
  0
LINE
  8
_0-1_作画層１
  6
CONTINUOUS
 62
    7
 10
207.25
 20
-8.75
 11
207.25
 21
-28.75
  0
LINE
  8
_0-1_作画層１
  6
CONTINUOUS
 62
    7
 10
232.25
 20
-8.75
 11
232.25
 21
-18.75
  0
LINE
  8
_0-1_作画層１
  6
CONTINUOUS
 62
    7
 10
252.25
 20
-8.75
 11
252.25
 21
-18.75
  0
LINE
  8
_0-1_作画層１
  6
CONTINUOUS
 62
    7
 10
272.25
 20
-8.75
 11
272.25
 21
-18.75
  0
LINE
  8
_0-1_作画層１
  6
CONTINUOUS
 62
    7
 10
297.25
 20
-28.75
 11
297.25
 21
-8.75
  0
LINE
  8
_0-1_作画層１
  6
CONTINUOUS
 62
    7
 10
352.25
 20
248.75
 11
-45.25
 21
248.75
  0
LINE
  8
_0-1_作画層１
  6
CONTINUOUS
 62
    7
 10
-45.25
 20
-28.75
 11
-45.25
 21
248.75
  0
LINE
  8
_0-1_作画層１
  6
CONTINUOUS
 62
    7
 10
352.25
 20
-28.75
 11
-45.25
 21
-28.75
  0
LINE
  8
_0-1_作画層１
  6
CONTINUOUS
 62
    7
 10
352.25
 20
-8.75
 11
207.25
 21
-8.75
  0
LINE
  8
_0-1_作画層１
  6
CONTINUOUS
 62
    7
 10
352.25
 20
-18.75
 11
207.25
 21
-18.75
  0
LINE
  8
_0-1_作画層１
  6
CONTINUOUS
 62
    7
 10
352.25
 20
-28.75
 11
352.25
 21
248.75
  0
TEXT
  8
_0-7_注記層１
 62
    7
 10
302.25
 20
-15.5
 40
3.5
 41
1
 50
0
  1
年間タイマー
  0
TEXT
  8
_0-7_注記層１
 62
    7
 10
-17.75
 20
236.25
 40
5
 41
1
 50
0
  1
外形寸法
  0
LINE
  8
_0-1_作画層１
  6
CONTINUOUS
 62
    7
 10
-20.25
 20
236.25
 11
4.75
 21
236.25
  0
LINE
  8
_0-1_作画層１
  6
CONTINUOUS
 62
    7
 10
109.75
 20
71.25
 11
134.75
 21
71.25
  0
TEXT
  8
_0-7_注記層１
 62
    7
 10
112.25
 20
71.25
 40
5
 41
1
 50
0
  1
端子接続
  0
LINE
  8
_0-1_作画層１
  6
CONTINUOUS
 62
    7
 10
84.75
 20
18.75
 11
84.75
 21
33.75
  0
LINE
  8
_0-1_作画層１
  6
DASHED
 62
    7
 10
72.25
 20
58.75
 11
72.25
 21
26.25
  0
LINE
  8
_0-1_作画層１
  6
DASHED
 62
    7
 10
72.25
 20
26.25
 11
84.75
 21
26.25
  0
ARC
  8
_0-1_作画層１
  6
CONTINUOUS
 62
    7
 10
2.25
 20
174.25000000000003
 40
1.9999999999999716
 50
89.999999999999588
 51
180.0000000000008
  0
LINE
  8
_0-1_作画層１
  6
CONTINUOUS
 62
    7
 10
0.25
 20
174.25
 11
0.25
 21
152.25
  0
ARC
  8
_0-1_作画層１
  6
CONTINUOUS
 62
    7
 10
2.25
 20
152.24999999999997
 40
1.9999999999999858
 50
179.99999999999918
 51
270.0000000000004
  0
LINE
  8
_0-1_作画層１
  6
CONTINUOUS
 62
    7
 10
2.25
 20
150.25
 11
52.25
 21
150.25
  0
ARC
  8
_0-1_作画層１
  6
CONTINUOUS
 62
    7
 10
52.250000000000028
 20
152.24999999999997
 40
1.9999999999999716
 50
269.9999999999992
 51
0.0000000000007887
  0
LINE
  8
_0-1_作画層１
  6
CONTINUOUS
 62
    7
 10
54.25
 20
152.25
 11
54.25
 21
174.25
  0
LINE
  8
_0-1_作画層１
  6
CONTINUOUS
 62
    7
 10
2.25
 20
176.25
 11
52.25
 21
176.25
  0
ARC
  8
_0-1_作画層１
  6
CONTINUOUS
 62
    7
 10
52.250000000000028
 20
174.25000000000003
 40
1.9999999999999716
 50
359.9999999999992
 51
90.000000000000782
  0
LINE
  8
_0-1_作画層１
  6
CONTINUOUS
 62
    7
 10
33.75
 20
136.25
 11
28.75
 21
136.25
  0
LINE
  8
_0-1_作画層１
  6
CONTINUOUS
 62
    7
 10
28.75
 20
136.25
 11
28.75
 21
141.25
  0
LINE
  8
_0-1_作画層１
  6
CONTINUOUS
 62
    7
 10
28.75
 20
141.25
 11
33.75
 21
141.25
  0
LINE
  8
_0-1_作画層１
  6
CONTINUOUS
 62
    7
 10
33.75
 20
141.25
 11
33.75
 21
136.25
  0
LINE
  8
_0-1_作画層１
  6
CONTINUOUS
 62
    7
 10
49.75
 20
136.25
 11
44.75
 21
136.25
  0
LINE
  8
_0-1_作画層１
  6
CONTINUOUS
 62
    7
 10
44.75
 20
136.25
 11
44.75
 21
141.25
  0
LINE
  8
_0-1_作画層１
  6
CONTINUOUS
 62
    7
 10
44.75
 20
141.25
 11
49.75
 21
141.25
  0
LINE
  8
_0-1_作画層１
  6
CONTINUOUS
 62
    7
 10
49.75
 20
141.25
 11
49.75
 21
136.25
  0
LINE
  8
_0-1_作画層１
  6
CONTINUOUS
 62
    7
 10
20.75
 20
136.25
 11
25.75
 21
136.25
  0
LINE
  8
_0-1_作画層１
  6
CONTINUOUS
 62
    7
 10
25.75
 20
136.25
 11
25.75
 21
141.25
  0
LINE
  8
_0-1_作画層１
  6
CONTINUOUS
 62
    7
 10
25.75
 20
141.25
 11
20.75
 21
141.25
  0
LINE
  8
_0-1_作画層１
  6
CONTINUOUS
 62
    7
 10
20.75
 20
141.25
 11
20.75
 21
136.25
  0
LINE
  8
_0-1_作画層１
  6
CONTINUOUS
 62
    7
 10
12.75
 20
136.25
 11
17.75
 21
136.25
  0
LINE
  8
_0-1_作画層１
  6
CONTINUOUS
 62
    7
 10
17.75
 20
136.25
 11
17.75
 21
141.25
  0
LINE
  8
_0-1_作画層１
  6
CONTINUOUS
 62
    7
 10
17.75
 20
141.25
 11
12.75
 21
141.25
  0
LINE
  8
_0-1_作画層１
  6
CONTINUOUS
 62
    7
 10
12.75
 20
141.25
 11
12.75
 21
136.25
  0
LINE
  8
_0-1_作画層１
  6
CONTINUOUS
 62
    7
 10
4.75
 20
136.25
 11
9.75
 21
136.25
  0
LINE
  8
_0-1_作画層１
  6
CONTINUOUS
 62
    7
 10
9.75
 20
136.25
 11
9.75
 21
141.25
  0
LINE
  8
_0-1_作画層１
  6
CONTINUOUS
 62
    7
 10
9.75
 20
141.25
 11
4.75
 21
141.25
  0
LINE
  8
_0-1_作画層１
  6
CONTINUOUS
 62
    7
 10
4.75
 20
141.25
 11
4.75
 21
136.25
  0
CIRCLE
  8
_0-1_作画層１
  6
CONTINUOUS
 62
    7
 10
27.25
 20
128.75
 40
1
  0
LINE
  8
_0-1_作画層１
  6
CONTINUOUS
 62
    7
 10
11
 20
126.25
 11
19
 21
126.25
  0
LINE
  8
_0-1_作画層１
  6
CONTINUOUS
 62
    7
 10
19
 20
126.25
 11
19
 21
129.25
  0
LINE
  8
_0-1_作画層１
  6
CONTINUOUS
 62
    7
 10
19
 20
129.25
 11
11
 21
129.25
  0
LINE
  8
_0-1_作画層１
  6
CONTINUOUS
 62
    7
 10
11
 20
129.25
 11
11
 21
126.25
  0
LINE
  8
_0-1_作画層１
  6
CONTINUOUS
 62
    7
 10
13.75
 20
129.25
 11
13.75
 21
126.25
  0
LINE
  8
_0-1_作画層１
  6
CONTINUOUS
 62
    7
 10
16.25
 20
129.25
 11
16.25
 21
126.25
  0
LINE
  8
_0-1_作画層１
  6
CONTINUOUS
 62
    7
 10
13.75
 20
129.25
 11
16.25
 21
129.25
  0
LINE
  8
_0-1_作画層１
  6
CONTINUOUS
 62
    7
 10
16.25
 20
129.25
 11
16.25
 21
126.25
  0
LINE
  8
_0-1_作画層１
  6
CONTINUOUS
 62
    7
 10
16.25
 20
126.25
 11
13.75
 21
126.25
  0
LINE
  8
_0-1_作画層１
  6
CONTINUOUS
 62
    7
 10
13.75
 20
126.25
 11
13.75
 21
129.25
  0
LINE
  8
_0-1_作画層１
  6
CONTINUOUS
 62
    7
 10
16.25
 20
129.22989898732231
 11
16.229898987322315
 21
129.25
  0
LINE
  8
_0-1_作画層１
  6
CONTINUOUS
 62
    7
 10
16.088477631085055
 20
129.25
 11
16.25
 21
129.08847763108506
  0
LINE
  8
_0-1_作画層１
  6
CONTINUOUS
 62
    7
 10
15.947056274847739
 20
129.25
 11
16.25
 21
128.94705627484774
  0
LINE
  8
_0-1_作画層１
  6
CONTINUOUS
 62
    7
 10
15.805634918610451
 20
129.25
 11
16.25
 21
128.80563491861045
  0
LINE
  8
_0-1_作画層１
  6
CONTINUOUS
 62
    7
 10
16.25
 20
128.66421356237313
 11
15.664213562373135
 21
129.25
  0
LINE
  8
_0-1_作画層１
  6
CONTINUOUS
 62
    7
 10
15.522792206135847
 20
129.25
 11
16.25
 21
128.52279220613585
  0
LINE
  8
_0-1_作画層１
  6
CONTINUOUS
 62
    7
 10
16.25
 20
128.38137084989853
 11
15.381370849898531
 21
129.25
  0
LINE
  8
_0-1_作画層１
  6
CONTINUOUS
 62
    7
 10
15.239949493661243
 20
129.25
 11
16.25
 21
128.23994949366124
  0
LINE
  8
_0-1_作画層１
  6
CONTINUOUS
 62
    7
 10
15.098528137423955
 20
129.25
 11
16.25
 21
128.09852813742395
  0
LINE
  8
_0-1_作画層１
  6
CONTINUOUS
 62
    7
 10
14.957106781186667
 20
129.25
 11
16.25
 21
127.95710678118667
  0
LINE
  8
_0-1_作画層１
  6
CONTINUOUS
 62
    7
 10
16.25
 20
127.81568542494932
 11
14.815685424949322
 21
129.25
  0
LINE
  8
_0-1_作画層１
  6
CONTINUOUS
 62
    7
 10
16.25
 20
127.67426406871203
 11
14.674264068712034
 21
129.25
  0
LINE
  8
_0-1_作画層１
  6
CONTINUOUS
 62
    7
 10
16.25
 20
127.53284271247472
 11
14.532842712474718
 21
129.25
  0
LINE
  8
_0-1_作画層１
  6
CONTINUOUS
 62
    7
 10
16.25
 20
127.3914213562374
 11
14.391421356237402
 21
129.25
  0
LINE
  8
_0-1_作画層１
  6
CONTINUOUS
 62
    7
 10
16.25
 20
127.25000000000011
 11
14.250000000000114
 21
129.25
  0
LINE
  8
_0-1_作画層１
  6
CONTINUOUS
 62
    7
 10
16.25
 20
127.10857864376283
 11
14.108578643762826
 21
129.25
  0
LINE
  8
_0-1_作画層１
  6
CONTINUOUS
 62
    7
 10
16.25
 20
126.96715728752551
 11
13.967157287525509
 21
129.25
  0
LINE
  8
_0-1_作画層１
  6
CONTINUOUS
 62
    7
 10
16.25
 20
126.82573593128822
 11
13.825735931288222
 21
129.25
  0
LINE
  8
_0-1_作画層１
  6
CONTINUOUS
 62
    7
 10
16.25
 20
126.68431457505091
 11
13.75
 21
129.18431457505091
  0
LINE
  8
_0-1_作画層１
  6
CONTINUOUS
 62
    7
 10
16.25
 20
126.54289321881359
 11
13.75
 21
129.04289321881359
  0
LINE
  8
_0-1_作画層１
  6
CONTINUOUS
 62
    7
 10
16.25
 20
126.4014718625763
 11
13.75
 21
128.9014718625763
  0
LINE
  8
_0-1_作画層１
  6
CONTINUOUS
 62
    7
 10
16.25
 20
126.26005050633901
 11
13.75
 21
128.76005050633901
  0
LINE
  8
_0-1_作画層１
  6
CONTINUOUS
 62
    7
 10
16.118629150101697
 20
126.25
 11
13.75
 21
128.6186291501017
  0
LINE
  8
_0-1_作画層１
  6
CONTINUOUS
 62
    7
 10
15.97720779386438
 20
126.25
 11
13.75
 21
128.47720779386438
  0
LINE
  8
_0-1_作画層１
  6
CONTINUOUS
 62
    7
 10
13.75
 20
128.33578643762712
 11
15.835786437627121
 21
126.25
  0
LINE
  8
_0-1_作画層１
  6
CONTINUOUS
 62
    7
 10
15.694365081389776
 20
126.25
 11
13.75
 21
128.19436508138978
  0
LINE
  8
_0-1_作画層１
  6
CONTINUOUS
 62
    7
 10
15.552943725152488
 20
126.25
 11
13.75
 21
128.05294372515249
  0
LINE
  8
_0-1_作画層１
  6
CONTINUOUS
 62
    7
 10
15.4115223689152
 20
126.25
 11
13.75
 21
127.9115223689152
  0
LINE
  8
_0-1_作画層１
  6
CONTINUOUS
 62
    7
 10
15.270101012677884
 20
126.25
 11
13.75
 21
127.77010101267788
  0
LINE
  8
_0-1_作画層１
  6
CONTINUOUS
 62
    7
 10
15.128679656440596
 20
126.25
 11
13.75
 21
127.6286796564406
  0
LINE
  8
_0-1_作画層１
  6
CONTINUOUS
 62
    7
 10
14.98725830020328
 20
126.25
 11
13.75
 21
127.48725830020328
  0
LINE
  8
_0-1_作画層１
  6
CONTINUOUS
 62
    7
 10
13.75
 20
127.34583694396599
 11
14.845836943965992
 21
126.25
  0
LINE
  8
_0-1_作画層１
  6
CONTINUOUS
 62
    7
 10
14.704415587728676
 20
126.25
 11
13.75
 21
127.20441558772868
  0
LINE
  8
_0-1_作画層１
  6
CONTINUOUS
 62
    7
 10
14.562994231491359
 20
126.25
 11
13.75
 21
127.06299423149136
  0
LINE
  8
_0-1_作画層１
  6
CONTINUOUS
 62
    7
 10
14.421572875254071
 20
126.25
 11
13.75
 21
126.92157287525407
  0
LINE
  8
_0-1_作画層１
  6
CONTINUOUS
 62
    7
 10
13.75
 20
126.78015151901678
 11
14.280151519016783
 21
126.25
  0
LINE
  8
_0-1_作画層１
  6
CONTINUOUS
 62
    7
 10
14.138730162779467
 20
126.25
 11
13.75
 21
126.63873016277947
  0
LINE
  8
_0-1_作画層１
  6
CONTINUOUS
 62
    7
 10
13.997308806542179
 20
126.25
 11
13.75
 21
126.49730880654218
  0
LINE
  8
_0-1_作画層１
  6
CONTINUOUS
 62
    7
 10
13.855887450304863
 20
126.25
 11
13.75
 21
126.35588745030486
  0
LINE
  8
_0-1_作画層１
  6
CONTINUOUS
 62
    7
 10
17.120000000000005
 20
168.26999999999998
 11
17.120000000000005
 21
164.96999999999997
  0
LINE
  8
_0-1_作画層１
  6
CONTINUOUS
 62
    7
 10
17.120000000000005
 20
168.26999999999998
 11
17.449999999999989
 21
168.59999999999997
  0
LINE
  8
_0-1_作画層１
  6
CONTINUOUS
 62
    7
 10
17.449999999999989
 20
168.59999999999997
 11
17.780000000000001
 21
168.26999999999998
  0
LINE
  8
_0-1_作画層１
  6
CONTINUOUS
 62
    7
 10
17.780000000000001
 20
168.26999999999998
 11
17.780000000000001
 21
164.96999999999997
  0
LINE
  8
_0-1_作画層１
  6
CONTINUOUS
 62
    7
 10
17.120000000000005
 20
164.96999999999997
 11
17.449999999999989
 21
164.63999999999996
  0
LINE
  8
_0-1_作画層１
  6
CONTINUOUS
 62
    7
 10
17.780000000000001
 20
164.96999999999997
 11
17.449999999999989
 21
164.63999999999996
  0
LINE
  8
_0-1_作画層１
  6
CONTINUOUS
 62
    7
 10
17.421690475583148
 20
164.66830952441683
 11
17.780000000000001
 21
165.02661904883365
  0
LINE
  8
_0-1_作画層１
  6
CONTINUOUS
 62
    7
 10
17.328352380466526
 20
164.76164761953342
 11
17.780000000000001
 21
165.21329523906689
  0
LINE
  8
_0-1_作画層１
  6
CONTINUOUS
 62
    7
 10
17.235014285349934
 20
164.85498571465004
 11
17.780000000000001
 21
165.39997142930011
  0
LINE
  8
_0-1_作画層１
  6
CONTINUOUS
 62
    7
 10
17.141676190233284
 20
164.94832380976669
 11
17.780000000000001
 21
165.58664761953341
  0
LINE
  8
_0-1_作画層１
  6
CONTINUOUS
 62
    7
 10
17.120000000000005
 20
165.11332380976665
 11
17.780000000000001
 21
165.77332380976659
  0
LINE
  8
_0-1_作画層１
  6
CONTINUOUS
 62
    7
 10
17.120000000000005
 20
165.29999999999987
 11
17.780000000000001
 21
165.95999999999987
  0
LINE
  8
_0-1_作画層１
  6
CONTINUOUS
 62
    7
 10
17.120000000000005
 20
165.48667619023308
 11
17.780000000000001
 21
166.14667619023311
  0
LINE
  8
_0-1_作画層１
  6
CONTINUOUS
 62
    7
 10
17.120000000000005
 20
165.67335238046635
 11
17.780000000000001
 21
166.33335238046629
  0
LINE
  8
_0-1_作画層１
  6
CONTINUOUS
 62
    7
 10
17.120000000000005
 20
165.86002857069951
 11
17.780000000000001
 21
166.52002857069957
  0
LINE
  8
_0-1_作画層１
  6
CONTINUOUS
 62
    7
 10
17.120000000000005
 20
166.04670476093278
 11
17.780000000000001
 21
166.70670476093272
  0
LINE
  8
_0-1_作画層１
  6
CONTINUOUS
 62
    7
 10
17.120000000000005
 20
166.23338095116605
 11
17.780000000000001
 21
166.89338095116605
  0
LINE
  8
_0-1_作画層１
  6
CONTINUOUS
 62
    7
 10
17.120000000000005
 20
166.42005714139927
 11
17.780000000000001
 21
167.08005714139927
  0
LINE
  8
_0-1_作画層１
  6
CONTINUOUS
 62
    7
 10
17.120000000000005
 20
166.60673333163254
 11
17.780000000000001
 21
167.26673333163254
  0
LINE
  8
_0-1_作画層１
  6
CONTINUOUS
 62
    7
 10
17.120000000000005
 20
166.79340952186575
 11
17.780000000000001
 21
167.45340952186581
  0
LINE
  8
_0-1_作画層１
  6
CONTINUOUS
 62
    7
 10
17.120000000000005
 20
166.98008571209903
 11
17.780000000000001
 21
167.64008571209902
  0
LINE
  8
_0-1_作画層１
  6
CONTINUOUS
 62
    7
 10
17.120000000000005
 20
167.1667619023323
 11
17.780000000000001
 21
167.82676190233229
  0
LINE
  8
_0-1_作画層１
  6
CONTINUOUS
 62
    7
 10
17.120000000000005
 20
167.35343809256545
 11
17.780000000000001
 21
168.01343809256545
  0
LINE
  8
_0-1_作画層１
  6
CONTINUOUS
 62
    7
 10
17.120000000000005
 20
167.54011428279873
 11
17.780000000000001
 21
168.20011428279872
  0
LINE
  8
_0-1_作画層１
  6
CONTINUOUS
 62
    7
 10
17.120000000000005
 20
167.72679047303194
 11
17.721604763483981
 21
168.328395236516
  0
LINE
  8
_0-1_作画層１
  6
CONTINUOUS
 62
    7
 10
17.120000000000005
 20
167.91346666326518
 11
17.62826666836736
 21
168.42173333163259
  0
LINE
  8
_0-1_作画層１
  6
CONTINUOUS
 62
    7
 10
17.120000000000005
 20
168.10014285349843
 11
17.534928573250738
 21
168.51507142674919
  0
LINE
  8
_0-1_作画層１
  6
CONTINUOUS
 62
    7
 10
17.120000000000005
 20
164.30999999999995
 11
17.120000000000005
 21
161.00999999999993
  0
LINE
  8
_0-1_作画層１
  6
CONTINUOUS
 62
    7
 10
17.120000000000005
 20
164.30999999999995
 11
17.449999999999989
 21
164.63999999999996
  0
LINE
  8
_0-1_作画層１
  6
CONTINUOUS
 62
    7
 10
17.449999999999989
 20
164.63999999999996
 11
17.780000000000001
 21
164.30999999999995
  0
LINE
  8
_0-1_作画層１
  6
CONTINUOUS
 62
    7
 10
17.780000000000001
 20
164.30999999999995
 11
17.780000000000001
 21
161.00999999999993
  0
LINE
  8
_0-1_作画層１
  6
CONTINUOUS
 62
    7
 10
17.120000000000005
 20
161.00999999999993
 11
17.449999999999989
 21
160.67999999999998
  0
LINE
  8
_0-1_作画層１
  6
CONTINUOUS
 62
    7
 10
17.780000000000001
 20
161.00999999999993
 11
17.449999999999989
 21
160.67999999999998
  0
LINE
  8
_0-1_作画層１
  6
CONTINUOUS
 62
    7
 10
17.421690475583148
 20
160.70830952441685
 11
17.780000000000001
 21
161.06661904883367
  0
LINE
  8
_0-1_作画層１
  6
CONTINUOUS
 62
    7
 10
17.328352380466526
 20
160.80164761953341
 11
17.780000000000001
 21
161.25329523906694
  0
LINE
  8
_0-1_作画層１
  6
CONTINUOUS
 62
    7
 10
17.235014285349934
 20
160.89498571465006
 11
17.780000000000001
 21
161.4399714293001
  0
LINE
  8
_0-1_作画層１
  6
CONTINUOUS
 62
    7
 10
17.141676190233284
 20
160.98832380976665
 11
17.780000000000001
 21
161.62664761953343
  0
LINE
  8
_0-1_作画層１
  6
CONTINUOUS
 62
    7
 10
17.120000000000005
 20
161.15332380976662
 11
17.780000000000001
 21
161.81332380976664
  0
LINE
  8
_0-1_作画層１
  6
CONTINUOUS
 62
    7
 10
17.120000000000005
 20
161.33999999999986
 11
17.780000000000001
 21
161.99999999999986
  0
LINE
  8
_0-1_作画層１
  6
CONTINUOUS
 62
    7
 10
17.120000000000005
 20
161.5266761902331
 11
17.780000000000001
 21
162.18667619023307
  0
LINE
  8
_0-1_作画層１
  6
CONTINUOUS
 62
    7
 10
17.120000000000005
 20
161.71335238046632
 11
17.780000000000001
 21
162.37335238046634
  0
LINE
  8
_0-1_作画層１
  6
CONTINUOUS
 62
    7
 10
17.120000000000005
 20
161.90002857069953
 11
17.780000000000001
 21
162.56002857069953
  0
LINE
  8
_0-1_作画層１
  6
CONTINUOUS
 62
    7
 10
17.120000000000005
 20
162.08670476093275
 11
17.780000000000001
 21
162.7467047609328
  0
LINE
  8
_0-1_作画層１
  6
CONTINUOUS
 62
    7
 10
17.120000000000005
 20
162.27338095116602
 11
17.780000000000001
 21
162.93338095116604
  0
LINE
  8
_0-1_作画層１
  6
CONTINUOUS
 62
    7
 10
17.120000000000005
 20
162.46005714139929
 11
17.780000000000001
 21
163.12005714139929
  0
LINE
  8
_0-1_作画層１
  6
CONTINUOUS
 62
    7
 10
17.120000000000005
 20
162.64673333163256
 11
17.780000000000001
 21
163.30673333163253
  0
LINE
  8
_0-1_作画層１
  6
CONTINUOUS
 62
    7
 10
17.120000000000005
 20
162.83340952186578
 11
17.780000000000001
 21
163.49340952186577
  0
LINE
  8
_0-1_作画層１
  6
CONTINUOUS
 62
    7
 10
17.120000000000005
 20
163.02008571209905
 11
17.780000000000001
 21
163.68008571209901
  0
LINE
  8
_0-1_作画層１
  6
CONTINUOUS
 62
    7
 10
17.120000000000005
 20
163.20676190233226
 11
17.780000000000001
 21
163.86676190233229
  0
LINE
  8
_0-1_作画層１
  6
CONTINUOUS
 62
    7
 10
17.120000000000005
 20
163.39343809256548
 11
17.780000000000001
 21
164.05343809256547
  0
LINE
  8
_0-1_作画層１
  6
CONTINUOUS
 62
    7
 10
17.120000000000005
 20
163.58011428279869
 11
17.780000000000001
 21
164.24011428279874
  0
LINE
  8
_0-1_作画層１
  6
CONTINUOUS
 62
    7
 10
17.120000000000005
 20
163.76679047303196
 11
17.721604763483981
 21
164.36839523651597
  0
LINE
  8
_0-1_作画層１
  6
CONTINUOUS
 62
    7
 10
17.120000000000005
 20
163.95346666326523
 11
17.62826666836736
 21
164.46173333163262
  0
LINE
  8
_0-1_作画層１
  6
CONTINUOUS
 62
    7
 10
17.120000000000005
 20
164.14014285349845
 11
17.534928573250738
 21
164.55507142674918
  0
LINE
  8
_0-1_作画層１
  6
CONTINUOUS
 62
    7
 10
20.120000000000005
 20
168.26999999999998
 11
20.120000000000005
 21
164.96999999999997
  0
LINE
  8
_0-1_作画層１
  6
CONTINUOUS
 62
    7
 10
20.780000000000001
 20
168.26999999999998
 11
20.780000000000001
 21
164.96999999999997
  0
LINE
  8
_0-1_作画層１
  6
CONTINUOUS
 62
    7
 10
20.120000000000005
 20
164.96999999999997
 11
20.449999999999989
 21
164.63999999999996
  0
LINE
  8
_0-1_作画層１
  6
CONTINUOUS
 62
    7
 10
20.780000000000001
 20
164.96999999999997
 11
20.449999999999989
 21
164.63999999999996
  0
LINE
  8
_0-1_作画層１
  6
CONTINUOUS
 62
    7
 10
20.421690475583148
 20
164.66830952441683
 11
20.780000000000001
 21
165.02661904883365
  0
LINE
  8
_0-1_作画層１
  6
CONTINUOUS
 62
    7
 10
20.328352380466526
 20
164.76164761953342
 11
20.780000000000001
 21
165.21329523906689
  0
LINE
  8
_0-1_作画層１
  6
CONTINUOUS
 62
    7
 10
20.235014285349934
 20
164.85498571465004
 11
20.780000000000001
 21
165.39997142930011
  0
LINE
  8
_0-1_作画層１
  6
CONTINUOUS
 62
    7
 10
20.141676190233255
 20
164.94832380976669
 11
20.780000000000001
 21
165.58664761953341
  0
LINE
  8
_0-1_作画層１
  6
CONTINUOUS
 62
    7
 10
20.120000000000005
 20
165.11332380976665
 11
20.780000000000001
 21
165.77332380976659
  0
LINE
  8
_0-1_作画層１
  6
CONTINUOUS
 62
    7
 10
20.120000000000005
 20
165.29999999999987
 11
20.780000000000001
 21
165.95999999999987
  0
LINE
  8
_0-1_作画層１
  6
CONTINUOUS
 62
    7
 10
20.120000000000005
 20
165.48667619023308
 11
20.780000000000001
 21
166.14667619023311
  0
LINE
  8
_0-1_作画層１
  6
CONTINUOUS
 62
    7
 10
20.120000000000005
 20
165.67335238046635
 11
20.780000000000001
 21
166.33335238046629
  0
LINE
  8
_0-1_作画層１
  6
CONTINUOUS
 62
    7
 10
20.120000000000005
 20
165.86002857069951
 11
20.780000000000001
 21
166.52002857069957
  0
LINE
  8
_0-1_作画層１
  6
CONTINUOUS
 62
    7
 10
20.120000000000005
 20
166.04670476093278
 11
20.780000000000001
 21
166.70670476093272
  0
LINE
  8
_0-1_作画層１
  6
CONTINUOUS
 62
    7
 10
20.120000000000005
 20
166.23338095116605
 11
20.780000000000001
 21
166.89338095116605
  0
LINE
  8
_0-1_作画層１
  6
CONTINUOUS
 62
    7
 10
20.120000000000005
 20
166.42005714139927
 11
20.780000000000001
 21
167.08005714139927
  0
LINE
  8
_0-1_作画層１
  6
CONTINUOUS
 62
    7
 10
20.120000000000005
 20
166.60673333163254
 11
20.780000000000001
 21
167.26673333163254
  0
LINE
  8
_0-1_作画層１
  6
CONTINUOUS
 62
    7
 10
20.120000000000005
 20
166.79340952186575
 11
20.780000000000001
 21
167.45340952186581
  0
LINE
  8
_0-1_作画層１
  6
CONTINUOUS
 62
    7
 10
20.120000000000005
 20
166.98008571209903
 11
20.780000000000001
 21
167.64008571209902
  0
LINE
  8
_0-1_作画層１
  6
CONTINUOUS
 62
    7
 10
20.120000000000005
 20
167.1667619023323
 11
20.780000000000001
 21
167.82676190233229
  0
LINE
  8
_0-1_作画層１
  6
CONTINUOUS
 62
    7
 10
20.120000000000005
 20
167.35343809256545
 11
20.780000000000001
 21
168.01343809256545
  0
LINE
  8
_0-1_作画層１
  6
CONTINUOUS
 62
    7
 10
20.120000000000005
 20
167.54011428279873
 11
20.780000000000001
 21
168.20011428279872
  0
LINE
  8
_0-1_作画層１
  6
CONTINUOUS
 62
    7
 10
20.120000000000005
 20
167.72679047303194
 11
20.721604763483981
 21
168.328395236516
  0
LINE
  8
_0-1_作画層１
  6
CONTINUOUS
 62
    7
 10
20.120000000000005
 20
167.91346666326518
 11
20.628266668367374
 21
168.42173333163259
  0
LINE
  8
_0-1_作画層１
  6
CONTINUOUS
 62
    7
 10
20.120000000000005
 20
168.10014285349843
 11
20.534928573250752
 21
168.51507142674919
  0
LINE
  8
_0-1_作画層１
  6
CONTINUOUS
 62
    7
 10
20.120000000000005
 20
164.30999999999995
 11
20.120000000000005
 21
161.00999999999993
  0
LINE
  8
_0-1_作画層１
  6
CONTINUOUS
 62
    7
 10
20.120000000000005
 20
164.30999999999995
 11
20.449999999999989
 21
164.63999999999996
  0
LINE
  8
_0-1_作画層１
  6
CONTINUOUS
 62
    7
 10
20.449999999999989
 20
164.63999999999996
 11
20.780000000000001
 21
164.30999999999995
  0
LINE
  8
_0-1_作画層１
  6
CONTINUOUS
 62
    7
 10
20.780000000000001
 20
164.30999999999995
 11
20.780000000000001
 21
161.00999999999993
  0
LINE
  8
_0-1_作画層１
  6
CONTINUOUS
 62
    7
 10
20.120000000000005
 20
161.00999999999993
 11
20.449999999999989
 21
160.67999999999998
  0
LINE
  8
_0-1_作画層１
  6
CONTINUOUS
 62
    7
 10
20.780000000000001
 20
161.00999999999993
 11
20.449999999999989
 21
160.67999999999998
  0
LINE
  8
_0-1_作画層１
  6
CONTINUOUS
 62
    7
 10
20.421690475583148
 20
160.70830952441685
 11
20.780000000000001
 21
161.06661904883367
  0
LINE
  8
_0-1_作画層１
  6
CONTINUOUS
 62
    7
 10
20.328352380466526
 20
160.80164761953341
 11
20.780000000000001
 21
161.25329523906694
  0
LINE
  8
_0-1_作画層１
  6
CONTINUOUS
 62
    7
 10
20.235014285349934
 20
160.89498571465006
 11
20.780000000000001
 21
161.4399714293001
  0
LINE
  8
_0-1_作画層１
  6
CONTINUOUS
 62
    7
 10
20.141676190233255
 20
160.98832380976665
 11
20.780000000000001
 21
161.62664761953343
  0
LINE
  8
_0-1_作画層１
  6
CONTINUOUS
 62
    7
 10
20.120000000000005
 20
161.15332380976662
 11
20.780000000000001
 21
161.81332380976664
  0
LINE
  8
_0-1_作画層１
  6
CONTINUOUS
 62
    7
 10
20.120000000000005
 20
161.33999999999986
 11
20.780000000000001
 21
161.99999999999986
  0
LINE
  8
_0-1_作画層１
  6
CONTINUOUS
 62
    7
 10
20.120000000000005
 20
161.5266761902331
 11
20.780000000000001
 21
162.18667619023307
  0
LINE
  8
_0-1_作画層１
  6
CONTINUOUS
 62
    7
 10
20.120000000000005
 20
161.71335238046632
 11
20.780000000000001
 21
162.37335238046634
  0
LINE
  8
_0-1_作画層１
  6
CONTINUOUS
 62
    7
 10
20.120000000000005
 20
161.90002857069953
 11
20.780000000000001
 21
162.56002857069953
  0
LINE
  8
_0-1_作画層１
  6
CONTINUOUS
 62
    7
 10
20.120000000000005
 20
162.08670476093275
 11
20.780000000000001
 21
162.7467047609328
  0
LINE
  8
_0-1_作画層１
  6
CONTINUOUS
 62
    7
 10
20.120000000000005
 20
162.27338095116602
 11
20.780000000000001
 21
162.93338095116604
  0
LINE
  8
_0-1_作画層１
  6
CONTINUOUS
 62
    7
 10
20.120000000000005
 20
162.46005714139929
 11
20.780000000000001
 21
163.12005714139929
  0
LINE
  8
_0-1_作画層１
  6
CONTINUOUS
 62
    7
 10
20.120000000000005
 20
162.64673333163256
 11
20.780000000000001
 21
163.30673333163253
  0
LINE
  8
_0-1_作画層１
  6
CONTINUOUS
 62
    7
 10
20.120000000000005
 20
162.83340952186578
 11
20.780000000000001
 21
163.49340952186577
  0
LINE
  8
_0-1_作画層１
  6
CONTINUOUS
 62
    7
 10
20.120000000000005
 20
163.02008571209905
 11
20.780000000000001
 21
163.68008571209901
  0
LINE
  8
_0-1_作画層１
  6
CONTINUOUS
 62
    7
 10
20.120000000000005
 20
163.20676190233226
 11
20.780000000000001
 21
163.86676190233229
  0
LINE
  8
_0-1_作画層１
  6
CONTINUOUS
 62
    7
 10
20.120000000000005
 20
163.39343809256548
 11
20.780000000000001
 21
164.05343809256547
  0
LINE
  8
_0-1_作画層１
  6
CONTINUOUS
 62
    7
 10
20.120000000000005
 20
163.58011428279869
 11
20.780000000000001
 21
164.24011428279874
  0
LINE
  8
_0-1_作画層１
  6
CONTINUOUS
 62
    7
 10
20.120000000000005
 20
163.76679047303196
 11
20.721604763483981
 21
164.36839523651597
  0
LINE
  8
_0-1_作画層１
  6
CONTINUOUS
 62
    7
 10
20.120000000000005
 20
163.95346666326523
 11
20.628266668367374
 21
164.46173333163262
  0
LINE
  8
_0-1_作画層１
  6
CONTINUOUS
 62
    7
 10
20.120000000000005
 20
164.14014285349845
 11
20.534928573250752
 21
164.55507142674918
  0
LINE
  8
_0-1_作画層１
  6
CONTINUOUS
 62
    7
 10
20.75
 20
168.59999999999997
 11
21.080000000000013
 21
168.26999999999998
  0
LINE
  8
_0-1_作画層１
  6
CONTINUOUS
 62
    7
 10
21.080000000000041
 20
168.27000000000004
 11
24.380000000000038
 21
168.27000000000004
  0
LINE
  8
_0-1_作画層１
  6
CONTINUOUS
 62
    7
 10
21.080000000000041
 20
168.27000000000004
 11
20.750000000000028
 21
168.59999999999999
  0
LINE
  8
_0-1_作画層１
  6
CONTINUOUS
 62
    7
 10
20.750000000000028
 20
168.59999999999999
 11
21.080000000000041
 21
168.93000000000001
  0
LINE
  8
_0-1_作画層１
  6
CONTINUOUS
 62
    7
 10
21.080000000000041
 20
168.93000000000001
 11
24.380000000000038
 21
168.93000000000001
  0
LINE
  8
_0-1_作画層１
  6
CONTINUOUS
 62
    7
 10
24.380000000000038
 20
168.27000000000004
 11
24.710000000000051
 21
168.59999999999999
  0
LINE
  8
_0-1_作画層１
  6
CONTINUOUS
 62
    7
 10
24.380000000000038
 20
168.93000000000001
 11
24.710000000000051
 21
168.59999999999999
  0
LINE
  8
_0-1_作画層１
  6
CONTINUOUS
 62
    7
 10
24.681690475583167
 20
168.57169047558318
 11
24.323380951166328
 21
168.93000000000001
  0
LINE
  8
_0-1_作画層１
  6
CONTINUOUS
 62
    7
 10
24.588352380466603
 20
168.47835238046656
 11
24.1367047609331
 21
168.93000000000001
  0
LINE
  8
_0-1_作画層１
  6
CONTINUOUS
 62
    7
 10
24.495014285349953
 20
168.38501428534991
 11
23.950028570699885
 21
168.93000000000001
  0
LINE
  8
_0-1_作画層１
  6
CONTINUOUS
 62
    7
 10
24.401676190233346
 20
168.29167619023329
 11
23.7633523804666
 21
168.93000000000001
  0
LINE
  8
_0-1_作画層１
  6
CONTINUOUS
 62
    7
 10
24.236676190233354
 20
168.27000000000004
 11
23.576676190233371
 21
168.93000000000001
  0
LINE
  8
_0-1_作画層１
  6
CONTINUOUS
 62
    7
 10
24.050000000000139
 20
168.27000000000004
 11
23.390000000000157
 21
168.93000000000001
  0
LINE
  8
_0-1_作画層１
  6
CONTINUOUS
 62
    7
 10
23.863323809766882
 20
168.27000000000004
 11
23.2033238097669
 21
168.93000000000001
  0
LINE
  8
_0-1_作画層１
  6
CONTINUOUS
 62
    7
 10
23.676647619533668
 20
168.27000000000004
 11
23.016647619533686
 21
168.93000000000001
  0
LINE
  8
_0-1_作画層１
  6
CONTINUOUS
 62
    7
 10
23.489971429300439
 20
168.27000000000004
 11
22.829971429300457
 21
168.93000000000001
  0
LINE
  8
_0-1_作画層１
  6
CONTINUOUS
 62
    7
 10
23.303295239067225
 20
168.27000000000004
 11
22.643295239067243
 21
168.93000000000001
  0
LINE
  8
_0-1_作画層１
  6
CONTINUOUS
 62
    7
 10
23.116619048833968
 20
168.27000000000004
 11
22.456619048833957
 21
168.93000000000001
  0
LINE
  8
_0-1_作画層１
  6
CONTINUOUS
 62
    7
 10
22.929942858600711
 20
168.27000000000004
 11
22.2699428586007
 21
168.93000000000001
  0
LINE
  8
_0-1_作画層１
  6
CONTINUOUS
 62
    7
 10
22.743266668367454
 20
168.27000000000004
 11
22.083266668367443
 21
168.93000000000001
  0
LINE
  8
_0-1_作画層１
  6
CONTINUOUS
 62
    7
 10
22.55659047813424
 20
168.27000000000004
 11
21.896590478134229
 21
168.93000000000001
  0
LINE
  8
_0-1_作画層１
  6
CONTINUOUS
 62
    7
 10
22.369914287900983
 20
168.27000000000004
 11
21.709914287900972
 21
168.93000000000001
  0
LINE
  8
_0-1_作画層１
  6
CONTINUOUS
 62
    7
 10
22.183238097667726
 20
168.27000000000004
 11
21.523238097667715
 21
168.93000000000001
  0
LINE
  8
_0-1_作画層１
  6
CONTINUOUS
 62
    7
 10
21.99656190743454
 20
168.27000000000004
 11
21.336561907434529
 21
168.93000000000001
  0
LINE
  8
_0-1_作画層１
  6
CONTINUOUS
 62
    7
 10
21.809885717201297
 20
168.27000000000004
 11
21.149885717201272
 21
168.93000000000001
  0
LINE
  8
_0-1_作画層１
  6
CONTINUOUS
 62
    7
 10
21.62320952696804
 20
168.27000000000004
 11
21.021604763484021
 21
168.87160476348399
  0
LINE
  8
_0-1_作画層１
  6
CONTINUOUS
 62
    7
 10
21.436533336734811
 20
168.27000000000004
 11
20.928266668367399
 21
168.77826666836739
  0
LINE
  8
_0-1_作画層１
  6
CONTINUOUS
 62
    7
 10
21.249857146501526
 20
168.27000000000004
 11
20.834928573250792
 21
168.68492857325072
  0
LINE
  8
_0-1_作画層１
  6
CONTINUOUS
 62
    7
 10
20.120000000000005
 20
168.26999999999998
 11
20.449999999999989
 21
168.59999999999997
  0
LINE
  8
_0-1_作画層１
  6
CONTINUOUS
 62
    7
 10
20.449999999999989
 20
168.59999999999997
 11
20.780000000000001
 21
168.26999999999998
  0
LINE
  8
_0-1_作画層１
  6
CONTINUOUS
 62
    7
 10
20.780000000000044
 20
168.27000000000004
 11
20.450000000000045
 21
168.59999999999999
  0
LINE
  8
_0-1_作画層１
  6
CONTINUOUS
 62
    7
 10
20.75
 20
160.79999999999995
 11
21.080000000000013
 21
160.46999999999997
  0
LINE
  8
_0-1_作画層１
  6
CONTINUOUS
 62
    7
 10
21.080000000000041
 20
160.47000000000003
 11
24.380000000000038
 21
160.47000000000003
  0
LINE
  8
_0-1_作画層１
  6
CONTINUOUS
 62
    7
 10
21.080000000000041
 20
160.47000000000003
 11
20.750000000000028
 21
160.80000000000001
  0
LINE
  8
_0-1_作画層１
  6
CONTINUOUS
 62
    7
 10
20.750000000000028
 20
160.80000000000001
 11
21.080000000000041
 21
161.13000000000002
  0
LINE
  8
_0-1_作画層１
  6
CONTINUOUS
 62
    7
 10
21.080000000000041
 20
161.13000000000002
 11
24.380000000000038
 21
161.13000000000002
  0
LINE
  8
_0-1_作画層１
  6
CONTINUOUS
 62
    7
 10
24.380000000000038
 20
160.47000000000003
 11
24.710000000000051
 21
160.80000000000001
  0
LINE
  8
_0-1_作画層１
  6
CONTINUOUS
 62
    7
 10
24.380000000000038
 20
161.13000000000002
 11
24.710000000000051
 21
160.80000000000001
  0
LINE
  8
_0-1_作画層１
  6
CONTINUOUS
 62
    7
 10
24.681690475583167
 20
160.77169047558317
 11
24.323380951166328
 21
161.13000000000002
  0
LINE
  8
_0-1_作画層１
  6
CONTINUOUS
 62
    7
 10
24.588352380466603
 20
160.67835238046655
 11
24.1367047609331
 21
161.13000000000002
  0
LINE
  8
_0-1_作画層１
  6
CONTINUOUS
 62
    7
 10
24.495014285349953
 20
160.58501428534993
 11
23.950028570699885
 21
161.13000000000002
  0
LINE
  8
_0-1_作画層１
  6
CONTINUOUS
 62
    7
 10
24.401676190233346
 20
160.49167619023328
 11
23.7633523804666
 21
161.13000000000002
  0
LINE
  8
_0-1_作画層１
  6
CONTINUOUS
 62
    7
 10
24.236676190233354
 20
160.47000000000003
 11
23.576676190233371
 21
161.13000000000002
  0
LINE
  8
_0-1_作画層１
  6
CONTINUOUS
 62
    7
 10
24.050000000000139
 20
160.47000000000003
 11
23.390000000000157
 21
161.13000000000002
  0
LINE
  8
_0-1_作画層１
  6
CONTINUOUS
 62
    7
 10
23.863323809766882
 20
160.47000000000003
 11
23.2033238097669
 21
161.13000000000002
  0
LINE
  8
_0-1_作画層１
  6
CONTINUOUS
 62
    7
 10
23.676647619533668
 20
160.47000000000003
 11
23.016647619533686
 21
161.13000000000002
  0
LINE
  8
_0-1_作画層１
  6
CONTINUOUS
 62
    7
 10
23.489971429300439
 20
160.47000000000003
 11
22.829971429300457
 21
161.13000000000002
  0
LINE
  8
_0-1_作画層１
  6
CONTINUOUS
 62
    7
 10
23.303295239067225
 20
160.47000000000003
 11
22.643295239067243
 21
161.13000000000002
  0
LINE
  8
_0-1_作画層１
  6
CONTINUOUS
 62
    7
 10
23.116619048833968
 20
160.47000000000003
 11
22.456619048833957
 21
161.13000000000002
  0
LINE
  8
_0-1_作画層１
  6
CONTINUOUS
 62
    7
 10
22.929942858600711
 20
160.47000000000003
 11
22.2699428586007
 21
161.13000000000002
  0
LINE
  8
_0-1_作画層１
  6
CONTINUOUS
 62
    7
 10
22.743266668367454
 20
160.47000000000003
 11
22.083266668367443
 21
161.13000000000002
  0
LINE
  8
_0-1_作画層１
  6
CONTINUOUS
 62
    7
 10
22.55659047813424
 20
160.47000000000003
 11
21.896590478134229
 21
161.13000000000002
  0
LINE
  8
_0-1_作画層１
  6
CONTINUOUS
 62
    7
 10
22.369914287900983
 20
160.47000000000003
 11
21.709914287900972
 21
161.13000000000002
  0
LINE
  8
_0-1_作画層１
  6
CONTINUOUS
 62
    7
 10
22.183238097667726
 20
160.47000000000003
 11
21.523238097667715
 21
161.13000000000002
  0
LINE
  8
_0-1_作画層１
  6
CONTINUOUS
 62
    7
 10
21.99656190743454
 20
160.47000000000003
 11
21.336561907434529
 21
161.13000000000002
  0
LINE
  8
_0-1_作画層１
  6
CONTINUOUS
 62
    7
 10
21.809885717201297
 20
160.47000000000003
 11
21.149885717201272
 21
161.13000000000002
  0
LINE
  8
_0-1_作画層１
  6
CONTINUOUS
 62
    7
 10
21.62320952696804
 20
160.47000000000003
 11
21.021604763484021
 21
161.071604763484
  0
LINE
  8
_0-1_作画層１
  6
CONTINUOUS
 62
    7
 10
21.436533336734811
 20
160.47000000000003
 11
20.928266668367399
 21
160.97826666836741
  0
LINE
  8
_0-1_作画層１
  6
CONTINUOUS
 62
    7
 10
21.249857146501526
 20
160.47000000000003
 11
20.834928573250792
 21
160.88492857325073
  0
LINE
  8
_0-1_作画層１
  6
CONTINUOUS
 62
    7
 10
24.61999999999999
 20
168.26999999999998
 11
24.61999999999999
 21
164.96999999999997
  0
LINE
  8
_0-1_作画層１
  6
CONTINUOUS
 62
    7
 10
25.280000000000001
 20
168.26999999999998
 11
25.280000000000001
 21
164.96999999999997
  0
LINE
  8
_0-1_作画層１
  6
CONTINUOUS
 62
    7
 10
24.61999999999999
 20
164.96999999999997
 11
24.950000000000003
 21
164.63999999999996
  0
LINE
  8
_0-1_作画層１
  6
CONTINUOUS
 62
    7
 10
25.280000000000001
 20
164.96999999999997
 11
24.950000000000003
 21
164.63999999999996
  0
LINE
  8
_0-1_作画層１
  6
CONTINUOUS
 62
    7
 10
24.921690475583148
 20
164.66830952441683
 11
25.280000000000001
 21
165.02661904883365
  0
LINE
  8
_0-1_作画層１
  6
CONTINUOUS
 62
    7
 10
24.828352380466541
 20
164.76164761953342
 11
25.280000000000001
 21
165.21329523906689
  0
LINE
  8
_0-1_作画層１
  6
CONTINUOUS
 62
    7
 10
24.735014285349934
 20
164.85498571465004
 11
25.280000000000001
 21
165.39997142930011
  0
LINE
  8
_0-1_作画層１
  6
CONTINUOUS
 62
    7
 10
24.641676190233255
 20
164.94832380976669
 11
25.280000000000001
 21
165.58664761953341
  0
LINE
  8
_0-1_作画層１
  6
CONTINUOUS
 62
    7
 10
24.61999999999999
 20
165.11332380976665
 11
25.280000000000001
 21
165.77332380976659
  0
LINE
  8
_0-1_作画層１
  6
CONTINUOUS
 62
    7
 10
24.61999999999999
 20
165.29999999999987
 11
25.280000000000001
 21
165.95999999999987
  0
LINE
  8
_0-1_作画層１
  6
CONTINUOUS
 62
    7
 10
24.61999999999999
 20
165.48667619023308
 11
25.280000000000001
 21
166.14667619023311
  0
LINE
  8
_0-1_作画層１
  6
CONTINUOUS
 62
    7
 10
24.61999999999999
 20
165.67335238046635
 11
25.280000000000001
 21
166.33335238046629
  0
LINE
  8
_0-1_作画層１
  6
CONTINUOUS
 62
    7
 10
24.61999999999999
 20
165.86002857069951
 11
25.280000000000001
 21
166.52002857069957
  0
LINE
  8
_0-1_作画層１
  6
CONTINUOUS
 62
    7
 10
24.61999999999999
 20
166.04670476093278
 11
25.280000000000001
 21
166.70670476093272
  0
LINE
  8
_0-1_作画層１
  6
CONTINUOUS
 62
    7
 10
24.61999999999999
 20
166.23338095116605
 11
25.280000000000001
 21
166.89338095116605
  0
LINE
  8
_0-1_作画層１
  6
CONTINUOUS
 62
    7
 10
24.61999999999999
 20
166.42005714139927
 11
25.280000000000001
 21
167.08005714139927
  0
LINE
  8
_0-1_作画層１
  6
CONTINUOUS
 62
    7
 10
24.61999999999999
 20
166.60673333163254
 11
25.280000000000001
 21
167.26673333163254
  0
LINE
  8
_0-1_作画層１
  6
CONTINUOUS
 62
    7
 10
24.61999999999999
 20
166.79340952186575
 11
25.280000000000001
 21
167.45340952186581
  0
LINE
  8
_0-1_作画層１
  6
CONTINUOUS
 62
    7
 10
24.61999999999999
 20
166.98008571209903
 11
25.280000000000001
 21
167.64008571209902
  0
LINE
  8
_0-1_作画層１
  6
CONTINUOUS
 62
    7
 10
24.61999999999999
 20
167.1667619023323
 11
25.280000000000001
 21
167.82676190233229
  0
LINE
  8
_0-1_作画層１
  6
CONTINUOUS
 62
    7
 10
24.61999999999999
 20
167.35343809256545
 11
25.280000000000001
 21
168.01343809256545
  0
LINE
  8
_0-1_作画層１
  6
CONTINUOUS
 62
    7
 10
24.61999999999999
 20
167.54011428279873
 11
25.280000000000001
 21
168.20011428279872
  0
LINE
  8
_0-1_作画層１
  6
CONTINUOUS
 62
    7
 10
24.61999999999999
 20
167.72679047303194
 11
25.221604763483981
 21
168.328395236516
  0
LINE
  8
_0-1_作画層１
  6
CONTINUOUS
 62
    7
 10
24.61999999999999
 20
167.91346666326518
 11
25.128266668367374
 21
168.42173333163259
  0
LINE
  8
_0-1_作画層１
  6
CONTINUOUS
 62
    7
 10
24.61999999999999
 20
168.10014285349843
 11
25.034928573250752
 21
168.51507142674919
  0
LINE
  8
_0-1_作画層１
  6
CONTINUOUS
 62
    7
 10
24.61999999999999
 20
168.26999999999998
 11
24.950000000000003
 21
168.59999999999997
  0
LINE
  8
_0-1_作画層１
  6
CONTINUOUS
 62
    7
 10
24.950000000000003
 20
168.59999999999997
 11
25.280000000000001
 21
168.26999999999998
  0
LINE
  8
_0-1_作画層１
  6
CONTINUOUS
 62
    7
 10
25.280000000000044
 20
168.27000000000004
 11
24.950000000000031
 21
168.59999999999999
  0
LINE
  8
_0-1_作画層１
  6
CONTINUOUS
 62
    7
 10
24.61999999999999
 20
164.36999999999998
 11
24.61999999999999
 21
161.06999999999999
  0
LINE
  8
_0-1_作画層１
  6
CONTINUOUS
 62
    7
 10
25.280000000000001
 20
164.36999999999998
 11
25.280000000000001
 21
161.06999999999999
  0
LINE
  8
_0-1_作画層１
  6
CONTINUOUS
 62
    7
 10
24.61999999999999
 20
161.06999999999999
 11
24.950000000000003
 21
160.73999999999995
  0
LINE
  8
_0-1_作画層１
  6
CONTINUOUS
 62
    7
 10
25.280000000000001
 20
161.06999999999999
 11
24.950000000000003
 21
160.73999999999995
  0
LINE
  8
_0-1_作画層１
  6
CONTINUOUS
 62
    7
 10
24.921690475583148
 20
160.76830952441682
 11
25.280000000000001
 21
161.12661904883367
  0
LINE
  8
_0-1_作画層１
  6
CONTINUOUS
 62
    7
 10
24.828352380466541
 20
160.86164761953341
 11
25.280000000000001
 21
161.31329523906689
  0
LINE
  8
_0-1_作画層１
  6
CONTINUOUS
 62
    7
 10
24.735014285349934
 20
160.95498571465004
 11
25.280000000000001
 21
161.4999714293001
  0
LINE
  8
_0-1_作画層１
  6
CONTINUOUS
 62
    7
 10
24.641676190233255
 20
161.04832380976669
 11
25.280000000000001
 21
161.6866476195334
  0
LINE
  8
_0-1_作画層１
  6
CONTINUOUS
 62
    7
 10
24.61999999999999
 20
161.21332380976665
 11
25.280000000000001
 21
161.87332380976659
  0
LINE
  8
_0-1_作画層１
  6
CONTINUOUS
 62
    7
 10
24.61999999999999
 20
161.39999999999986
 11
25.280000000000001
 21
162.05999999999986
  0
LINE
  8
_0-1_作画層１
  6
CONTINUOUS
 62
    7
 10
24.61999999999999
 20
161.58667619023308
 11
25.280000000000001
 21
162.24667619023313
  0
LINE
  8
_0-1_作画層１
  6
CONTINUOUS
 62
    7
 10
24.61999999999999
 20
161.77335238046635
 11
25.280000000000001
 21
162.43335238046629
  0
LINE
  8
_0-1_作画層１
  6
CONTINUOUS
 62
    7
 10
24.61999999999999
 20
161.96002857069954
 11
25.280000000000001
 21
162.62002857069956
  0
LINE
  8
_0-1_作画層１
  6
CONTINUOUS
 62
    7
 10
24.61999999999999
 20
162.14670476093278
 11
25.280000000000001
 21
162.80670476093275
  0
LINE
  8
_0-1_作画層１
  6
CONTINUOUS
 62
    7
 10
24.61999999999999
 20
162.33338095116605
 11
25.280000000000001
 21
162.99338095116605
  0
LINE
  8
_0-1_作画層１
  6
CONTINUOUS
 62
    7
 10
24.61999999999999
 20
162.52005714139926
 11
25.280000000000001
 21
163.18005714139926
  0
LINE
  8
_0-1_作画層１
  6
CONTINUOUS
 62
    7
 10
24.61999999999999
 20
162.70673333163253
 11
25.280000000000001
 21
163.36673333163253
  0
LINE
  8
_0-1_作画層１
  6
CONTINUOUS
 62
    7
 10
24.61999999999999
 20
162.89340952186575
 11
25.280000000000001
 21
163.5534095218658
  0
LINE
  8
_0-1_作画層１
  6
CONTINUOUS
 62
    7
 10
24.61999999999999
 20
163.08008571209902
 11
25.280000000000001
 21
163.74008571209902
  0
LINE
  8
_0-1_作画層１
  6
CONTINUOUS
 62
    7
 10
24.61999999999999
 20
163.26676190233229
 11
25.280000000000001
 21
163.92676190233229
  0
LINE
  8
_0-1_作画層１
  6
CONTINUOUS
 62
    7
 10
24.61999999999999
 20
163.45343809256548
 11
25.280000000000001
 21
164.11343809256545
  0
LINE
  8
_0-1_作画層１
  6
CONTINUOUS
 62
    7
 10
24.61999999999999
 20
163.64011428279872
 11
25.280000000000001
 21
164.30011428279872
  0
LINE
  8
_0-1_作画層１
  6
CONTINUOUS
 62
    7
 10
24.61999999999999
 20
163.82679047303196
 11
25.221604763483981
 21
164.428395236516
  0
LINE
  8
_0-1_作画層１
  6
CONTINUOUS
 62
    7
 10
24.61999999999999
 20
164.01346666326518
 11
25.128266668367374
 21
164.52173333163259
  0
LINE
  8
_0-1_作画層１
  6
CONTINUOUS
 62
    7
 10
24.61999999999999
 20
164.20014285349845
 11
25.034928573250752
 21
164.61507142674918
  0
LINE
  8
_0-1_作画層１
  6
CONTINUOUS
 62
    7
 10
24.61999999999999
 20
164.36999999999998
 11
24.950000000000003
 21
164.69999999999996
  0
LINE
  8
_0-1_作画層１
  6
CONTINUOUS
 62
    7
 10
24.950000000000003
 20
164.69999999999996
 11
25.280000000000001
 21
164.36999999999998
  0
LINE
  8
_0-1_作画層１
  6
CONTINUOUS
 62
    7
 10
25.280000000000044
 20
164.37000000000003
 11
24.950000000000031
 21
164.69999999999999
  0
LINE
  8
_0-1_作画層１
  6
CONTINUOUS
 62
    7
 10
32.450000000000003
 20
168.59999999999997
 11
32.780000000000001
 21
168.26999999999998
  0
LINE
  8
_0-1_作画層１
  6
CONTINUOUS
 62
    7
 10
32.780000000000044
 20
168.27000000000004
 11
36.080000000000041
 21
168.27000000000004
  0
LINE
  8
_0-1_作画層１
  6
CONTINUOUS
 62
    7
 10
32.780000000000044
 20
168.27000000000004
 11
32.450000000000031
 21
168.59999999999999
  0
LINE
  8
_0-1_作画層１
  6
CONTINUOUS
 62
    7
 10
32.450000000000031
 20
168.59999999999999
 11
32.780000000000044
 21
168.93000000000001
  0
LINE
  8
_0-1_作画層１
  6
CONTINUOUS
 62
    7
 10
32.780000000000044
 20
168.93000000000001
 11
36.080000000000041
 21
168.93000000000001
  0
LINE
  8
_0-1_作画層１
  6
CONTINUOUS
 62
    7
 10
36.080000000000041
 20
168.27000000000004
 11
36.410000000000053
 21
168.59999999999999
  0
LINE
  8
_0-1_作画層１
  6
CONTINUOUS
 62
    7
 10
36.080000000000041
 20
168.93000000000001
 11
36.410000000000053
 21
168.59999999999999
  0
LINE
  8
_0-1_作画層１
  6
CONTINUOUS
 62
    7
 10
36.38169047558317
 20
168.57169047558318
 11
36.023380951166331
 21
168.93000000000001
  0
LINE
  8
_0-1_作画層１
  6
CONTINUOUS
 62
    7
 10
36.288352380466591
 20
168.47835238046656
 11
35.836704760933102
 21
168.93000000000001
  0
LINE
  8
_0-1_作画層１
  6
CONTINUOUS
 62
    7
 10
36.195014285349956
 20
168.38501428534991
 11
35.650028570699888
 21
168.93000000000001
  0
LINE
  8
_0-1_作画層１
  6
CONTINUOUS
 62
    7
 10
36.101676190233349
 20
168.29167619023329
 11
35.463352380466603
 21
168.93000000000001
  0
LINE
  8
_0-1_作画層１
  6
CONTINUOUS
 62
    7
 10
35.936676190233356
 20
168.27000000000004
 11
35.276676190233374
 21
168.93000000000001
  0
LINE
  8
_0-1_作画層１
  6
CONTINUOUS
 62
    7
 10
35.750000000000142
 20
168.27000000000004
 11
35.09000000000016
 21
168.93000000000001
  0
LINE
  8
_0-1_作画層１
  6
CONTINUOUS
 62
    7
 10
35.563323809766885
 20
168.27000000000004
 11
34.903323809766903
 21
168.93000000000001
  0
LINE
  8
_0-1_作画層１
  6
CONTINUOUS
 62
    7
 10
35.376647619533657
 20
168.27000000000004
 11
34.716647619533688
 21
168.93000000000001
  0
LINE
  8
_0-1_作画層１
  6
CONTINUOUS
 62
    7
 10
35.189971429300442
 20
168.27000000000004
 11
34.52997142930046
 21
168.93000000000001
  0
LINE
  8
_0-1_作画層１
  6
CONTINUOUS
 62
    7
 10
35.003295239067228
 20
168.27000000000004
 11
34.343295239067245
 21
168.93000000000001
  0
LINE
  8
_0-1_作画層１
  6
CONTINUOUS
 62
    7
 10
34.816619048833971
 20
168.27000000000004
 11
34.15661904883396
 21
168.93000000000001
  0
LINE
  8
_0-1_作画層１
  6
CONTINUOUS
 62
    7
 10
34.629942858600714
 20
168.27000000000004
 11
33.969942858600703
 21
168.93000000000001
  0
LINE
  8
_0-1_作画層１
  6
CONTINUOUS
 62
    7
 10
34.443266668367457
 20
168.27000000000004
 11
33.783266668367446
 21
168.93000000000001
  0
LINE
  8
_0-1_作画層１
  6
CONTINUOUS
 62
    7
 10
34.256590478134243
 20
168.27000000000004
 11
33.596590478134232
 21
168.93000000000001
  0
LINE
  8
_0-1_作画層１
  6
CONTINUOUS
 62
    7
 10
34.069914287900986
 20
168.27000000000004
 11
33.409914287900975
 21
168.93000000000001
  0
LINE
  8
_0-1_作画層１
  6
CONTINUOUS
 62
    7
 10
33.883238097667729
 20
168.27000000000004
 11
33.223238097667718
 21
168.93000000000001
  0
LINE
  8
_0-1_作画層１
  6
CONTINUOUS
 62
    7
 10
33.696561907434543
 20
168.27000000000004
 11
33.036561907434532
 21
168.93000000000001
  0
LINE
  8
_0-1_作画層１
  6
CONTINUOUS
 62
    7
 10
33.509885717201286
 20
168.27000000000004
 11
32.849885717201275
 21
168.93000000000001
  0
LINE
  8
_0-1_作画層１
  6
CONTINUOUS
 62
    7
 10
33.323209526968043
 20
168.27000000000004
 11
32.721604763484009
 21
168.87160476348399
  0
LINE
  8
_0-1_作画層１
  6
CONTINUOUS
 62
    7
 10
33.136533336734814
 20
168.27000000000004
 11
32.628266668367402
 21
168.77826666836739
  0
LINE
  8
_0-1_作画層１
  6
CONTINUOUS
 62
    7
 10
32.949857146501529
 20
168.27000000000004
 11
32.534928573250795
 21
168.68492857325072
  0
LINE
  8
_0-1_作画層１
  6
CONTINUOUS
 62
    7
 10
32.450000000000003
 20
160.79999999999995
 11
32.780000000000001
 21
160.46999999999997
  0
LINE
  8
_0-1_作画層１
  6
CONTINUOUS
 62
    7
 10
32.780000000000044
 20
160.47000000000003
 11
36.080000000000041
 21
160.47000000000003
  0
LINE
  8
_0-1_作画層１
  6
CONTINUOUS
 62
    7
 10
32.780000000000044
 20
160.47000000000003
 11
32.450000000000031
 21
160.80000000000001
  0
LINE
  8
_0-1_作画層１
  6
CONTINUOUS
 62
    7
 10
32.450000000000031
 20
160.80000000000001
 11
32.780000000000044
 21
161.13000000000002
  0
LINE
  8
_0-1_作画層１
  6
CONTINUOUS
 62
    7
 10
32.780000000000044
 20
161.13000000000002
 11
36.080000000000041
 21
161.13000000000002
  0
LINE
  8
_0-1_作画層１
  6
CONTINUOUS
 62
    7
 10
36.080000000000041
 20
160.47000000000003
 11
36.410000000000053
 21
160.80000000000001
  0
LINE
  8
_0-1_作画層１
  6
CONTINUOUS
 62
    7
 10
36.080000000000041
 20
161.13000000000002
 11
36.410000000000053
 21
160.80000000000001
  0
LINE
  8
_0-1_作画層１
  6
CONTINUOUS
 62
    7
 10
36.38169047558317
 20
160.77169047558317
 11
36.023380951166331
 21
161.13000000000002
  0
LINE
  8
_0-1_作画層１
  6
CONTINUOUS
 62
    7
 10
36.288352380466591
 20
160.67835238046655
 11
35.836704760933102
 21
161.13000000000002
  0
LINE
  8
_0-1_作画層１
  6
CONTINUOUS
 62
    7
 10
36.195014285349956
 20
160.58501428534993
 11
35.650028570699888
 21
161.13000000000002
  0
LINE
  8
_0-1_作画層１
  6
CONTINUOUS
 62
    7
 10
36.101676190233349
 20
160.49167619023328
 11
35.463352380466603
 21
161.13000000000002
  0
LINE
  8
_0-1_作画層１
  6
CONTINUOUS
 62
    7
 10
35.936676190233356
 20
160.47000000000003
 11
35.276676190233374
 21
161.13000000000002
  0
LINE
  8
_0-1_作画層１
  6
CONTINUOUS
 62
    7
 10
35.750000000000142
 20
160.47000000000003
 11
35.09000000000016
 21
161.13000000000002
  0
LINE
  8
_0-1_作画層１
  6
CONTINUOUS
 62
    7
 10
35.563323809766885
 20
160.47000000000003
 11
34.903323809766903
 21
161.13000000000002
  0
LINE
  8
_0-1_作画層１
  6
CONTINUOUS
 62
    7
 10
35.376647619533657
 20
160.47000000000003
 11
34.716647619533688
 21
161.13000000000002
  0
LINE
  8
_0-1_作画層１
  6
CONTINUOUS
 62
    7
 10
35.189971429300442
 20
160.47000000000003
 11
34.52997142930046
 21
161.13000000000002
  0
LINE
  8
_0-1_作画層１
  6
CONTINUOUS
 62
    7
 10
35.003295239067228
 20
160.47000000000003
 11
34.343295239067245
 21
161.13000000000002
  0
LINE
  8
_0-1_作画層１
  6
CONTINUOUS
 62
    7
 10
34.816619048833971
 20
160.47000000000003
 11
34.15661904883396
 21
161.13000000000002
  0
LINE
  8
_0-1_作画層１
  6
CONTINUOUS
 62
    7
 10
34.629942858600714
 20
160.47000000000003
 11
33.969942858600703
 21
161.13000000000002
  0
LINE
  8
_0-1_作画層１
  6
CONTINUOUS
 62
    7
 10
34.443266668367457
 20
160.47000000000003
 11
33.783266668367446
 21
161.13000000000002
  0
LINE
  8
_0-1_作画層１
  6
CONTINUOUS
 62
    7
 10
34.256590478134243
 20
160.47000000000003
 11
33.596590478134232
 21
161.13000000000002
  0
LINE
  8
_0-1_作画層１
  6
CONTINUOUS
 62
    7
 10
34.069914287900986
 20
160.47000000000003
 11
33.409914287900975
 21
161.13000000000002
  0
LINE
  8
_0-1_作画層１
  6
CONTINUOUS
 62
    7
 10
33.883238097667729
 20
160.47000000000003
 11
33.223238097667718
 21
161.13000000000002
  0
LINE
  8
_0-1_作画層１
  6
CONTINUOUS
 62
    7
 10
33.696561907434543
 20
160.47000000000003
 11
33.036561907434532
 21
161.13000000000002
  0
LINE
  8
_0-1_作画層１
  6
CONTINUOUS
 62
    7
 10
33.509885717201286
 20
160.47000000000003
 11
32.849885717201275
 21
161.13000000000002
  0
LINE
  8
_0-1_作画層１
  6
CONTINUOUS
 62
    7
 10
33.323209526968043
 20
160.47000000000003
 11
32.721604763484009
 21
161.071604763484
  0
LINE
  8
_0-1_作画層１
  6
CONTINUOUS
 62
    7
 10
33.136533336734814
 20
160.47000000000003
 11
32.628266668367402
 21
160.97826666836741
  0
LINE
  8
_0-1_作画層１
  6
CONTINUOUS
 62
    7
 10
32.949857146501529
 20
160.47000000000003
 11
32.534928573250795
 21
160.88492857325073
  0
LINE
  8
_0-1_作画層１
  6
CONTINUOUS
 62
    7
 10
36.319999999999993
 20
168.26999999999998
 11
36.319999999999993
 21
164.96999999999997
  0
LINE
  8
_0-1_作画層１
  6
CONTINUOUS
 62
    7
 10
36.980000000000004
 20
168.26999999999998
 11
36.980000000000004
 21
164.96999999999997
  0
LINE
  8
_0-1_作画層１
  6
CONTINUOUS
 62
    7
 10
36.319999999999993
 20
164.96999999999997
 11
36.650000000000006
 21
164.63999999999996
  0
LINE
  8
_0-1_作画層１
  6
CONTINUOUS
 62
    7
 10
36.980000000000004
 20
164.96999999999997
 11
36.650000000000006
 21
164.63999999999996
  0
LINE
  8
_0-1_作画層１
  6
CONTINUOUS
 62
    7
 10
36.621690475583151
 20
164.66830952441683
 11
36.980000000000004
 21
165.02661904883365
  0
LINE
  8
_0-1_作画層１
  6
CONTINUOUS
 62
    7
 10
36.528352380466544
 20
164.76164761953342
 11
36.980000000000004
 21
165.21329523906689
  0
LINE
  8
_0-1_作画層１
  6
CONTINUOUS
 62
    7
 10
36.435014285349936
 20
164.85498571465004
 11
36.980000000000004
 21
165.39997142930011
  0
LINE
  8
_0-1_作画層１
  6
CONTINUOUS
 62
    7
 10
36.341676190233258
 20
164.94832380976669
 11
36.980000000000004
 21
165.58664761953341
  0
LINE
  8
_0-1_作画層１
  6
CONTINUOUS
 62
    7
 10
36.319999999999993
 20
165.11332380976665
 11
36.980000000000004
 21
165.77332380976659
  0
LINE
  8
_0-1_作画層１
  6
CONTINUOUS
 62
    7
 10
36.319999999999993
 20
165.29999999999987
 11
36.980000000000004
 21
165.95999999999987
  0
LINE
  8
_0-1_作画層１
  6
CONTINUOUS
 62
    7
 10
36.319999999999993
 20
165.48667619023308
 11
36.980000000000004
 21
166.14667619023311
  0
LINE
  8
_0-1_作画層１
  6
CONTINUOUS
 62
    7
 10
36.319999999999993
 20
165.67335238046635
 11
36.980000000000004
 21
166.33335238046629
  0
LINE
  8
_0-1_作画層１
  6
CONTINUOUS
 62
    7
 10
36.319999999999993
 20
165.86002857069951
 11
36.980000000000004
 21
166.52002857069957
  0
LINE
  8
_0-1_作画層１
  6
CONTINUOUS
 62
    7
 10
36.319999999999993
 20
166.04670476093278
 11
36.980000000000004
 21
166.70670476093272
  0
LINE
  8
_0-1_作画層１
  6
CONTINUOUS
 62
    7
 10
36.319999999999993
 20
166.23338095116605
 11
36.980000000000004
 21
166.89338095116605
  0
LINE
  8
_0-1_作画層１
  6
CONTINUOUS
 62
    7
 10
36.319999999999993
 20
166.42005714139927
 11
36.980000000000004
 21
167.08005714139927
  0
LINE
  8
_0-1_作画層１
  6
CONTINUOUS
 62
    7
 10
36.319999999999993
 20
166.60673333163254
 11
36.980000000000004
 21
167.26673333163254
  0
LINE
  8
_0-1_作画層１
  6
CONTINUOUS
 62
    7
 10
36.319999999999993
 20
166.79340952186575
 11
36.980000000000004
 21
167.45340952186581
  0
LINE
  8
_0-1_作画層１
  6
CONTINUOUS
 62
    7
 10
36.319999999999993
 20
166.98008571209903
 11
36.980000000000004
 21
167.64008571209902
  0
LINE
  8
_0-1_作画層１
  6
CONTINUOUS
 62
    7
 10
36.319999999999993
 20
167.1667619023323
 11
36.980000000000004
 21
167.82676190233229
  0
LINE
  8
_0-1_作画層１
  6
CONTINUOUS
 62
    7
 10
36.319999999999993
 20
167.35343809256545
 11
36.980000000000004
 21
168.01343809256545
  0
LINE
  8
_0-1_作画層１
  6
CONTINUOUS
 62
    7
 10
36.319999999999993
 20
167.54011428279873
 11
36.980000000000004
 21
168.20011428279872
  0
LINE
  8
_0-1_作画層１
  6
CONTINUOUS
 62
    7
 10
36.319999999999993
 20
167.72679047303194
 11
36.921604763483984
 21
168.328395236516
  0
LINE
  8
_0-1_作画層１
  6
CONTINUOUS
 62
    7
 10
36.319999999999993
 20
167.91346666326518
 11
36.828266668367377
 21
168.42173333163259
  0
LINE
  8
_0-1_作画層１
  6
CONTINUOUS
 62
    7
 10
36.319999999999993
 20
168.10014285349843
 11
36.734928573250755
 21
168.51507142674919
  0
LINE
  8
_0-1_作画層１
  6
CONTINUOUS
 62
    7
 10
36.319999999999993
 20
168.26999999999998
 11
36.650000000000006
 21
168.59999999999997
  0
LINE
  8
_0-1_作画層１
  6
CONTINUOUS
 62
    7
 10
36.650000000000006
 20
168.59999999999997
 11
36.980000000000004
 21
168.26999999999998
  0
LINE
  8
_0-1_作画層１
  6
CONTINUOUS
 62
    7
 10
36.980000000000047
 20
168.27000000000004
 11
36.650000000000034
 21
168.59999999999999
  0
LINE
  8
_0-1_作画層１
  6
CONTINUOUS
 62
    7
 10
36.319999999999993
 20
164.36999999999998
 11
36.319999999999993
 21
161.06999999999999
  0
LINE
  8
_0-1_作画層１
  6
CONTINUOUS
 62
    7
 10
36.980000000000004
 20
164.36999999999998
 11
36.980000000000004
 21
161.06999999999999
  0
LINE
  8
_0-1_作画層１
  6
CONTINUOUS
 62
    7
 10
36.319999999999993
 20
161.06999999999999
 11
36.650000000000006
 21
160.73999999999995
  0
LINE
  8
_0-1_作画層１
  6
CONTINUOUS
 62
    7
 10
36.980000000000004
 20
161.06999999999999
 11
36.650000000000006
 21
160.73999999999995
  0
LINE
  8
_0-1_作画層１
  6
CONTINUOUS
 62
    7
 10
36.621690475583151
 20
160.76830952441682
 11
36.980000000000004
 21
161.12661904883367
  0
LINE
  8
_0-1_作画層１
  6
CONTINUOUS
 62
    7
 10
36.528352380466544
 20
160.86164761953341
 11
36.980000000000004
 21
161.31329523906689
  0
LINE
  8
_0-1_作画層１
  6
CONTINUOUS
 62
    7
 10
36.435014285349936
 20
160.95498571465004
 11
36.980000000000004
 21
161.4999714293001
  0
LINE
  8
_0-1_作画層１
  6
CONTINUOUS
 62
    7
 10
36.341676190233258
 20
161.04832380976669
 11
36.980000000000004
 21
161.6866476195334
  0
LINE
  8
_0-1_作画層１
  6
CONTINUOUS
 62
    7
 10
36.319999999999993
 20
161.21332380976665
 11
36.980000000000004
 21
161.87332380976659
  0
LINE
  8
_0-1_作画層１
  6
CONTINUOUS
 62
    7
 10
36.319999999999993
 20
161.39999999999986
 11
36.980000000000004
 21
162.05999999999986
  0
LINE
  8
_0-1_作画層１
  6
CONTINUOUS
 62
    7
 10
36.319999999999993
 20
161.58667619023308
 11
36.980000000000004
 21
162.24667619023313
  0
LINE
  8
_0-1_作画層１
  6
CONTINUOUS
 62
    7
 10
36.319999999999993
 20
161.77335238046635
 11
36.980000000000004
 21
162.43335238046629
  0
LINE
  8
_0-1_作画層１
  6
CONTINUOUS
 62
    7
 10
36.319999999999993
 20
161.96002857069954
 11
36.980000000000004
 21
162.62002857069956
  0
LINE
  8
_0-1_作画層１
  6
CONTINUOUS
 62
    7
 10
36.319999999999993
 20
162.14670476093278
 11
36.980000000000004
 21
162.80670476093275
  0
LINE
  8
_0-1_作画層１
  6
CONTINUOUS
 62
    7
 10
36.319999999999993
 20
162.33338095116605
 11
36.980000000000004
 21
162.99338095116605
  0
LINE
  8
_0-1_作画層１
  6
CONTINUOUS
 62
    7
 10
36.319999999999993
 20
162.52005714139926
 11
36.980000000000004
 21
163.18005714139926
  0
LINE
  8
_0-1_作画層１
  6
CONTINUOUS
 62
    7
 10
36.319999999999993
 20
162.70673333163253
 11
36.980000000000004
 21
163.36673333163253
  0
LINE
  8
_0-1_作画層１
  6
CONTINUOUS
 62
    7
 10
36.319999999999993
 20
162.89340952186575
 11
36.980000000000004
 21
163.5534095218658
  0
LINE
  8
_0-1_作画層１
  6
CONTINUOUS
 62
    7
 10
36.319999999999993
 20
163.08008571209902
 11
36.980000000000004
 21
163.74008571209902
  0
LINE
  8
_0-1_作画層１
  6
CONTINUOUS
 62
    7
 10
36.319999999999993
 20
163.26676190233229
 11
36.980000000000004
 21
163.92676190233229
  0
LINE
  8
_0-1_作画層１
  6
CONTINUOUS
 62
    7
 10
36.319999999999993
 20
163.45343809256548
 11
36.980000000000004
 21
164.11343809256545
  0
LINE
  8
_0-1_作画層１
  6
CONTINUOUS
 62
    7
 10
36.319999999999993
 20
163.64011428279872
 11
36.980000000000004
 21
164.30011428279872
  0
LINE
  8
_0-1_作画層１
  6
CONTINUOUS
 62
    7
 10
36.319999999999993
 20
163.82679047303196
 11
36.921604763483984
 21
164.428395236516
  0
LINE
  8
_0-1_作画層１
  6
CONTINUOUS
 62
    7
 10
36.319999999999993
 20
164.01346666326518
 11
36.828266668367377
 21
164.52173333163259
  0
LINE
  8
_0-1_作画層１
  6
CONTINUOUS
 62
    7
 10
36.319999999999993
 20
164.20014285349845
 11
36.734928573250755
 21
164.61507142674918
  0
LINE
  8
_0-1_作画層１
  6
CONTINUOUS
 62
    7
 10
36.319999999999993
 20
164.36999999999998
 11
36.650000000000006
 21
164.69999999999996
  0
LINE
  8
_0-1_作画層１
  6
CONTINUOUS
 62
    7
 10
36.650000000000006
 20
164.69999999999996
 11
36.980000000000004
 21
164.36999999999998
  0
LINE
  8
_0-1_作画層１
  6
CONTINUOUS
 62
    7
 10
36.980000000000047
 20
164.37000000000003
 11
36.650000000000034
 21
164.69999999999999
  0
LINE
  8
_0-1_作画層１
  6
CONTINUOUS
 62
    7
 10
39.61999999999999
 20
168.26999999999998
 11
39.61999999999999
 21
164.96999999999997
  0
LINE
  8
_0-1_作画層１
  6
CONTINUOUS
 62
    7
 10
40.280000000000001
 20
168.26999999999998
 11
40.280000000000001
 21
164.96999999999997
  0
LINE
  8
_0-1_作画層１
  6
CONTINUOUS
 62
    7
 10
39.61999999999999
 20
164.96999999999997
 11
39.950000000000003
 21
164.63999999999996
  0
LINE
  8
_0-1_作画層１
  6
CONTINUOUS
 62
    7
 10
40.280000000000001
 20
164.96999999999997
 11
39.950000000000003
 21
164.63999999999996
  0
LINE
  8
_0-1_作画層１
  6
CONTINUOUS
 62
    7
 10
39.921690475583148
 20
164.66830952441683
 11
40.280000000000001
 21
165.02661904883365
  0
LINE
  8
_0-1_作画層１
  6
CONTINUOUS
 62
    7
 10
39.828352380466541
 20
164.76164761953342
 11
40.280000000000001
 21
165.21329523906689
  0
LINE
  8
_0-1_作画層１
  6
CONTINUOUS
 62
    7
 10
39.735014285349934
 20
164.85498571465004
 11
40.280000000000001
 21
165.39997142930011
  0
LINE
  8
_0-1_作画層１
  6
CONTINUOUS
 62
    7
 10
39.641676190233255
 20
164.94832380976669
 11
40.280000000000001
 21
165.58664761953341
  0
LINE
  8
_0-1_作画層１
  6
CONTINUOUS
 62
    7
 10
39.61999999999999
 20
165.11332380976665
 11
40.280000000000001
 21
165.77332380976659
  0
LINE
  8
_0-1_作画層１
  6
CONTINUOUS
 62
    7
 10
39.61999999999999
 20
165.29999999999987
 11
40.280000000000001
 21
165.95999999999987
  0
LINE
  8
_0-1_作画層１
  6
CONTINUOUS
 62
    7
 10
39.61999999999999
 20
165.48667619023308
 11
40.280000000000001
 21
166.14667619023311
  0
LINE
  8
_0-1_作画層１
  6
CONTINUOUS
 62
    7
 10
39.61999999999999
 20
165.67335238046635
 11
40.280000000000001
 21
166.33335238046629
  0
LINE
  8
_0-1_作画層１
  6
CONTINUOUS
 62
    7
 10
39.61999999999999
 20
165.86002857069951
 11
40.280000000000001
 21
166.52002857069957
  0
LINE
  8
_0-1_作画層１
  6
CONTINUOUS
 62
    7
 10
39.61999999999999
 20
166.04670476093278
 11
40.280000000000001
 21
166.70670476093272
  0
LINE
  8
_0-1_作画層１
  6
CONTINUOUS
 62
    7
 10
39.61999999999999
 20
166.23338095116605
 11
40.280000000000001
 21
166.89338095116605
  0
LINE
  8
_0-1_作画層１
  6
CONTINUOUS
 62
    7
 10
39.61999999999999
 20
166.42005714139927
 11
40.280000000000001
 21
167.08005714139927
  0
LINE
  8
_0-1_作画層１
  6
CONTINUOUS
 62
    7
 10
39.61999999999999
 20
166.60673333163254
 11
40.280000000000001
 21
167.26673333163254
  0
LINE
  8
_0-1_作画層１
  6
CONTINUOUS
 62
    7
 10
39.61999999999999
 20
166.79340952186575
 11
40.280000000000001
 21
167.45340952186581
  0
LINE
  8
_0-1_作画層１
  6
CONTINUOUS
 62
    7
 10
39.61999999999999
 20
166.98008571209903
 11
40.280000000000001
 21
167.64008571209902
  0
LINE
  8
_0-1_作画層１
  6
CONTINUOUS
 62
    7
 10
39.61999999999999
 20
167.1667619023323
 11
40.280000000000001
 21
167.82676190233229
  0
LINE
  8
_0-1_作画層１
  6
CONTINUOUS
 62
    7
 10
39.61999999999999
 20
167.35343809256545
 11
40.280000000000001
 21
168.01343809256545
  0
LINE
  8
_0-1_作画層１
  6
CONTINUOUS
 62
    7
 10
39.61999999999999
 20
167.54011428279873
 11
40.280000000000001
 21
168.20011428279872
  0
LINE
  8
_0-1_作画層１
  6
CONTINUOUS
 62
    7
 10
39.61999999999999
 20
167.72679047303194
 11
40.221604763483981
 21
168.328395236516
  0
LINE
  8
_0-1_作画層１
  6
CONTINUOUS
 62
    7
 10
39.61999999999999
 20
167.91346666326518
 11
40.128266668367374
 21
168.42173333163259
  0
LINE
  8
_0-1_作画層１
  6
CONTINUOUS
 62
    7
 10
39.61999999999999
 20
168.10014285349843
 11
40.034928573250752
 21
168.51507142674919
  0
LINE
  8
_0-1_作画層１
  6
CONTINUOUS
 62
    7
 10
39.61999999999999
 20
164.30999999999995
 11
39.61999999999999
 21
161.00999999999993
  0
LINE
  8
_0-1_作画層１
  6
CONTINUOUS
 62
    7
 10
39.61999999999999
 20
164.30999999999995
 11
39.950000000000003
 21
164.63999999999996
  0
LINE
  8
_0-1_作画層１
  6
CONTINUOUS
 62
    7
 10
39.950000000000003
 20
164.63999999999996
 11
40.280000000000001
 21
164.30999999999995
  0
LINE
  8
_0-1_作画層１
  6
CONTINUOUS
 62
    7
 10
40.280000000000001
 20
164.30999999999995
 11
40.280000000000001
 21
161.00999999999993
  0
LINE
  8
_0-1_作画層１
  6
CONTINUOUS
 62
    7
 10
39.61999999999999
 20
161.00999999999993
 11
39.950000000000003
 21
160.67999999999998
  0
LINE
  8
_0-1_作画層１
  6
CONTINUOUS
 62
    7
 10
40.280000000000001
 20
161.00999999999993
 11
39.950000000000003
 21
160.67999999999998
  0
LINE
  8
_0-1_作画層１
  6
CONTINUOUS
 62
    7
 10
39.921690475583148
 20
160.70830952441685
 11
40.280000000000001
 21
161.06661904883367
  0
LINE
  8
_0-1_作画層１
  6
CONTINUOUS
 62
    7
 10
39.828352380466541
 20
160.80164761953341
 11
40.280000000000001
 21
161.25329523906694
  0
LINE
  8
_0-1_作画層１
  6
CONTINUOUS
 62
    7
 10
39.735014285349934
 20
160.89498571465006
 11
40.280000000000001
 21
161.4399714293001
  0
LINE
  8
_0-1_作画層１
  6
CONTINUOUS
 62
    7
 10
39.641676190233255
 20
160.98832380976665
 11
40.280000000000001
 21
161.62664761953343
  0
LINE
  8
_0-1_作画層１
  6
CONTINUOUS
 62
    7
 10
39.61999999999999
 20
161.15332380976662
 11
40.280000000000001
 21
161.81332380976664
  0
LINE
  8
_0-1_作画層１
  6
CONTINUOUS
 62
    7
 10
39.61999999999999
 20
161.33999999999986
 11
40.280000000000001
 21
161.99999999999986
  0
LINE
  8
_0-1_作画層１
  6
CONTINUOUS
 62
    7
 10
39.61999999999999
 20
161.5266761902331
 11
40.280000000000001
 21
162.18667619023307
  0
LINE
  8
_0-1_作画層１
  6
CONTINUOUS
 62
    7
 10
39.61999999999999
 20
161.71335238046632
 11
40.280000000000001
 21
162.37335238046634
  0
LINE
  8
_0-1_作画層１
  6
CONTINUOUS
 62
    7
 10
39.61999999999999
 20
161.90002857069953
 11
40.280000000000001
 21
162.56002857069953
  0
LINE
  8
_0-1_作画層１
  6
CONTINUOUS
 62
    7
 10
39.61999999999999
 20
162.08670476093275
 11
40.280000000000001
 21
162.7467047609328
  0
LINE
  8
_0-1_作画層１
  6
CONTINUOUS
 62
    7
 10
39.61999999999999
 20
162.27338095116602
 11
40.280000000000001
 21
162.93338095116604
  0
LINE
  8
_0-1_作画層１
  6
CONTINUOUS
 62
    7
 10
39.61999999999999
 20
162.46005714139929
 11
40.280000000000001
 21
163.12005714139929
  0
LINE
  8
_0-1_作画層１
  6
CONTINUOUS
 62
    7
 10
39.61999999999999
 20
162.64673333163256
 11
40.280000000000001
 21
163.30673333163253
  0
LINE
  8
_0-1_作画層１
  6
CONTINUOUS
 62
    7
 10
39.61999999999999
 20
162.83340952186578
 11
40.280000000000001
 21
163.49340952186577
  0
LINE
  8
_0-1_作画層１
  6
CONTINUOUS
 62
    7
 10
39.61999999999999
 20
163.02008571209905
 11
40.280000000000001
 21
163.68008571209901
  0
LINE
  8
_0-1_作画層１
  6
CONTINUOUS
 62
    7
 10
39.61999999999999
 20
163.20676190233226
 11
40.280000000000001
 21
163.86676190233229
  0
LINE
  8
_0-1_作画層１
  6
CONTINUOUS
 62
    7
 10
39.61999999999999
 20
163.39343809256548
 11
40.280000000000001
 21
164.05343809256547
  0
LINE
  8
_0-1_作画層１
  6
CONTINUOUS
 62
    7
 10
39.61999999999999
 20
163.58011428279869
 11
40.280000000000001
 21
164.24011428279874
  0
LINE
  8
_0-1_作画層１
  6
CONTINUOUS
 62
    7
 10
39.61999999999999
 20
163.76679047303196
 11
40.221604763483981
 21
164.36839523651597
  0
LINE
  8
_0-1_作画層１
  6
CONTINUOUS
 62
    7
 10
39.61999999999999
 20
163.95346666326523
 11
40.128266668367374
 21
164.46173333163262
  0
LINE
  8
_0-1_作画層１
  6
CONTINUOUS
 62
    7
 10
39.61999999999999
 20
164.14014285349845
 11
40.034928573250752
 21
164.55507142674918
  0
LINE
  8
_0-1_作画層１
  6
CONTINUOUS
 62
    7
 10
40.25
 20
168.59999999999997
 11
40.580000000000013
 21
168.26999999999998
  0
LINE
  8
_0-1_作画層１
  6
CONTINUOUS
 62
    7
 10
40.580000000000041
 20
168.27000000000004
 11
43.880000000000038
 21
168.27000000000004
  0
LINE
  8
_0-1_作画層１
  6
CONTINUOUS
 62
    7
 10
40.580000000000041
 20
168.27000000000004
 11
40.250000000000028
 21
168.59999999999999
  0
LINE
  8
_0-1_作画層１
  6
CONTINUOUS
 62
    7
 10
40.250000000000028
 20
168.59999999999999
 11
40.580000000000041
 21
168.93000000000001
  0
LINE
  8
_0-1_作画層１
  6
CONTINUOUS
 62
    7
 10
40.580000000000041
 20
168.93000000000001
 11
43.880000000000038
 21
168.93000000000001
  0
LINE
  8
_0-1_作画層１
  6
CONTINUOUS
 62
    7
 10
43.880000000000038
 20
168.27000000000004
 11
44.210000000000051
 21
168.59999999999999
  0
LINE
  8
_0-1_作画層１
  6
CONTINUOUS
 62
    7
 10
43.880000000000038
 20
168.93000000000001
 11
44.210000000000051
 21
168.59999999999999
  0
LINE
  8
_0-1_作画層１
  6
CONTINUOUS
 62
    7
 10
44.181690475583167
 20
168.57169047558318
 11
43.823380951166328
 21
168.93000000000001
  0
LINE
  8
_0-1_作画層１
  6
CONTINUOUS
 62
    7
 10
44.088352380466603
 20
168.47835238046656
 11
43.6367047609331
 21
168.93000000000001
  0
LINE
  8
_0-1_作画層１
  6
CONTINUOUS
 62
    7
 10
43.995014285349953
 20
168.38501428534991
 11
43.450028570699885
 21
168.93000000000001
  0
LINE
  8
_0-1_作画層１
  6
CONTINUOUS
 62
    7
 10
43.901676190233346
 20
168.29167619023329
 11
43.2633523804666
 21
168.93000000000001
  0
LINE
  8
_0-1_作画層１
  6
CONTINUOUS
 62
    7
 10
43.736676190233354
 20
168.27000000000004
 11
43.076676190233371
 21
168.93000000000001
  0
LINE
  8
_0-1_作画層１
  6
CONTINUOUS
 62
    7
 10
43.550000000000139
 20
168.27000000000004
 11
42.890000000000157
 21
168.93000000000001
  0
LINE
  8
_0-1_作画層１
  6
CONTINUOUS
 62
    7
 10
43.363323809766882
 20
168.27000000000004
 11
42.7033238097669
 21
168.93000000000001
  0
LINE
  8
_0-1_作画層１
  6
CONTINUOUS
 62
    7
 10
43.176647619533668
 20
168.27000000000004
 11
42.516647619533686
 21
168.93000000000001
  0
LINE
  8
_0-1_作画層１
  6
CONTINUOUS
 62
    7
 10
42.989971429300439
 20
168.27000000000004
 11
42.329971429300457
 21
168.93000000000001
  0
LINE
  8
_0-1_作画層１
  6
CONTINUOUS
 62
    7
 10
42.803295239067225
 20
168.27000000000004
 11
42.143295239067243
 21
168.93000000000001
  0
LINE
  8
_0-1_作画層１
  6
CONTINUOUS
 62
    7
 10
42.616619048833968
 20
168.27000000000004
 11
41.956619048833957
 21
168.93000000000001
  0
LINE
  8
_0-1_作画層１
  6
CONTINUOUS
 62
    7
 10
42.429942858600711
 20
168.27000000000004
 11
41.7699428586007
 21
168.93000000000001
  0
LINE
  8
_0-1_作画層１
  6
CONTINUOUS
 62
    7
 10
42.243266668367454
 20
168.27000000000004
 11
41.583266668367443
 21
168.93000000000001
  0
LINE
  8
_0-1_作画層１
  6
CONTINUOUS
 62
    7
 10
42.05659047813424
 20
168.27000000000004
 11
41.396590478134229
 21
168.93000000000001
  0
LINE
  8
_0-1_作画層１
  6
CONTINUOUS
 62
    7
 10
41.869914287900983
 20
168.27000000000004
 11
41.209914287900972
 21
168.93000000000001
  0
LINE
  8
_0-1_作画層１
  6
CONTINUOUS
 62
    7
 10
41.683238097667726
 20
168.27000000000004
 11
41.023238097667715
 21
168.93000000000001
  0
LINE
  8
_0-1_作画層１
  6
CONTINUOUS
 62
    7
 10
41.49656190743454
 20
168.27000000000004
 11
40.836561907434529
 21
168.93000000000001
  0
LINE
  8
_0-1_作画層１
  6
CONTINUOUS
 62
    7
 10
41.309885717201297
 20
168.27000000000004
 11
40.649885717201272
 21
168.93000000000001
  0
LINE
  8
_0-1_作画層１
  6
CONTINUOUS
 62
    7
 10
41.12320952696804
 20
168.27000000000004
 11
40.521604763484021
 21
168.87160476348399
  0
LINE
  8
_0-1_作画層１
  6
CONTINUOUS
 62
    7
 10
40.936533336734811
 20
168.27000000000004
 11
40.428266668367399
 21
168.77826666836739
  0
LINE
  8
_0-1_作画層１
  6
CONTINUOUS
 62
    7
 10
40.749857146501526
 20
168.27000000000004
 11
40.334928573250792
 21
168.68492857325072
  0
LINE
  8
_0-1_作画層１
  6
CONTINUOUS
 62
    7
 10
39.61999999999999
 20
168.26999999999998
 11
39.950000000000003
 21
168.59999999999997
  0
LINE
  8
_0-1_作画層１
  6
CONTINUOUS
 62
    7
 10
39.950000000000003
 20
168.59999999999997
 11
40.280000000000001
 21
168.26999999999998
  0
LINE
  8
_0-1_作画層１
  6
CONTINUOUS
 62
    7
 10
40.280000000000044
 20
168.27000000000004
 11
39.950000000000031
 21
168.59999999999999
  0
LINE
  8
_0-1_作画層１
  6
CONTINUOUS
 62
    7
 10
40.25
 20
160.79999999999995
 11
40.580000000000013
 21
160.46999999999997
  0
LINE
  8
_0-1_作画層１
  6
CONTINUOUS
 62
    7
 10
40.580000000000041
 20
160.47000000000003
 11
43.880000000000038
 21
160.47000000000003
  0
LINE
  8
_0-1_作画層１
  6
CONTINUOUS
 62
    7
 10
40.580000000000041
 20
160.47000000000003
 11
40.250000000000028
 21
160.80000000000001
  0
LINE
  8
_0-1_作画層１
  6
CONTINUOUS
 62
    7
 10
40.250000000000028
 20
160.80000000000001
 11
40.580000000000041
 21
161.13000000000002
  0
LINE
  8
_0-1_作画層１
  6
CONTINUOUS
 62
    7
 10
40.580000000000041
 20
161.13000000000002
 11
43.880000000000038
 21
161.13000000000002
  0
LINE
  8
_0-1_作画層１
  6
CONTINUOUS
 62
    7
 10
43.880000000000038
 20
160.47000000000003
 11
44.210000000000051
 21
160.80000000000001
  0
LINE
  8
_0-1_作画層１
  6
CONTINUOUS
 62
    7
 10
43.880000000000038
 20
161.13000000000002
 11
44.210000000000051
 21
160.80000000000001
  0
LINE
  8
_0-1_作画層１
  6
CONTINUOUS
 62
    7
 10
44.181690475583167
 20
160.77169047558317
 11
43.823380951166328
 21
161.13000000000002
  0
LINE
  8
_0-1_作画層１
  6
CONTINUOUS
 62
    7
 10
44.088352380466603
 20
160.67835238046655
 11
43.6367047609331
 21
161.13000000000002
  0
LINE
  8
_0-1_作画層１
  6
CONTINUOUS
 62
    7
 10
43.995014285349953
 20
160.58501428534993
 11
43.450028570699885
 21
161.13000000000002
  0
LINE
  8
_0-1_作画層１
  6
CONTINUOUS
 62
    7
 10
43.901676190233346
 20
160.49167619023328
 11
43.2633523804666
 21
161.13000000000002
  0
LINE
  8
_0-1_作画層１
  6
CONTINUOUS
 62
    7
 10
43.736676190233354
 20
160.47000000000003
 11
43.076676190233371
 21
161.13000000000002
  0
LINE
  8
_0-1_作画層１
  6
CONTINUOUS
 62
    7
 10
43.550000000000139
 20
160.47000000000003
 11
42.890000000000157
 21
161.13000000000002
  0
LINE
  8
_0-1_作画層１
  6
CONTINUOUS
 62
    7
 10
43.363323809766882
 20
160.47000000000003
 11
42.7033238097669
 21
161.13000000000002
  0
LINE
  8
_0-1_作画層１
  6
CONTINUOUS
 62
    7
 10
43.176647619533668
 20
160.47000000000003
 11
42.516647619533686
 21
161.13000000000002
  0
LINE
  8
_0-1_作画層１
  6
CONTINUOUS
 62
    7
 10
42.989971429300439
 20
160.47000000000003
 11
42.329971429300457
 21
161.13000000000002
  0
LINE
  8
_0-1_作画層１
  6
CONTINUOUS
 62
    7
 10
42.803295239067225
 20
160.47000000000003
 11
42.143295239067243
 21
161.13000000000002
  0
LINE
  8
_0-1_作画層１
  6
CONTINUOUS
 62
    7
 10
42.616619048833968
 20
160.47000000000003
 11
41.956619048833957
 21
161.13000000000002
  0
LINE
  8
_0-1_作画層１
  6
CONTINUOUS
 62
    7
 10
42.429942858600711
 20
160.47000000000003
 11
41.7699428586007
 21
161.13000000000002
  0
LINE
  8
_0-1_作画層１
  6
CONTINUOUS
 62
    7
 10
42.243266668367454
 20
160.47000000000003
 11
41.583266668367443
 21
161.13000000000002
  0
LINE
  8
_0-1_作画層１
  6
CONTINUOUS
 62
    7
 10
42.05659047813424
 20
160.47000000000003
 11
41.396590478134229
 21
161.13000000000002
  0
LINE
  8
_0-1_作画層１
  6
CONTINUOUS
 62
    7
 10
41.869914287900983
 20
160.47000000000003
 11
41.209914287900972
 21
161.13000000000002
  0
LINE
  8
_0-1_作画層１
  6
CONTINUOUS
 62
    7
 10
41.683238097667726
 20
160.47000000000003
 11
41.023238097667715
 21
161.13000000000002
  0
LINE
  8
_0-1_作画層１
  6
CONTINUOUS
 62
    7
 10
41.49656190743454
 20
160.47000000000003
 11
40.836561907434529
 21
161.13000000000002
  0
LINE
  8
_0-1_作画層１
  6
CONTINUOUS
 62
    7
 10
41.309885717201297
 20
160.47000000000003
 11
40.649885717201272
 21
161.13000000000002
  0
LINE
  8
_0-1_作画層１
  6
CONTINUOUS
 62
    7
 10
41.12320952696804
 20
160.47000000000003
 11
40.521604763484021
 21
161.071604763484
  0
LINE
  8
_0-1_作画層１
  6
CONTINUOUS
 62
    7
 10
40.936533336734811
 20
160.47000000000003
 11
40.428266668367399
 21
160.97826666836741
  0
LINE
  8
_0-1_作画層１
  6
CONTINUOUS
 62
    7
 10
40.749857146501526
 20
160.47000000000003
 11
40.334928573250792
 21
160.88492857325073
  0
LINE
  8
_0-1_作画層１
  6
CONTINUOUS
 62
    7
 10
44.11999999999999
 20
168.26999999999998
 11
44.11999999999999
 21
164.96999999999997
  0
LINE
  8
_0-1_作画層１
  6
CONTINUOUS
 62
    7
 10
44.780000000000001
 20
168.26999999999998
 11
44.780000000000001
 21
164.96999999999997
  0
LINE
  8
_0-1_作画層１
  6
CONTINUOUS
 62
    7
 10
44.11999999999999
 20
164.96999999999997
 11
44.450000000000003
 21
164.63999999999996
  0
LINE
  8
_0-1_作画層１
  6
CONTINUOUS
 62
    7
 10
44.780000000000001
 20
164.96999999999997
 11
44.450000000000003
 21
164.63999999999996
  0
LINE
  8
_0-1_作画層１
  6
CONTINUOUS
 62
    7
 10
44.421690475583148
 20
164.66830952441683
 11
44.780000000000001
 21
165.02661904883365
  0
LINE
  8
_0-1_作画層１
  6
CONTINUOUS
 62
    7
 10
44.328352380466541
 20
164.76164761953342
 11
44.780000000000001
 21
165.21329523906689
  0
LINE
  8
_0-1_作画層１
  6
CONTINUOUS
 62
    7
 10
44.235014285349934
 20
164.85498571465004
 11
44.780000000000001
 21
165.39997142930011
  0
LINE
  8
_0-1_作画層１
  6
CONTINUOUS
 62
    7
 10
44.141676190233255
 20
164.94832380976669
 11
44.780000000000001
 21
165.58664761953341
  0
LINE
  8
_0-1_作画層１
  6
CONTINUOUS
 62
    7
 10
44.11999999999999
 20
165.11332380976665
 11
44.780000000000001
 21
165.77332380976659
  0
LINE
  8
_0-1_作画層１
  6
CONTINUOUS
 62
    7
 10
44.11999999999999
 20
165.29999999999987
 11
44.780000000000001
 21
165.95999999999987
  0
LINE
  8
_0-1_作画層１
  6
CONTINUOUS
 62
    7
 10
44.11999999999999
 20
165.48667619023308
 11
44.780000000000001
 21
166.14667619023311
  0
LINE
  8
_0-1_作画層１
  6
CONTINUOUS
 62
    7
 10
44.11999999999999
 20
165.67335238046635
 11
44.780000000000001
 21
166.33335238046629
  0
LINE
  8
_0-1_作画層１
  6
CONTINUOUS
 62
    7
 10
44.11999999999999
 20
165.86002857069951
 11
44.780000000000001
 21
166.52002857069957
  0
LINE
  8
_0-1_作画層１
  6
CONTINUOUS
 62
    7
 10
44.11999999999999
 20
166.04670476093278
 11
44.780000000000001
 21
166.70670476093272
  0
LINE
  8
_0-1_作画層１
  6
CONTINUOUS
 62
    7
 10
44.11999999999999
 20
166.23338095116605
 11
44.780000000000001
 21
166.89338095116605
  0
LINE
  8
_0-1_作画層１
  6
CONTINUOUS
 62
    7
 10
44.11999999999999
 20
166.42005714139927
 11
44.780000000000001
 21
167.08005714139927
  0
LINE
  8
_0-1_作画層１
  6
CONTINUOUS
 62
    7
 10
44.11999999999999
 20
166.60673333163254
 11
44.780000000000001
 21
167.26673333163254
  0
LINE
  8
_0-1_作画層１
  6
CONTINUOUS
 62
    7
 10
44.11999999999999
 20
166.79340952186575
 11
44.780000000000001
 21
167.45340952186581
  0
LINE
  8
_0-1_作画層１
  6
CONTINUOUS
 62
    7
 10
44.11999999999999
 20
166.98008571209903
 11
44.780000000000001
 21
167.64008571209902
  0
LINE
  8
_0-1_作画層１
  6
CONTINUOUS
 62
    7
 10
44.11999999999999
 20
167.1667619023323
 11
44.780000000000001
 21
167.82676190233229
  0
LINE
  8
_0-1_作画層１
  6
CONTINUOUS
 62
    7
 10
44.11999999999999
 20
167.35343809256545
 11
44.780000000000001
 21
168.01343809256545
  0
LINE
  8
_0-1_作画層１
  6
CONTINUOUS
 62
    7
 10
44.11999999999999
 20
167.54011428279873
 11
44.780000000000001
 21
168.20011428279872
  0
LINE
  8
_0-1_作画層１
  6
CONTINUOUS
 62
    7
 10
44.11999999999999
 20
167.72679047303194
 11
44.721604763483981
 21
168.328395236516
  0
LINE
  8
_0-1_作画層１
  6
CONTINUOUS
 62
    7
 10
44.11999999999999
 20
167.91346666326518
 11
44.628266668367374
 21
168.42173333163259
  0
LINE
  8
_0-1_作画層１
  6
CONTINUOUS
 62
    7
 10
44.11999999999999
 20
168.10014285349843
 11
44.534928573250752
 21
168.51507142674919
  0
LINE
  8
_0-1_作画層１
  6
CONTINUOUS
 62
    7
 10
44.11999999999999
 20
168.26999999999998
 11
44.450000000000003
 21
168.59999999999997
  0
LINE
  8
_0-1_作画層１
  6
CONTINUOUS
 62
    7
 10
44.450000000000003
 20
168.59999999999997
 11
44.780000000000001
 21
168.26999999999998
  0
LINE
  8
_0-1_作画層１
  6
CONTINUOUS
 62
    7
 10
44.780000000000044
 20
168.27000000000004
 11
44.450000000000031
 21
168.59999999999999
  0
LINE
  8
_0-1_作画層１
  6
CONTINUOUS
 62
    7
 10
44.11999999999999
 20
164.36999999999998
 11
44.11999999999999
 21
161.06999999999999
  0
LINE
  8
_0-1_作画層１
  6
CONTINUOUS
 62
    7
 10
44.780000000000001
 20
164.36999999999998
 11
44.780000000000001
 21
161.06999999999999
  0
LINE
  8
_0-1_作画層１
  6
CONTINUOUS
 62
    7
 10
44.11999999999999
 20
161.06999999999999
 11
44.450000000000003
 21
160.73999999999995
  0
LINE
  8
_0-1_作画層１
  6
CONTINUOUS
 62
    7
 10
44.780000000000001
 20
161.06999999999999
 11
44.450000000000003
 21
160.73999999999995
  0
LINE
  8
_0-1_作画層１
  6
CONTINUOUS
 62
    7
 10
44.421690475583148
 20
160.76830952441682
 11
44.780000000000001
 21
161.12661904883367
  0
LINE
  8
_0-1_作画層１
  6
CONTINUOUS
 62
    7
 10
44.328352380466541
 20
160.86164761953341
 11
44.780000000000001
 21
161.31329523906689
  0
LINE
  8
_0-1_作画層１
  6
CONTINUOUS
 62
    7
 10
44.235014285349934
 20
160.95498571465004
 11
44.780000000000001
 21
161.4999714293001
  0
LINE
  8
_0-1_作画層１
  6
CONTINUOUS
 62
    7
 10
44.141676190233255
 20
161.04832380976669
 11
44.780000000000001
 21
161.6866476195334
  0
LINE
  8
_0-1_作画層１
  6
CONTINUOUS
 62
    7
 10
44.11999999999999
 20
161.21332380976665
 11
44.780000000000001
 21
161.87332380976659
  0
LINE
  8
_0-1_作画層１
  6
CONTINUOUS
 62
    7
 10
44.11999999999999
 20
161.39999999999986
 11
44.780000000000001
 21
162.05999999999986
  0
LINE
  8
_0-1_作画層１
  6
CONTINUOUS
 62
    7
 10
44.11999999999999
 20
161.58667619023308
 11
44.780000000000001
 21
162.24667619023313
  0
LINE
  8
_0-1_作画層１
  6
CONTINUOUS
 62
    7
 10
44.11999999999999
 20
161.77335238046635
 11
44.780000000000001
 21
162.43335238046629
  0
LINE
  8
_0-1_作画層１
  6
CONTINUOUS
 62
    7
 10
44.11999999999999
 20
161.96002857069954
 11
44.780000000000001
 21
162.62002857069956
  0
LINE
  8
_0-1_作画層１
  6
CONTINUOUS
 62
    7
 10
44.11999999999999
 20
162.14670476093278
 11
44.780000000000001
 21
162.80670476093275
  0
LINE
  8
_0-1_作画層１
  6
CONTINUOUS
 62
    7
 10
44.11999999999999
 20
162.33338095116605
 11
44.780000000000001
 21
162.99338095116605
  0
LINE
  8
_0-1_作画層１
  6
CONTINUOUS
 62
    7
 10
44.11999999999999
 20
162.52005714139926
 11
44.780000000000001
 21
163.18005714139926
  0
LINE
  8
_0-1_作画層１
  6
CONTINUOUS
 62
    7
 10
44.11999999999999
 20
162.70673333163253
 11
44.780000000000001
 21
163.36673333163253
  0
LINE
  8
_0-1_作画層１
  6
CONTINUOUS
 62
    7
 10
44.11999999999999
 20
162.89340952186575
 11
44.780000000000001
 21
163.5534095218658
  0
LINE
  8
_0-1_作画層１
  6
CONTINUOUS
 62
    7
 10
44.11999999999999
 20
163.08008571209902
 11
44.780000000000001
 21
163.74008571209902
  0
LINE
  8
_0-1_作画層１
  6
CONTINUOUS
 62
    7
 10
44.11999999999999
 20
163.26676190233229
 11
44.780000000000001
 21
163.92676190233229
  0
LINE
  8
_0-1_作画層１
  6
CONTINUOUS
 62
    7
 10
44.11999999999999
 20
163.45343809256548
 11
44.780000000000001
 21
164.11343809256545
  0
LINE
  8
_0-1_作画層１
  6
CONTINUOUS
 62
    7
 10
44.11999999999999
 20
163.64011428279872
 11
44.780000000000001
 21
164.30011428279872
  0
LINE
  8
_0-1_作画層１
  6
CONTINUOUS
 62
    7
 10
44.11999999999999
 20
163.82679047303196
 11
44.721604763483981
 21
164.428395236516
  0
LINE
  8
_0-1_作画層１
  6
CONTINUOUS
 62
    7
 10
44.11999999999999
 20
164.01346666326518
 11
44.628266668367374
 21
164.52173333163259
  0
LINE
  8
_0-1_作画層１
  6
CONTINUOUS
 62
    7
 10
44.11999999999999
 20
164.20014285349845
 11
44.534928573250752
 21
164.61507142674918
  0
LINE
  8
_0-1_作画層１
  6
CONTINUOUS
 62
    7
 10
44.11999999999999
 20
164.36999999999998
 11
44.450000000000003
 21
164.69999999999996
  0
LINE
  8
_0-1_作画層１
  6
CONTINUOUS
 62
    7
 10
44.450000000000003
 20
164.69999999999996
 11
44.780000000000001
 21
164.36999999999998
  0
LINE
  8
_0-1_作画層１
  6
CONTINUOUS
 62
    7
 10
44.780000000000044
 20
164.37000000000003
 11
44.450000000000031
 21
164.69999999999999
  0
LINE
  8
_0-1_作画層１
  6
CONTINUOUS
 62
    7
 10
32.450000000000003
 20
164.69999999999996
 11
32.780000000000001
 21
164.36999999999998
  0
LINE
  8
_0-1_作画層１
  6
CONTINUOUS
 62
    7
 10
32.780000000000044
 20
164.37000000000003
 11
36.080000000000041
 21
164.37000000000003
  0
LINE
  8
_0-1_作画層１
  6
CONTINUOUS
 62
    7
 10
32.780000000000044
 20
164.37000000000003
 11
32.450000000000031
 21
164.69999999999999
  0
LINE
  8
_0-1_作画層１
  6
CONTINUOUS
 62
    7
 10
32.450000000000031
 20
164.69999999999999
 11
32.780000000000044
 21
165.03000000000003
  0
LINE
  8
_0-1_作画層１
  6
CONTINUOUS
 62
    7
 10
32.780000000000044
 20
165.03000000000003
 11
36.080000000000041
 21
165.03000000000003
  0
LINE
  8
_0-1_作画層１
  6
CONTINUOUS
 62
    7
 10
36.080000000000041
 20
164.37000000000003
 11
36.410000000000053
 21
164.69999999999999
  0
LINE
  8
_0-1_作画層１
  6
CONTINUOUS
 62
    7
 10
36.080000000000041
 20
165.03000000000003
 11
36.410000000000053
 21
164.69999999999999
  0
LINE
  8
_0-1_作画層１
  6
CONTINUOUS
 62
    7
 10
36.38169047558317
 20
164.67169047558318
 11
36.023380951166331
 21
165.03000000000003
  0
LINE
  8
_0-1_作画層１
  6
CONTINUOUS
 62
    7
 10
36.288352380466591
 20
164.57835238046655
 11
35.836704760933102
 21
165.03000000000003
  0
LINE
  8
_0-1_作画層１
  6
CONTINUOUS
 62
    7
 10
36.195014285349956
 20
164.48501428534991
 11
35.650028570699888
 21
165.03000000000003
  0
LINE
  8
_0-1_作画層１
  6
CONTINUOUS
 62
    7
 10
36.101676190233349
 20
164.39167619023328
 11
35.463352380466603
 21
165.03000000000003
  0
LINE
  8
_0-1_作画層１
  6
CONTINUOUS
 62
    7
 10
35.936676190233356
 20
164.37000000000003
 11
35.276676190233374
 21
165.03000000000003
  0
LINE
  8
_0-1_作画層１
  6
CONTINUOUS
 62
    7
 10
35.750000000000142
 20
164.37000000000003
 11
35.09000000000016
 21
165.03000000000003
  0
LINE
  8
_0-1_作画層１
  6
CONTINUOUS
 62
    7
 10
35.563323809766885
 20
164.37000000000003
 11
34.903323809766903
 21
165.03000000000003
  0
LINE
  8
_0-1_作画層１
  6
CONTINUOUS
 62
    7
 10
35.376647619533657
 20
164.37000000000003
 11
34.716647619533688
 21
165.03000000000003
  0
LINE
  8
_0-1_作画層１
  6
CONTINUOUS
 62
    7
 10
35.189971429300442
 20
164.37000000000003
 11
34.52997142930046
 21
165.03000000000003
  0
LINE
  8
_0-1_作画層１
  6
CONTINUOUS
 62
    7
 10
35.003295239067228
 20
164.37000000000003
 11
34.343295239067245
 21
165.03000000000003
  0
LINE
  8
_0-1_作画層１
  6
CONTINUOUS
 62
    7
 10
34.816619048833971
 20
164.37000000000003
 11
34.15661904883396
 21
165.03000000000003
  0
LINE
  8
_0-1_作画層１
  6
CONTINUOUS
 62
    7
 10
34.629942858600714
 20
164.37000000000003
 11
33.969942858600703
 21
165.03000000000003
  0
LINE
  8
_0-1_作画層１
  6
CONTINUOUS
 62
    7
 10
34.443266668367457
 20
164.37000000000003
 11
33.783266668367446
 21
165.03000000000003
  0
LINE
  8
_0-1_作画層１
  6
CONTINUOUS
 62
    7
 10
34.256590478134243
 20
164.37000000000003
 11
33.596590478134232
 21
165.03000000000003
  0
LINE
  8
_0-1_作画層１
  6
CONTINUOUS
 62
    7
 10
34.069914287900986
 20
164.37000000000003
 11
33.409914287900975
 21
165.03000000000003
  0
LINE
  8
_0-1_作画層１
  6
CONTINUOUS
 62
    7
 10
33.883238097667729
 20
164.37000000000003
 11
33.223238097667718
 21
165.03000000000003
  0
LINE
  8
_0-1_作画層１
  6
CONTINUOUS
 62
    7
 10
33.696561907434543
 20
164.37000000000003
 11
33.036561907434532
 21
165.03000000000003
  0
LINE
  8
_0-1_作画層１
  6
CONTINUOUS
 62
    7
 10
33.509885717201286
 20
164.37000000000003
 11
32.849885717201275
 21
165.03000000000003
  0
LINE
  8
_0-1_作画層１
  6
CONTINUOUS
 62
    7
 10
33.323209526968043
 20
164.37000000000003
 11
32.721604763484009
 21
164.97160476348398
  0
LINE
  8
_0-1_作画層１
  6
CONTINUOUS
 62
    7
 10
33.136533336734814
 20
164.37000000000003
 11
32.628266668367402
 21
164.87826666836742
  0
LINE
  8
_0-1_作画層１
  6
CONTINUOUS
 62
    7
 10
32.949857146501529
 20
164.37000000000003
 11
32.534928573250795
 21
164.78492857325074
  0
CIRCLE
  8
_0-1_作画層１
  6
CONTINUOUS
 62
    7
 10
28.129999999999967
 20
166.60499999999996
 40
0.675
  0
CIRCLE
  8
_0-1_作画層１
  6
CONTINUOUS
 62
    7
 10
28.129999999999967
 20
162.55499999999998
 40
0.675
  0
LINE
  8
_0-1_作画層１
  6
CONTINUOUS
 62
    7
 10
28.777999999999992
 20
166.41600000000003
 11
28.777999999999992
 21
166.79399999999987
  0
LINE
  8
_0-1_作画層１
  6
CONTINUOUS
 62
    7
 10
28.67000000000003
 20
166.19999999999999
 11
28.67000000000003
 21
167.00999999999993
  0
LINE
  8
_0-1_作画層１
  6
CONTINUOUS
 62
    7
 10
28.562000000000026
 20
166.08634693676794
 11
28.562000000000026
 21
167.12365306323198
  0
LINE
  8
_0-1_作画層１
  6
CONTINUOUS
 62
    7
 10
28.454000000000022
 20
166.01284377061452
 11
28.454000000000022
 21
167.19715622938537
  0
LINE
  8
_0-1_作画層１
  6
CONTINUOUS
 62
    7
 10
28.346000000000046
 20
165.96549315875436
 11
28.346000000000046
 21
167.2445068412456
  0
LINE
  8
_0-1_作画層１
  6
CONTINUOUS
 62
    7
 10
28.238000000000042
 20
165.93869601532032
 11
28.238000000000042
 21
167.27130398467961
  0
LINE
  8
_0-1_作画層１
  6
CONTINUOUS
 62
    7
 10
28.130000000000038
 20
165.92999999999998
 11
28.130000000000038
 21
167.27999999999997
  0
LINE
  8
_0-1_作画層１
  6
CONTINUOUS
 62
    7
 10
28.022000000000077
 20
165.93869601532029
 11
28.022000000000077
 21
167.27130398467966
  0
LINE
  8
_0-1_作画層１
  6
CONTINUOUS
 62
    7
 10
27.914000000000073
 20
165.96549315875427
 11
27.914000000000073
 21
167.24450684124568
  0
LINE
  8
_0-1_作画層１
  6
CONTINUOUS
 62
    7
 10
27.806000000000068
 20
166.01284377061447
 11
27.806000000000068
 21
167.19715622938548
  0
LINE
  8
_0-1_作画層１
  6
CONTINUOUS
 62
    7
 10
27.698000000000093
 20
166.08634693676785
 11
27.698000000000093
 21
167.1236530632321
  0
LINE
  8
_0-1_作画層１
  6
CONTINUOUS
 62
    7
 10
27.590000000000089
 20
166.19999999999987
 11
27.590000000000089
 21
167.01000000000008
  0
LINE
  8
_0-1_作画層１
  6
CONTINUOUS
 62
    7
 10
27.482000000000085
 20
166.41599999999963
 11
27.482000000000085
 21
166.79400000000032
  0
LINE
  8
_0-1_作画層１
  6
CONTINUOUS
 62
    7
 10
28.751000000000019
 20
162.29045510777945
 11
28.751000000000019
 21
162.81954489222045
  0
LINE
  8
_0-1_作画層１
  6
CONTINUOUS
 62
    7
 10
28.643000000000058
 20
162.11630192614967
 11
28.643000000000058
 21
162.99369807385028
  0
LINE
  8
_0-1_作画層１
  6
CONTINUOUS
 62
    7
 10
28.535000000000011
 20
162.01499999999996
 11
28.535000000000011
 21
163.09499999999989
  0
LINE
  8
_0-1_作画層１
  6
CONTINUOUS
 62
    7
 10
28.427000000000049
 20
161.94885150334267
 11
28.427000000000049
 21
163.16114849665729
  0
LINE
  8
_0-1_作画層１
  6
CONTINUOUS
 62
    7
 10
28.319000000000074
 20
161.90699999999998
 11
28.319000000000074
 21
163.20299999999997
  0
LINE
  8
_0-1_作画層１
  6
CONTINUOUS
 62
    7
 10
28.211000000000041
 20
161.88487762311647
 11
28.211000000000041
 21
163.22512237688343
  0
LINE
  8
_0-1_作画層１
  6
CONTINUOUS
 62
    7
 10
28.103000000000065
 20
161.88054021617296
 11
28.103000000000065
 21
163.22945978382694
  0
LINE
  8
_0-1_作画層１
  6
CONTINUOUS
 62
    7
 10
27.995000000000061
 20
161.89363776944847
 11
27.995000000000061
 21
163.21636223055143
  0
LINE
  8
_0-1_作画層１
  6
CONTINUOUS
 62
    7
 10
27.887000000000057
 20
161.92525719535661
 11
27.887000000000057
 21
163.18474280464335
  0
LINE
  8
_0-1_作画層１
  6
CONTINUOUS
 62
    7
 10
27.779000000000082
 20
161.97843777439022
 11
27.779000000000082
 21
163.13156222560974
  0
LINE
  8
_0-1_作画層１
  6
CONTINUOUS
 62
    7
 10
27.671000000000078
 20
162.06008182494466
 11
27.671000000000078
 21
163.04991817505524
  0
LINE
  8
_0-1_作画層１
  6
CONTINUOUS
 62
    7
 10
27.563000000000073
 20
162.18875418091102
 11
27.563000000000073
 21
162.92124581908888
  0
TEXT
  8
_0-7_注記層１
 62
    7
 10
-2.125
 20
183.75
 40
2.5
 41
1
 50
0
  1
SUNAO
  0
LINE
  8
_0-1_作画層１
  6
CONTINUOUS
 62
    7
 10
1.6595167652860141
 20
184.11365877712032
 11
1.6701882607291054
 21
184.10411497733551
  0
LINE
  8
_0-1_作画層１
  6
CONTINUOUS
 62
    7
 10
1.6701882607291054
 20
184.10411497733551
 11
1.6791669200084698
 21
184.09650206589563
  0
LINE
  8
_0-1_作画層１
  6
CONTINUOUS
 62
    7
 10
1.6791669200084698
 20
184.09650206589563
 11
1.690379693362388
 21
184.08716361055468
  0
LINE
  8
_0-1_作画層１
  6
CONTINUOUS
 62
    7
 10
1.690379693362388
 20
184.08716361055468
 11
1.703680710567852
 21
184.07622595916067
  0
LINE
  8
_0-1_作画層１
  6
CONTINUOUS
 62
    7
 10
1.703680710567852
 20
184.07622595916067
 11
1.7189241014018251
 21
184.0638154595614
  0
LINE
  8
_0-1_作画層１
  6
CONTINUOUS
 62
    7
 10
1.7189241014018251
 20
184.0638154595614
 11
1.7359639956412707
 21
184.05005845960477
  0
LINE
  8
_0-1_作画層１
  6
CONTINUOUS
 62
    7
 10
1.7359639956412707
 20
184.05005845960477
 11
1.7546545230632375
 21
184.03508130713897
  0
LINE
  8
_0-1_作画層１
  6
CONTINUOUS
 62
    7
 10
1.7546545230632375
 20
184.03508130713897
 11
1.7748498134446322
 21
184.01901035001154
  0
LINE
  8
_0-1_作画層１
  6
CONTINUOUS
 62
    7
 10
1.7748498134446322
 20
184.01901035001154
 11
1.7964039965625602
 21
184.00197193607079
  0
LINE
  8
_0-1_作画層１
  6
CONTINUOUS
 62
    7
 10
1.7964039965625602
 20
184.00197193607079
 11
1.8191712021938713
 21
183.98409241316432
  0
LINE
  8
_0-1_作画層１
  6
CONTINUOUS
 62
    7
 10
1.8191712021938713
 20
183.98409241316432
 11
1.843005560115671
 21
183.96549812914031
  0
LINE
  8
_0-1_作画層１
  6
CONTINUOUS
 62
    7
 10
1.843005560115671
 20
183.96549812914031
 11
1.8677612001048658
 21
183.94631543184656
  0
LINE
  8
_0-1_作画層１
  6
CONTINUOUS
 62
    7
 10
1.8677612001048658
 20
183.94631543184656
 11
1.8932922519385045
 21
183.92667066913108
  0
LINE
  8
_0-1_作画層１
  6
CONTINUOUS
 62
    7
 10
1.8932922519385045
 20
183.92667066913108
 11
1.919452845393522
 21
183.90669018884165
  0
LINE
  8
_0-1_作画層１
  6
CONTINUOUS
 62
    7
 10
1.919452845393522
 20
183.90669018884165
 11
1.9460971102469102
 21
183.88650033882635
  0
LINE
  8
_0-1_作画層１
  6
CONTINUOUS
 62
    7
 10
1.9460971102469102
 20
183.88650033882635
 11
1.9730791762756894
 21
183.86622746693303
  0
LINE
  8
_0-1_作画層１
  6
CONTINUOUS
 62
    7
 10
1.9730791762756894
 20
183.86622746693303
 11
2.0002531732568514
 21
183.84599792100965
  0
LINE
  8
_0-1_作画層１
  6
CONTINUOUS
 62
    7
 10
2.0002531732568514
 20
183.84599792100965
 11
2.0274732309673311
 21
183.82593804890411
  0
LINE
  8
_0-1_作画層１
  6
CONTINUOUS
 62
    7
 10
2.0274732309673311
 20
183.82593804890411
 11
2.0545934791841773
 21
183.80617419846436
  0
LINE
  8
_0-1_作画層１
  6
CONTINUOUS
 62
    7
 10
2.0545934791841773
 20
183.80617419846436
 11
2.0814680476842966
 21
183.78683271753829
  0
LINE
  8
_0-1_作画層１
  6
CONTINUOUS
 62
    7
 10
2.0814680476842966
 20
183.78683271753829
 11
2.107951066244766
 21
183.76803995397387
  0
LINE
  8
_0-1_作画層１
  6
CONTINUOUS
 62
    7
 10
2.107951066244766
 20
183.76803995397387
 11
2.1338966646425206
 21
183.74992225561905
  0
LINE
  8
_0-1_作画層１
  6
CONTINUOUS
 62
    7
 10
2.1338966646425206
 20
183.74992225561905
 11
2.1591589726545521
 21
183.73260597032169
  0
LINE
  8
_0-1_作画層１
  6
CONTINUOUS
 62
    7
 10
2.1591589726545521
 20
183.73260597032169
 11
2.1835921200578809
 21
183.71621744592977
  0
LINE
  8
_0-1_作画層１
  6
CONTINUOUS
 62
    7
 10
2.1835921200578809
 20
183.71621744592977
 11
2.2070502366294704
 21
183.70088303029115
  0
LINE
  8
_0-1_作画層１
  6
CONTINUOUS
 62
    7
 10
2.2070502366294704
 20
183.70088303029115
 11
2.229387452146284
 21
183.68672907125384
  0
LINE
  8
_0-1_作画層１
  6
CONTINUOUS
 62
    7
 10
2.229387452146284
 20
183.68672907125384
 11
2.2504578963853135
 21
183.67388191666572
  0
LINE
  8
_0-1_作画層１
  6
CONTINUOUS
 62
    7
 10
2.2504578963853135
 20
183.67388191666572
 11
2.2701156991235791
 21
183.6624679143747
  0
LINE
  8
_0-1_作画層１
  6
CONTINUOUS
 62
    7
 10
2.2701156991235791
 20
183.6624679143747
 11
2.2882149901380728
 21
183.65261341222879
  0
LINE
  8
_0-1_作画層１
  6
CONTINUOUS
 62
    7
 10
2.2882149901380728
 20
183.65261341222879
 11
2.3324181205378522
 21
183.63038895114667
  0
LINE
  8
_0-1_作画層１
  6
CONTINUOUS
 62
    7
 10
2.3324181205378522
 20
183.63038895114667
 11
2.3566387320735203
 21
183.6188227771419
  0
LINE
  8
_0-1_作画層１
  6
CONTINUOUS
 62
    7
 10
2.3566387320735203
 20
183.6188227771419
 11
2.3821389070722319
 21
183.60700986459861
  0
LINE
  8
_0-1_作画層１
  6
CONTINUOUS
 62
    7
 10
2.3821389070722319
 20
183.60700986459861
 11
2.4088187949634232
 21
183.59499213134487
  0
LINE
  8
_0-1_作画層１
  6
CONTINUOUS
 62
    7
 10
2.4088187949634232
 20
183.59499213134487
 11
2.4365785451764452
 21
183.58281149520857
  0
LINE
  8
_0-1_作画層１
  6
CONTINUOUS
 62
    7
 10
2.4365785451764452
 20
183.58281149520857
 11
2.4653183071407625
 21
183.57050987401777
  0
LINE
  8
_0-1_作画層１
  6
CONTINUOUS
 62
    7
 10
2.4653183071407625
 20
183.57050987401777
 11
2.4949382302857828
 21
183.55812918560056
  0
LINE
  8
_0-1_作画層１
  6
CONTINUOUS
 62
    7
 10
2.4949382302857828
 20
183.55812918560056
 11
2.5253384640408569
 21
183.5457113477847
  0
LINE
  8
_0-1_作画層１
  6
CONTINUOUS
 62
    7
 10
2.5253384640408569
 20
183.5457113477847
 11
2.556419157835478
 21
183.53329827839849
  0
LINE
  8
_0-1_作画層１
  6
CONTINUOUS
 62
    7
 10
2.556419157835478
 20
183.53329827839849
 11
2.5880804610989969
 21
183.5209318952696
  0
LINE
  8
_0-1_作画層１
  6
CONTINUOUS
 62
    7
 10
2.5880804610989969
 20
183.5209318952696
 11
2.6202225232608498
 21
183.50865411622627
  0
LINE
  8
_0-1_作画層１
  6
CONTINUOUS
 62
    7
 10
2.6202225232608498
 20
183.50865411622627
 11
2.652745493750416
 21
183.4965068590964
  0
LINE
  8
_0-1_作画層１
  6
CONTINUOUS
 62
    7
 10
2.652745493750416
 20
183.4965068590964
 11
2.6855495219971601
 21
183.48453204170801
  0
LINE
  8
_0-1_作画層１
  6
CONTINUOUS
 62
    7
 10
2.6855495219971601
 20
183.48453204170801
 11
2.7185347574304046
 21
183.47277158188905
  0
LINE
  8
_0-1_作画層１
  6
CONTINUOUS
 62
    7
 10
2.7185347574304046
 20
183.47277158188905
 11
2.7516013494796425
 21
183.46126739746757
  0
LINE
  8
_0-1_作画層１
  6
CONTINUOUS
 62
    7
 10
2.7516013494796425
 20
183.46126739746757
 11
2.7846494475742247
 21
183.45006140627149
  0
LINE
  8
_0-1_作画層１
  6
CONTINUOUS
 62
    7
 10
2.7846494475742247
 20
183.45006140627149
 11
2.8175792011436158
 21
183.43919552612886
  0
LINE
  8
_0-1_作画層１
  6
CONTINUOUS
 62
    7
 10
2.8175792011436158
 20
183.43919552612886
 11
2.8502907596171667
 21
183.42871167486771
  0
LINE
  8
_0-1_作画層１
  6
CONTINUOUS
 62
    7
 10
2.8502907596171667
 20
183.42871167486771
 11
2.882684272424342
 21
183.41865177031599
  0
LINE
  8
_0-1_作画層１
  6
CONTINUOUS
 62
    7
 10
2.882684272424342
 20
183.41865177031599
 11
2.9146598889944926
 21
183.40905773030167
  0
LINE
  8
_0-1_作画層１
  6
CONTINUOUS
 62
    7
 10
2.9146598889944926
 20
183.40905773030167
 11
2.9461177587570546
 21
183.39997147265274
  0
LINE
  8
_0-1_作画層１
  6
CONTINUOUS
 62
    7
 10
2.9461177587570546
 20
183.39997147265274
 11
2.9769580311414643
 21
183.39143491519735
  0
LINE
  8
_0-1_作画層１
  6
CONTINUOUS
 62
    7
 10
2.9769580311414643
 20
183.39143491519735
 11
3.0070808555771009
 21
183.38348997576327
  0
LINE
  8
_0-1_作画層１
  6
CONTINUOUS
 62
    7
 10
3.0070808555771009
 20
183.38348997576327
 11
3.0363863814933723
 21
183.37617857217862
  0
LINE
  8
_0-1_作画層１
  6
CONTINUOUS
 62
    7
 10
3.0363863814933723
 20
183.37617857217862
 11
3.064774758319686
 21
183.36954262227138
  0
LINE
  8
_0-1_作画層１
  6
CONTINUOUS
 62
    7
 10
3.064774758319686
 20
183.36954262227138
 11
3.09214613548545
 21
183.36362404386952
  0
LINE
  8
_0-1_作画層１
  6
CONTINUOUS
 62
    7
 10
3.09214613548545
 20
183.36362404386952
 11
3.1184006624201004
 21
183.35846475480108
  0
LINE
  8
_0-1_作画層１
  6
CONTINUOUS
 62
    7
 10
3.1184006624201004
 20
183.35846475480108
 11
3.143438488552988
 21
183.35410667289398
  0
LINE
  8
_0-1_作画層１
  6
CONTINUOUS
 62
    7
 10
3.143438488552988
 20
183.35410667289398
 11
3.1671597633136059
 21
183.35059171597632
  0
LINE
  8
_0-1_作画層１
  6
CONTINUOUS
 62
    7
 10
3.1671597633136059
 20
183.35059171597632
 11
3.2392727305715141
 21
183.34277676254951
  0
LINE
  8
_0-1_作画層１
  6
CONTINUOUS
 62
    7
 10
3.2392727305715141
 20
183.34277676254951
 11
3.2784817305295348
 21
183.33976830612406
  0
LINE
  8
_0-1_作画層１
  6
CONTINUOUS
 62
    7
 10
3.2784817305295348
 20
183.33976830612406
 11
3.3195795500735983
 21
183.33734306111359
  0
LINE
  8
_0-1_作画層１
  6
CONTINUOUS
 62
    7
 10
3.3195795500735983
 20
183.33734306111359
 11
3.3624065457287315
 21
183.33548892593532
  0
LINE
  8
_0-1_作画層１
  6
CONTINUOUS
 62
    7
 10
3.3624065457287315
 20
183.33548892593532
 11
3.4068030740199902
 21
183.33419379900658
  0
LINE
  8
_0-1_作画層１
  6
CONTINUOUS
 62
    7
 10
3.4068030740199902
 20
183.33419379900658
 11
3.4526094914722876
 21
183.33344557874443
  0
LINE
  8
_0-1_作画層１
  6
CONTINUOUS
 62
    7
 10
3.4526094914722876
 20
183.33344557874443
 11
3.4996661546107362
 21
183.33323216356646
  0
LINE
  8
_0-1_作画層１
  6
CONTINUOUS
 62
    7
 10
3.4996661546107362
 20
183.33323216356646
 11
3.5478134199603062
 21
183.33354145188963
  0
LINE
  8
_0-1_作画層１
  6
CONTINUOUS
 62
    7
 10
3.5478134199603062
 20
183.33354145188963
 11
3.5968916440460816
 21
183.33436134213142
  0
LINE
  8
_0-1_作画層１
  6
CONTINUOUS
 62
    7
 10
3.5968916440460816
 20
183.33436134213142
 11
3.6467411833929475
 21
183.3356797327088
  0
LINE
  8
_0-1_作画層１
  6
CONTINUOUS
 62
    7
 10
3.6467411833929475
 20
183.3356797327088
 11
3.6972023945260446
 21
183.33748452203935
  0
LINE
  8
_0-1_作画層１
  6
CONTINUOUS
 62
    7
 10
3.6972023945260446
 20
183.33748452203935
 11
3.7481156339703148
 21
183.3397636085401
  0
LINE
  8
_0-1_作画層１
  6
CONTINUOUS
 62
    7
 10
3.7481156339703148
 20
183.3397636085401
 11
3.7993212582508136
 21
183.34250489062842
  0
LINE
  8
_0-1_作画層１
  6
CONTINUOUS
 62
    7
 10
3.7993212582508136
 20
183.34250489062842
 11
3.8506596238925113
 21
183.34569626672152
  0
LINE
  8
_0-1_作画層１
  6
CONTINUOUS
 62
    7
 10
3.8506596238925113
 20
183.34569626672152
 11
3.9019710874204634
 21
183.34932563523662
  0
LINE
  8
_0-1_作画層１
  6
CONTINUOUS
 62
    7
 10
3.9019710874204634
 20
183.34932563523662
 11
3.9530960053596687
 21
183.35338089459103
  0
LINE
  8
_0-1_作画層１
  6
CONTINUOUS
 62
    7
 10
3.9530960053596687
 20
183.35338089459103
 11
4.0038747342351542
 21
183.35784994320204
  0
LINE
  8
_0-1_作画層１
  6
CONTINUOUS
 62
    7
 10
4.0038747342351542
 20
183.35784994320204
 11
4.054147630571947
 21
183.36272067948681
  0
LINE
  8
_0-1_作画層１
  6
CONTINUOUS
 62
    7
 10
4.054147630571947
 20
183.36272067948681
 11
4.1037550508950176
 21
183.36798100186272
  0
LINE
  8
_0-1_作画層１
  6
CONTINUOUS
 62
    7
 10
4.1037550508950176
 20
183.36798100186272
 11
4.1525373517293929
 21
183.37361880874681
  0
LINE
  8
_0-1_作画層１
  6
CONTINUOUS
 62
    7
 10
4.1525373517293929
 20
183.37361880874681
 11
4.2003348896001285
 21
183.37962199855656
  0
LINE
  8
_0-1_作画層１
  6
CONTINUOUS
 62
    7
 10
4.2003348896001285
 20
183.37962199855656
 11
4.2469880210321946
 21
183.38597846970919
  0
LINE
  8
_0-1_作画層１
  6
CONTINUOUS
 62
    7
 10
4.2469880210321946
 20
183.38597846970919
 11
4.2923371025506185
 21
183.39267612062187
  0
LINE
  8
_0-1_作画層１
  6
CONTINUOUS
 62
    7
 10
4.2923371025506185
 20
183.39267612062187
 11
4.3362224906804556
 21
183.3997028497119
  0
LINE
  8
_0-1_作画層１
  6
CONTINUOUS
 62
    7
 10
4.3362224906804556
 20
183.3997028497119
 11
4.3784845419466478
 21
183.40704655539648
  0
LINE
  8
_0-1_作画層１
  6
CONTINUOUS
 62
    7
 10
4.3784845419466478
 20
183.40704655539648
 11
4.4189636128742791
 21
183.41469513609297
  0
LINE
  8
_0-1_作画層１
  6
CONTINUOUS
 62
    7
 10
4.4189636128742791
 20
183.41469513609297
 11
4.4575000599883197
 21
183.42263649021857
  0
LINE
  8
_0-1_作画層１
  6
CONTINUOUS
 62
    7
 10
4.4575000599883197
 20
183.42263649021857
 11
4.4939342398137967
 21
183.43085851619045
  0
LINE
  8
_0-1_作画層１
  6
CONTINUOUS
 62
    7
 10
4.4939342398137967
 20
183.43085851619045
 11
4.5281065088757373
 21
183.43934911242604
  0
LINE
  8
_0-1_作画層１
  6
CONTINUOUS
 62
    7
 10
4.5281065088757373
 20
183.43934911242604
 11
4.5667564266350666
 21
183.45030378391894
  0
LINE
  8
_0-1_作画層１
  6
CONTINUOUS
 62
    7
 10
4.5667564266350666
 20
183.45030378391894
 11
4.5875758341917674
 21
183.45679640157368
  0
LINE
  8
_0-1_作画層１
  6
CONTINUOUS
 62
    7
 10
4.5875758341917674
 20
183.45679640157368
 11
4.6092794699588353
 21
183.46392243283933
  0
LINE
  8
_0-1_作画層１
  6
CONTINUOUS
 62
    7
 10
4.6092794699588353
 20
183.46392243283933
 11
4.6317832807555419
 21
183.47164929696996
  0
LINE
  8
_0-1_作画層１
  6
CONTINUOUS
 62
    7
 10
4.6317832807555419
 20
183.47164929696996
 11
4.6550032134011872
 21
183.47994441321956
  0
LINE
  8
_0-1_作画層１
  6
CONTINUOUS
 62
    7
 10
4.6550032134011872
 20
183.47994441321956
 11
4.6788552147149289
 21
183.48877520084207
  0
LINE
  8
_0-1_作画層１
  6
CONTINUOUS
 62
    7
 10
4.6788552147149289
 20
183.48877520084207
 11
4.7032552315161524
 21
183.49810907909182
  0
LINE
  8
_0-1_作画層１
  6
CONTINUOUS
 62
    7
 10
4.7032552315161524
 20
183.49810907909182
 11
4.7281192106240724
 21
183.50791346722255
  0
LINE
  8
_0-1_作画層１
  6
CONTINUOUS
 62
    7
 10
4.7281192106240724
 20
183.50791346722255
 11
4.7533630988579603
 21
183.51815578448861
  0
LINE
  8
_0-1_作画層１
  6
CONTINUOUS
 62
    7
 10
4.7533630988579603
 20
183.51815578448861
 11
4.7789028430370593
 21
183.52880345014364
  0
LINE
  8
_0-1_作画層１
  6
CONTINUOUS
 62
    7
 10
4.7789028430370593
 20
183.52880345014364
 11
4.8046543899806693
 21
183.53982388344204
  0
LINE
  8
_0-1_作画層１
  6
CONTINUOUS
 62
    7
 10
4.8046543899806693
 20
183.53982388344204
 11
4.8305336865080619
 21
183.55118450363764
  0
LINE
  8
_0-1_作画層１
  6
CONTINUOUS
 62
    7
 10
4.8305336865080619
 20
183.55118450363764
 11
4.8564566794384518
 21
183.56285272998457
  0
LINE
  8
_0-1_作画層１
  6
CONTINUOUS
 62
    7
 10
4.8564566794384518
 20
183.56285272998457
 11
4.882339315591139
 21
183.57479598173686
  0
LINE
  8
_0-1_作画層１
  6
CONTINUOUS
 62
    7
 10
4.882339315591139
 20
183.57479598173686
 11
4.9080975417853949
 21
183.5869816781485
  0
LINE
  8
_0-1_作画層１
  6
CONTINUOUS
 62
    7
 10
4.9080975417853949
 20
183.5869816781485
 11
4.9336473048404628
 21
183.59937723847355
  0
LINE
  8
_0-1_作画層１
  6
CONTINUOUS
 62
    7
 10
4.9336473048404628
 20
183.59937723847355
 11
4.9589045515756141
 21
183.61195008196609
  0
LINE
  8
_0-1_作画層１
  6
CONTINUOUS
 62
    7
 10
4.9589045515756141
 20
183.61195008196609
 11
4.9837852288101203
 21
183.62466762788009
  0
LINE
  8
_0-1_作画層１
  6
CONTINUOUS
 62
    7
 10
4.9837852288101203
 20
183.62466762788009
 11
5.0082052833632531
 21
183.6374972954697
  0
LINE
  8
_0-1_作画層１
  6
CONTINUOUS
 62
    7
 10
5.0082052833632531
 20
183.6374972954697
 11
5.0320806620542271
 21
183.65040650398876
  0
LINE
  8
_0-1_作画層１
  6
CONTINUOUS
 62
    7
 10
5.0320806620542271
 20
183.65040650398876
 11
5.0553273117023991
 21
183.66336267269151
  0
LINE
  8
_0-1_作画層１
  6
CONTINUOUS
 62
    7
 10
5.0553273117023991
 20
183.66336267269151
 11
5.0778611791269839
 21
183.67633322083196
  0
LINE
  8
_0-1_作画層１
  6
CONTINUOUS
 62
    7
 10
5.0778611791269839
 20
183.67633322083196
 11
5.0995982111472244
 21
183.68928556766406
  0
LINE
  8
_0-1_作画層１
  6
CONTINUOUS
 62
    7
 10
5.0995982111472244
 20
183.68928556766406
 11
5.1204543545824208
 21
183.70218713244188
  0
LINE
  8
_0-1_作画層１
  6
CONTINUOUS
 62
    7
 10
5.1204543545824208
 20
183.70218713244188
 11
5.1403455562518161
 21
183.71500533441946
  0
LINE
  8
_0-1_作画層１
  6
CONTINUOUS
 62
    7
 10
5.1403455562518161
 20
183.71500533441946
 11
5.1591877629746818
 21
183.72770759285086
  0
LINE
  8
_0-1_作画層１
  6
CONTINUOUS
 62
    7
 10
5.1591877629746818
 20
183.72770759285086
 11
5.1768969215702896
 21
183.74026132699009
  0
LINE
  8
_0-1_作画層１
  6
CONTINUOUS
 62
    7
 10
5.1768969215702896
 20
183.74026132699009
 11
5.1933889788579108
 21
183.75263395609122
  0
LINE
  8
_0-1_作画層１
  6
CONTINUOUS
 62
    7
 10
5.1933889788579108
 20
183.75263395609122
 11
5.2085798816568172
 21
183.76479289940829
  0
LINE
  8
_0-1_作画層１
  6
CONTINUOUS
 62
    7
 10
5.2085798816568172
 20
183.76479289940829
 11
5.2665471405571225
 21
183.81599640511871
  0
LINE
  8
_0-1_作画層１
  6
CONTINUOUS
 62
    7
 10
5.2665471405571225
 20
183.81599640511871
 11
5.2956253224632235
 21
183.84392710126795
  0
LINE
  8
_0-1_作画層１
  6
CONTINUOUS
 62
    7
 10
5.2956253224632235
 20
183.84392710126795
 11
5.3247635729883882
 21
183.87333736139217
  0
LINE
  8
_0-1_作画層１
  6
CONTINUOUS
 62
    7
 10
5.3247635729883882
 20
183.87333736139217
 11
5.3539596673689402
 21
183.90417238682573
  0
LINE
  8
_0-1_作画層１
  6
CONTINUOUS
 62
    7
 10
5.3539596673689402
 20
183.90417238682573
 11
5.3832113808412032
 21
183.93637737890282
  0
LINE
  8
_0-1_作画層１
  6
CONTINUOUS
 62
    7
 10
5.3832113808412032
 20
183.93637737890282
 11
5.4125164886415291
 21
183.96989753895761
  0
LINE
  8
_0-1_作画層１
  6
CONTINUOUS
 62
    7
 10
5.4125164886415291
 20
183.96989753895761
 11
5.44187276600627
 21
184.00467806832464
  0
LINE
  8
_0-1_作画層１
  6
CONTINUOUS
 62
    7
 10
5.44187276600627
 20
184.00467806832464
 11
5.4712779881716642
 21
184.0406641683378
  0
LINE
  8
_0-1_作画層１
  6
CONTINUOUS
 62
    7
 10
5.4712779881716642
 20
184.0406641683378
 11
5.5007299303741775
 21
184.07780104033176
  0
LINE
  8
_0-1_作画層１
  6
CONTINUOUS
 62
    7
 10
5.5007299303741775
 20
184.07780104033176
 11
5.5302263678500481
 21
184.11603388564032
  0
LINE
  8
_0-1_作画層１
  6
CONTINUOUS
 62
    7
 10
5.5302263678500481
 20
184.11603388564032
 11
5.5597650758355996
 21
184.15530790559816
  0
LINE
  8
_0-1_作画層１
  6
CONTINUOUS
 62
    7
 10
5.5597650758355996
 20
184.15530790559816
 11
5.5893438295672127
 21
184.19556830153928
  0
LINE
  8
_0-1_作画層１
  6
CONTINUOUS
 62
    7
 10
5.5893438295672127
 20
184.19556830153928
 11
5.6189604042812107
 21
184.23676027479803
  0
LINE
  8
_0-1_作画層１
  6
CONTINUOUS
 62
    7
 10
5.6189604042812107
 20
184.23676027479803
 11
5.6486125752139174
 21
184.27882902670859
  0
LINE
  8
_0-1_作画層１
  6
CONTINUOUS
 62
    7
 10
5.6486125752139174
 20
184.27882902670859
 11
5.6782981176016278
 21
184.32171975860538
  0
LINE
  8
_0-1_作画層１
  6
CONTINUOUS
 62
    7
 10
5.6782981176016278
 20
184.32171975860538
 11
5.708014806680751
 21
184.36537767182247
  0
LINE
  8
_0-1_作画層１
  6
CONTINUOUS
 62
    7
 10
5.708014806680751
 20
184.36537767182247
 11
5.7377604176875252
 21
184.40974796769424
  0
LINE
  8
_0-1_作画層１
  6
CONTINUOUS
 62
    7
 10
5.7377604176875252
 20
184.40974796769424
 11
5.7675327258583593
 21
184.45477584755494
  0
LINE
  8
_0-1_作画層１
  6
CONTINUOUS
 62
    7
 10
5.7675327258583593
 20
184.45477584755494
 11
5.7973295064295201
 21
184.50040651273875
  0
LINE
  8
_0-1_作画層１
  6
CONTINUOUS
 62
    7
 10
5.7973295064295201
 20
184.50040651273875
 11
5.8271485346373879
 21
184.54658516457994
  0
LINE
  8
_0-1_作画層１
  6
CONTINUOUS
 62
    7
 10
5.8271485346373879
 20
184.54658516457994
 11
5.8569875857182581
 21
184.59325700441286
  0
LINE
  8
_0-1_作画層１
  6
CONTINUOUS
 62
    7
 10
5.8569875857182581
 20
184.59325700441286
 11
5.8868444349085109
 21
184.64036723357174
  0
LINE
  8
_0-1_作画層１
  6
CONTINUOUS
 62
    7
 10
5.8868444349085109
 20
184.64036723357174
 11
5.9167168574444418
 21
184.6878610533908
  0
LINE
  8
_0-1_作画層１
  6
CONTINUOUS
 62
    7
 10
5.9167168574444418
 20
184.6878610533908
 11
5.9466026285623741
 21
184.73568366520431
  0
LINE
  8
_0-1_作画層１
  6
CONTINUOUS
 62
    7
 10
5.9466026285623741
 20
184.73568366520431
 11
5.97649952349866
 21
184.78378027034651
  0
LINE
  8
_0-1_作画層１
  6
CONTINUOUS
 62
    7
 10
5.97649952349866
 20
184.78378027034651
 11
6.006405317489623
 21
184.83209607015169
  0
LINE
  8
_0-1_作画層１
  6
CONTINUOUS
 62
    7
 10
6.006405317489623
 20
184.83209607015169
 11
6.0363177857715868
 21
184.88057626595406
  0
LINE
  8
_0-1_作画層１
  6
CONTINUOUS
 62
    7
 10
6.0363177857715868
 20
184.88057626595406
 11
6.066234703580875
 21
184.92916605908795
  0
LINE
  8
_0-1_作画層１
  6
CONTINUOUS
 62
    7
 10
6.066234703580875
 20
184.92916605908795
 11
6.0961538461538396
 21
184.97781065088756
  0
TEXT
  8
_0-7_注記層１
 62
    7
 10
55.247068403908813
 20
169.75
 40
2.6000000000000001
 41
1
 50
0
  1
1ch
  0
LINE
  8
_0-1_作画層１
  6
CONTINUOUS
 62
    7
 10
133.14059803881807
 20
118.75
 11
132.75
 21
118.75
  0
LINE
  8
_0-1_作画層１
  6
CONTINUOUS
 62
    7
 10
101.84059446254071
 20
117.75
 11
101.34059446254071
 21
117.75
  0
LINE
  8
_0-1_作画層１
  6
CONTINUOUS
 62
    7
 10
101.84060495295427
 20
161.75
 11
96.840594462540707
 21
161.75
  0
ARC
  8
_0-1_作画層１
  6
CONTINUOUS
 62
    7
 10
96.840594462540736
 20
158.74999999999997
 40
3.0000000000000284
 50
90.00000000000054
 51
179.99999999999943
  0
LINE
  8
_0-1_作画層１
  6
CONTINUOUS
 62
    7
 10
93.840594462540707
 20
158.75
 11
93.840594462540707
 21
148.75
  0
LINE
  8
_0-1_作画層１
  6
CONTINUOUS
 62
    7
 10
101.84060495295427
 20
145.75
 11
96.840594462540707
 21
145.75
  0
ARC
  8
_0-1_作画層１
  6
CONTINUOUS
 62
    7
 10
96.840594462540736
 20
148.75000000000003
 40
3.0000000000000284
 50
180.00000000000057
 51
269.99999999999943
  0
LINE
  8
_0-1_作画層１
  6
CONTINUOUS
 62
    7
 10
101.84061198629973
 20
191.25
 11
89.340594462540707
 21
191.25
  0
LINE
  8
_0-1_作画層１
  6
CONTINUOUS
 62
    7
 10
89.340594462540707
 20
116.25
 11
89.340594462540707
 21
191.25
  0
LINE
  8
_0-1_作画層１
  6
CONTINUOUS
 62
    7
 10
89.340594104912981
 20
116.25
 11
89.340611986299734
 21
191.25
  0
LINE
  8
_0-1_作画層１
  6
CONTINUOUS
 62
    7
 10
101.84059410491295
 20
116.25
 11
89.340594462540707
 21
116.25
  0
LINE
  8
_0-1_作画層１
  6
CONTINUOUS
 62
    7
 10
101.84059410491298
 20
116.25
 11
101.84061198629973
 21
191.25
  0
LINE
  8
_0-1_作画層１
  6
CONTINUOUS
 62
    7
 10
96.340594462540707
 20
176.25
 11
101.84061162867201
 21
176.25
  0
LINE
  8
_0-1_作画層１
  6
CONTINUOUS
 62
    7
 10
96.340594462540707
 20
172.25
 11
101.84061162867201
 21
172.25
  0
LINE
  8
_0-1_作画層１
  6
CONTINUOUS
 62
    7
 10
101.34059446254071
 20
172.25
 11
101.34059446254071
 21
176.25
  0
LINE
  8
_0-1_作画層１
  6
CONTINUOUS
 62
    7
 10
96.340594462540707
 20
131.25
 11
101.84061162867201
 21
131.25
  0
LINE
  8
_0-1_作画層１
  6
CONTINUOUS
 62
    7
 10
96.340594462540707
 20
135.25
 11
101.84061162867201
 21
135.25
  0
LINE
  8
_0-1_作画層１
  6
CONTINUOUS
 62
    7
 10
101.34059446254071
 20
135.25
 11
101.34059446254071
 21
131.25
  0
LINE
  8
_0-1_作画層１
  6
CONTINUOUS
 62
    7
 10
96.340594462540707
 20
188.75
 11
91.694164865140465
 21
188.75
  0
LINE
  8
_0-1_作画層１
  6
CONTINUOUS
 62
    7
 10
91.694164865140465
 20
188.75
 11
91.694148175846152
 21
118.75
  0
LINE
  8
_0-1_作画層１
  6
CONTINUOUS
 62
    7
 10
96.340594462540707
 20
190
 11
101.84061198629973
 21
190
  0
LINE
  8
_0-1_作画層１
  6
CONTINUOUS
 62
    7
 10
96.340594462540707
 20
117.5
 11
101.84061198629973
 21
117.5
  0
LINE
  8
_0-1_作画層１
  6
CONTINUOUS
 62
    7
 10
96.340594462540707
 20
117.5
 11
96.340594462540707
 21
190
  0
LINE
  8
_0-1_作画層１
  6
CONTINUOUS
 62
    7
 10
96.340594462540707
 20
118.75
 11
91.694148175846152
 21
118.75
  0
LINE
  8
_0-1_作画層１
  6
CONTINUOUS
 62
    7
 10
111.53355675269356
 20
123.35627505637692
 11
141.53355675269356
 21
123.35627505637692
  0
LINE
  8
_0-1_作画層１
  6
CONTINUOUS
 62
    7
 10
141.53355675269356
 20
123.35627505637692
 11
141.53355675269356
 21
183.35627505637692
  0
LINE
  8
_0-1_作画層１
  6
CONTINUOUS
 62
    7
 10
141.53355675269356
 20
183.35627505637692
 11
111.53355675269356
 21
183.35627505637692
  0
LINE
  8
_0-1_作画層１
  6
CONTINUOUS
 62
    7
 10
111.53355675269356
 20
183.35627505637692
 11
111.53355675269356
 21
123.35627505637692
  0
LINE
  8
_0-1_作画層１
  6
CONTINUOUS
 62
    7
 10
122.78355675269353
 20
132.10627505637694
 11
122.78355675269353
 21
174.60627505637694
  0
LINE
  8
_0-1_作画層１
  6
CONTINUOUS
 62
    7
 10
122.78355675269353
 20
174.60627505637694
 11
131.53355675269353
 21
174.60627505637694
  0
LINE
  8
_0-1_作画層１
  6
CONTINUOUS
 62
    7
 10
131.53355675269353
 20
174.60627505637694
 11
131.53355675269353
 21
132.10627505637694
  0
LINE
  8
_0-1_作画層１
  6
CONTINUOUS
 62
    7
 10
131.53355675269353
 20
132.10627505637694
 11
122.78355675269353
 21
132.10627505637694
  0
LINE
  8
_0-1_作画層１
  6
CONTINUOUS
 62
    7
 10
127.15855675269353
 20
136.3296246269274
 11
124.50690632324398
 21
138.98127505637694
  0
LINE
  8
_0-1_作画層１
  6
CONTINUOUS
 62
    7
 10
124.50690632324398
 20
138.98127505637694
 11
127.15855675269353
 21
141.63292548582649
  0
LINE
  8
_0-1_作画層１
  6
CONTINUOUS
 62
    7
 10
127.15855675269353
 20
141.63292548582649
 11
129.81020718214307
 21
138.98127505637694
  0
LINE
  8
_0-1_作画層１
  6
CONTINUOUS
 62
    7
 10
129.81020718214307
 20
138.98127505637694
 11
127.15855675269353
 21
136.3296246269274
  0
TEXT
  8
_0-7_注記層１
 62
    7
 10
127.48355675269352
 20
138.03127505637696
 40
1.8999999999999999
 41
1
 50
90
  1
PS
  0
TEXT
  8
_0-7_注記層１
 62
    7
 10
129.38355675269349
 20
138.50627505637695
 40
1.8999999999999999
 41
1
 50
90
  1
E
  0
TEXT
  8
_0-7_注記層１
 62
    7
 10
130.65855675269353
 20
140.60627505637694
 40
2
 41
1
 50
90
  1
JET
  0
TEXT
  8
_0-7_注記層１
 62
    7
 10
135.18355675269353
 20
132.73127505637694
 40
2.2999999999999998
 41
1
 50
90
  1
製造年月
  0
TEXT
  8
_0-7_注記層１
 62
    7
 10
125.90855675269353
 20
147.73127505637694
 40
2.5
 41
1
 50
90
  1
スナオ電気株式会社
  0
TEXT
  8
_0-7_注記層１
 62
    7
 10
130.90855675269353
 20
147.73127505637694
 40
2.5
 41
1
 50
90
  1
AC250V     10A
  0
LINE
  8
_0-1_作画層１
  6
CONTINUOUS
 62
    7
 10
-2.1425049309664814
 20
186.16740631163708
 11
-2.1431914240484673
 21
186.17717612119364
  0
LINE
  8
_0-1_作画層１
  6
CONTINUOUS
 62
    7
 10
-2.1431914240484673
 20
186.17717612119364
 11
-2.1432411926426767
 21
186.18528280175633
  0
LINE
  8
_0-1_作画層１
  6
CONTINUOUS
 62
    7
 10
-2.1432411926426767
 20
186.18528280175633
 11
-2.1430910941044488
 21
186.19535224318562
  0
LINE
  8
_0-1_作画層１
  6
CONTINUOUS
 62
    7
 10
-2.1430910941044488
 20
186.19535224318562
 11
-2.1427379670577977
 21
186.20724562823943
  0
LINE
  8
_0-1_作画層１
  6
CONTINUOUS
 62
    7
 10
-2.1427379670577977
 20
186.20724562823943
 11
-2.1421786501267377
 21
186.22082413967536
  0
LINE
  8
_0-1_作画層１
  6
CONTINUOUS
 62
    7
 10
-2.1421786501267377
 20
186.22082413967536
 11
-2.1414099819353964
 21
186.23594896025119
  0
LINE
  8
_0-1_作画層１
  6
CONTINUOUS
 62
    7
 10
-2.1414099819353964
 20
186.23594896025119
 11
-2.1404288011077597
 21
186.25248127272499
  0
LINE
  8
_0-1_作画層１
  6
CONTINUOUS
 62
    7
 10
-2.1404288011077597
 20
186.25248127272499
 11
-2.1392319462678699
 21
186.2702822598541
  0
LINE
  8
_0-1_作画層１
  6
CONTINUOUS
 62
    7
 10
-2.1392319462678699
 20
186.2702822598541
 11
-2.1378162560397698
 21
186.28921310439668
  0
LINE
  8
_0-1_作画層１
  6
CONTINUOUS
 62
    7
 10
-2.1378162560397698
 20
186.28921310439668
 11
-2.1361785690475585
 21
186.30913498911013
  0
LINE
  8
_0-1_作画層１
  6
CONTINUOUS
 62
    7
 10
-2.1361785690475585
 20
186.30913498911013
 11
-2.134315723915222
 21
186.3299090967526
  0
LINE
  8
_0-1_作画層１
  6
CONTINUOUS
 62
    7
 10
-2.134315723915222
 20
186.3299090967526
 11
-2.132224559266831
 21
186.35139661008168
  0
LINE
  8
_0-1_作画層１
  6
CONTINUOUS
 62
    7
 10
-2.132224559266831
 20
186.35139661008168
 11
-2.1299019137263997
 21
186.37345871185516
  0
LINE
  8
_0-1_作画層１
  6
CONTINUOUS
 62
    7
 10
-2.1299019137263997
 20
186.37345871185516
 11
-2.1273446259179991
 21
186.3959565848308
  0
LINE
  8
_0-1_作画層１
  6
CONTINUOUS
 62
    7
 10
-2.1273446259179991
 20
186.3959565848308
 11
-2.1245495344657002
 21
186.41875141176635
  0
LINE
  8
_0-1_作画層１
  6
CONTINUOUS
 62
    7
 10
-2.1245495344657002
 20
186.41875141176635
 11
-2.121513477993517
 21
186.44170437541968
  0
LINE
  8
_0-1_作画層１
  6
CONTINUOUS
 62
    7
 10
-2.121513477993517
 20
186.44170437541968
 11
-2.1182332951254921
 21
186.46467665854851
  0
LINE
  8
_0-1_作画層１
  6
CONTINUOUS
 62
    7
 10
-2.1182332951254921
 20
186.46467665854851
 11
-2.114705824485668
 21
186.4875294439106
  0
LINE
  8
_0-1_作画層１
  6
CONTINUOUS
 62
    7
 10
-2.114705824485668
 20
186.4875294439106
 11
-2.1109279046980873
 21
186.51012391426377
  0
LINE
  8
_0-1_作画層１
  6
CONTINUOUS
 62
    7
 10
-2.1109279046980873
 20
186.51012391426377
 11
-2.106896374386821
 21
186.5323212523657
  0
LINE
  8
_0-1_作画層１
  6
CONTINUOUS
 62
    7
 10
-2.106896374386821
 20
186.5323212523657
 11
-2.1026080721758831
 21
186.55398264097431
  0
LINE
  8
_0-1_作画層１
  6
CONTINUOUS
 62
    7
 10
-2.1026080721758831
 20
186.55398264097431
 11
-2.0980598366893446
 21
186.5749692628473
  0
LINE
  8
_0-1_作画層１
  6
CONTINUOUS
 62
    7
 10
-2.0980598366893446
 20
186.5749692628473
 11
-2.0932485065512481
 21
186.59514230074242
  0
LINE
  8
_0-1_作画層１
  6
CONTINUOUS
 62
    7
 10
-2.0932485065512481
 20
186.59514230074242
 11
-2.0881709203856076
 21
186.61436293741747
  0
LINE
  8
_0-1_作画層１
  6
CONTINUOUS
 62
    7
 10
-2.0881709203856076
 20
186.61436293741747
 11
-2.0828239168164941
 21
186.63249235563023
  0
LINE
  8
_0-1_作画層１
  6
CONTINUOUS
 62
    7
 10
-2.0828239168164941
 20
186.63249235563023
 11
-2.0772043344679787
 21
186.64939173813846
  0
LINE
  8
_0-1_作画層１
  6
CONTINUOUS
 62
    7
 10
-2.0772043344679787
 20
186.64939173813846
 11
-2.0713090119640469
 21
186.66492226769995
  0
LINE
  8
_0-1_作画層１
  6
CONTINUOUS
 62
    7
 10
-2.0713090119640469
 20
186.66492226769995
 11
-2.0651347879287698
 21
186.67894512707247
  0
LINE
  8
_0-1_作画層１
  6
CONTINUOUS
 62
    7
 10
-2.0651347879287698
 20
186.67894512707247
 11
-2.0586785009861899
 21
186.69132149901381
  0
LINE
  8
_0-1_作画層１
  6
CONTINUOUS
 62
    7
 10
-2.0586785009861899
 20
186.69132149901381
 11
-2.023829949118948
 21
186.74617799742899
  0
LINE
  8
_0-1_作画層１
  6
CONTINUOUS
 62
    7
 10
-2.023829949118948
 20
186.74617799742899
 11
-2.0032301256126459
 21
186.77487226746018
  0
LINE
  8
_0-1_作画層１
  6
CONTINUOUS
 62
    7
 10
-2.0032301256126459
 20
186.77487226746018
 11
-1.9806786440282735
 21
186.80426877400882
  0
LINE
  8
_0-1_作画層１
  6
CONTINUOUS
 62
    7
 10
-1.9806786440282735
 20
186.80426877400882
 11
-1.9562995345936542
 21
186.83426118405126
  0
LINE
  8
_0-1_作画層１
  6
CONTINUOUS
 62
    7
 10
-1.9562995345936542
 20
186.83426118405126
 11
-1.9302168275365545
 21
186.86474316456381
  0
LINE
  8
_0-1_作画層１
  6
CONTINUOUS
 62
    7
 10
-1.9302168275365545
 20
186.86474316456381
 11
-1.9025545530848262
 21
186.89560838252268
  0
LINE
  8
_0-1_作画層１
  6
CONTINUOUS
 62
    7
 10
-1.9025545530848262
 20
186.89560838252268
 11
-1.8734367414662074
 21
186.9267505049045
  0
LINE
  8
_0-1_作画層１
  6
CONTINUOUS
 62
    7
 10
-1.8734367414662074
 20
186.9267505049045
 11
-1.8429874229085499
 21
186.95806319868521
  0
LINE
  8
_0-1_作画層１
  6
CONTINUOUS
 62
    7
 10
-1.8429874229085499
 20
186.95806319868521
 11
-1.8113306276395917
 21
186.98944013084153
  0
LINE
  8
_0-1_作画層１
  6
CONTINUOUS
 62
    7
 10
-1.8113306276395917
 20
186.98944013084153
 11
-1.7785903858872132
 21
187.02077496834934
  0
LINE
  8
_0-1_作画層１
  6
CONTINUOUS
 62
    7
 10
-1.7785903858872132
 20
187.02077496834934
 11
-1.7448907278791523
 21
187.05196137818535
  0
LINE
  8
_0-1_作画層１
  6
CONTINUOUS
 62
    7
 10
-1.7448907278791523
 20
187.05196137818535
 11
-1.7103556838432326
 21
187.08289302732567
  0
LINE
  8
_0-1_作画層１
  6
CONTINUOUS
 62
    7
 10
-1.7103556838432326
 20
187.08289302732567
 11
-1.6751092840072488
 21
187.11346358274668
  0
LINE
  8
_0-1_作画層１
  6
CONTINUOUS
 62
    7
 10
-1.6751092840072488
 20
187.11346358274668
 11
-1.6392755585990244
 21
187.14356671142465
  0
LINE
  8
_0-1_作画層１
  6
CONTINUOUS
 62
    7
 10
-1.6392755585990244
 20
187.14356671142465
 11
-1.6029785378463259
 21
187.17309608033594
  0
LINE
  8
_0-1_作画層１
  6
CONTINUOUS
 62
    7
 10
-1.6029785378463259
 20
187.17309608033594
 11
-1.5663422519769483
 21
187.20194535645686
  0
LINE
  8
_0-1_作画層１
  6
CONTINUOUS
 62
    7
 10
-1.5663422519769483
 20
187.20194535645686
 11
-1.5294907312187433
 21
187.23000820676376
  0
LINE
  8
_0-1_作画層１
  6
CONTINUOUS
 62
    7
 10
-1.5294907312187433
 20
187.23000820676376
 11
-1.4925480057994491
 21
187.25717829823293
  0
LINE
  8
_0-1_作画層１
  6
CONTINUOUS
 62
    7
 10
-1.4925480057994491
 20
187.25717829823293
 11
-1.455638105946889
 21
187.28334929784072
  0
LINE
  8
_0-1_作画層１
  6
CONTINUOUS
 62
    7
 10
-1.455638105946889
 20
187.28334929784072
 11
-1.4188850618889148
 21
187.30841487256333
  0
LINE
  8
_0-1_作画層１
  6
CONTINUOUS
 62
    7
 10
-1.4188850618889148
 20
187.30841487256333
 11
-1.3824129038532647
 21
187.33226868937723
  0
LINE
  8
_0-1_作画層１
  6
CONTINUOUS
 62
    7
 10
-1.3824129038532647
 20
187.33226868937723
 11
-1.346345662067705
 21
187.35480441525874
  0
LINE
  8
_0-1_作画層１
  6
CONTINUOUS
 62
    7
 10
-1.346345662067705
 20
187.35480441525874
 11
-1.3108073667601161
 21
187.37591571718406
  0
LINE
  8
_0-1_作画層１
  6
CONTINUOUS
 62
    7
 10
-1.3108073667601161
 20
187.37591571718406
 11
-1.2759220481582645
 21
187.3954962621296
  0
LINE
  8
_0-1_作画層１
  6
CONTINUOUS
 62
    7
 10
-1.2759220481582645
 20
187.3954962621296
 11
-1.2418137364899735
 21
187.41343971707164
  0
LINE
  8
_0-1_作画層１
  6
CONTINUOUS
 62
    7
 10
-1.2418137364899735
 20
187.41343971707164
 11
-1.2086064619829813
 21
187.42963974898652
  0
LINE
  8
_0-1_作画層１
  6
CONTINUOUS
 62
    7
 10
-1.2086064619829813
 20
187.42963974898652
 11
-1.1764242548651396
 21
187.44399002485056
  0
LINE
  8
_0-1_作画層１
  6
CONTINUOUS
 62
    7
 10
-1.1764242548651396
 20
187.44399002485056
 11
-1.1453911453642718
 21
187.45638421164003
  0
LINE
  8
_0-1_作画層１
  6
CONTINUOUS
 62
    7
 10
-1.1453911453642718
 20
187.45638421164003
 11
-1.1156311637080876
 21
187.46671597633136
  0
LINE
  8
_0-1_作画層１
  6
CONTINUOUS
 62
    7
 10
-1.1156311637080876
 20
187.46671597633136
 11
-1.055286433016505
 21
187.48246810763146
  0
LINE
  8
_0-1_作画層１
  6
CONTINUOUS
 62
    7
 10
-1.055286433016505
 20
187.48246810763146
 11
-1.0221207437750479
 21
187.48880880631995
  0
LINE
  8
_0-1_作画層１
  6
CONTINUOUS
 62
    7
 10
-1.0221207437750479
 20
187.48880880631995
 11
-0.9871604688082413
 21
187.4941646551998
  0
LINE
  8
_0-1_作画層１
  6
CONTINUOUS
 62
    7
 10
-0.9871604688082413
 20
187.4941646551998
 11
-0.9505563307698992
 21
187.49856470039524
  0
LINE
  8
_0-1_作画層１
  6
CONTINUOUS
 62
    7
 10
-0.9505563307698992
 20
187.49856470039524
 11
-0.9124590523138635
 21
187.50203798803059
  0
LINE
  8
_0-1_作画層１
  6
CONTINUOUS
 62
    7
 10
-0.9124590523138635
 20
187.50203798803059
 11
-0.8730193560939483
 21
187.50461356422994
  0
LINE
  8
_0-1_作画層１
  6
CONTINUOUS
 62
    7
 10
-0.8730193560939483
 20
187.50461356422994
 11
-0.8323879647638818
 21
187.50632047511789
  0
LINE
  8
_0-1_作画層１
  6
CONTINUOUS
 62
    7
 10
-0.8323879647638818
 20
187.50632047511789
 11
-0.7907156009776485
 21
187.50718776681842
  0
LINE
  8
_0-1_作画層１
  6
CONTINUOUS
 62
    7
 10
-0.7907156009776485
 20
187.50718776681842
 11
-0.7481529873888916
 21
187.50724448545606
  0
LINE
  8
_0-1_作画層１
  6
CONTINUOUS
 62
    7
 10
-0.7481529873888916
 20
187.50724448545606
 11
-0.7048508466515954
 21
187.50651967715476
  0
LINE
  8
_0-1_作画層１
  6
CONTINUOUS
 62
    7
 10
-0.7048508466515954
 20
187.50651967715476
 11
-0.66095990141946
 21
187.5050423880391
  0
LINE
  8
_0-1_作画層１
  6
CONTINUOUS
 62
    7
 10
-0.66095990141946
 20
187.5050423880391
 11
-0.6166308743463559
 21
187.50284166423322
  0
LINE
  8
_0-1_作画層１
  6
CONTINUOUS
 62
    7
 10
-0.6166308743463559
 20
187.50284166423322
 11
-0.5720144880860402
 21
187.4999465518614
  0
LINE
  8
_0-1_作画層１
  6
CONTINUOUS
 62
    7
 10
-0.5720144880860402
 20
187.4999465518614
 11
-0.5272614652924403
 21
187.49638609704789
  0
LINE
  8
_0-1_作画層１
  6
CONTINUOUS
 62
    7
 10
-0.5272614652924403
 20
187.49638609704789
 11
-0.4825225286193131
 21
187.49218934591701
  0
LINE
  8
_0-1_作画層１
  6
CONTINUOUS
 62
    7
 10
-0.4825225286193131
 20
187.49218934591701
 11
-0.4379484007204723
 21
187.48738534459301
  0
LINE
  8
_0-1_作画層１
  6
CONTINUOUS
 62
    7
 10
-0.4379484007204723
 20
187.48738534459301
 11
-0.3936898042497318
 21
187.48200313920015
  0
LINE
  8
_0-1_作画層１
  6
CONTINUOUS
 62
    7
 10
-0.3936898042497318
 20
187.48200313920015
 11
-0.3498974618609622
 21
187.47607177586269
  0
LINE
  8
_0-1_作画層１
  6
CONTINUOUS
 62
    7
 10
-0.3498974618609622
 20
187.47607177586269
 11
-0.3067220962079204
 21
187.469620300705
  0
LINE
  8
_0-1_作画層１
  6
CONTINUOUS
 62
    7
 10
-0.3067220962079204
 20
187.469620300705
 11
-0.264314429944477
 21
187.46267775985118
  0
LINE
  8
_0-1_作画層１
  6
CONTINUOUS
 62
    7
 10
-0.264314429944477
 20
187.46267775985118
 11
-0.222825185724389
 21
187.45527319942568
  0
LINE
  8
_0-1_作画層１
  6
CONTINUOUS
 62
    7
 10
-0.222825185724389
 20
187.45527319942568
 11
-0.1824050862015269
 21
187.44743566555272
  0
LINE
  8
_0-1_作画層１
  6
CONTINUOUS
 62
    7
 10
-0.1824050862015269
 20
187.44743566555272
 11
-0.1432048540297046
 21
187.43919420435648
  0
LINE
  8
_0-1_作画層１
  6
CONTINUOUS
 62
    7
 10
-0.1432048540297046
 20
187.43919420435648
 11
-0.1053752118627073
 21
187.43057786196138
  0
LINE
  8
_0-1_作画層１
  6
CONTINUOUS
 62
    7
 10
-0.1053752118627073
 20
187.43057786196138
 11
-0.0690668823544058
 21
187.42161568449154
  0
LINE
  8
_0-1_作画層１
  6
CONTINUOUS
 62
    7
 10
-0.0690668823544058
 20
187.42161568449154
 11
-0.0344305881585569
 21
187.41233671807134
  0
LINE
  8
_0-1_作画層１
  6
CONTINUOUS
 62
    7
 10
-0.0344305881585569
 20
187.41233671807134
 11
-0.0016170519290596
 21
187.402770008825
  0
LINE
  8
_0-1_作画層１
  6
CONTINUOUS
 62
    7
 10
-0.0016170519290596
 20
187.402770008825
 11
0.0292230036803289
 21
187.39294460287684
  0
LINE
  8
_0-1_作画層１
  6
CONTINUOUS
 62
    7
 10
0.0292230036803289
 20
187.39294460287684
 11
0.0579388560157667
 21
187.38288954635109
  0
LINE
  8
_0-1_作画層１
  6
CONTINUOUS
 62
    7
 10
0.0579388560157667
 20
187.38288954635109
 11
0.1536898267574997
 21
187.34376482200884
  0
LINE
  8
_0-1_作画層１
  6
CONTINUOUS
 62
    7
 10
0.1536898267574997
 20
187.34376482200884
 11
0.2025325046520265
 21
187.32103489988069
  0
LINE
  8
_0-1_作画層１
  6
CONTINUOUS
 62
    7
 10
0.2025325046520265
 20
187.32103489988069
 11
0.2519896342674883
 21
187.2962926455445
  0
LINE
  8
_0-1_作画層１
  6
CONTINUOUS
 62
    7
 10
0.2519896342674883
 20
187.2962926455445
 11
0.3020384581326993
 21
187.26961258982286
  0
LINE
  8
_0-1_作画層１
  6
CONTINUOUS
 62
    7
 10
0.3020384581326993
 20
187.26961258982286
 11
0.3526562187765591
 21
187.24106926353824
  0
LINE
  8
_0-1_作画層１
  6
CONTINUOUS
 62
    7
 10
0.3526562187765591
 20
187.24106926353824
 11
0.403820158727882
 21
187.21073719751308
  0
LINE
  8
_0-1_作画層１
  6
CONTINUOUS
 62
    7
 10
0.403820158727882
 20
187.21073719751308
 11
0.4555075205155674
 21
187.17869092257018
  0
LINE
  8
_0-1_作画層１
  6
CONTINUOUS
 62
    7
 10
0.4555075205155674
 20
187.17869092257018
 11
0.5076955466684012
 21
187.14500496953173
  0
LINE
  8
_0-1_作画層１
  6
CONTINUOUS
 62
    7
 10
0.5076955466684012
 20
187.14500496953173
 11
0.5603614797153682
 21
187.10975386922055
  0
LINE
  8
_0-1_作画層１
  6
CONTINUOUS
 62
    7
 10
0.5603614797153682
 20
187.10975386922055
 11
0.6134825621851405
 21
187.0730121524588
  0
LINE
  8
_0-1_作画層１
  6
CONTINUOUS
 62
    7
 10
0.6134825621851405
 20
187.0730121524588
 11
0.6670360366067313
 21
187.03485435006934
  0
LINE
  8
_0-1_作画層１
  6
CONTINUOUS
 62
    7
 10
0.6670360366067313
 20
187.03485435006934
 11
0.7209991455089266
 21
186.9953549928745
  0
LINE
  8
_0-1_作画層１
  6
CONTINUOUS
 62
    7
 10
0.7209991455089266
 20
186.9953549928745
 11
0.7753491314205973
 21
186.95458861169686
  0
LINE
  8
_0-1_作画層１
  6
CONTINUOUS
 62
    7
 10
0.7753491314205973
 20
186.95458861169686
 11
0.8300632368705578
 21
186.91262973735891
  0
LINE
  8
_0-1_作画層１
  6
CONTINUOUS
 62
    7
 10
0.8300632368705578
 20
186.91262973735891
 11
0.8851187043877075
 21
186.8695529006832
  0
LINE
  8
_0-1_作画層１
  6
CONTINUOUS
 62
    7
 10
0.8851187043877075
 20
186.8695529006832
 11
0.9404927765008892
 21
186.82543263249221
  0
LINE
  8
_0-1_作画層１
  6
CONTINUOUS
 62
    7
 10
0.9404927765008892
 20
186.82543263249221
 11
0.9961626957389739
 21
186.78034346360849
  0
LINE
  8
_0-1_作画層１
  6
CONTINUOUS
 62
    7
 10
0.9961626957389739
 20
186.78034346360849
 11
1.0521057046308044
 21
186.73435992485457
  0
LINE
  8
_0-1_作画層１
  6
CONTINUOUS
 62
    7
 10
1.0521057046308044
 20
186.73435992485457
 11
1.1082990457052233
 21
186.68755654705296
  0
LINE
  8
_0-1_作画層１
  6
CONTINUOUS
 62
    7
 10
1.1082990457052233
 20
186.68755654705296
 11
1.1647199614910733
 21
186.64000786102608
  0
LINE
  8
_0-1_作画層１
  6
CONTINUOUS
 62
    7
 10
1.1647199614910733
 20
186.64000786102608
 11
1.2213456945172538
 21
186.59178839759656
  0
LINE
  8
_0-1_作画層１
  6
CONTINUOUS
 62
    7
 10
1.2213456945172538
 20
186.59178839759656
 11
1.2781534873125793
 21
186.54297268758697
  0
LINE
  8
_0-1_作画層１
  6
CONTINUOUS
 62
    7
 10
1.2781534873125793
 20
186.54297268758697
 11
1.3351205824059207
 21
186.49363526181969
  0
LINE
  8
_0-1_作画層１
  6
CONTINUOUS
 62
    7
 10
1.3351205824059207
 20
186.49363526181969
 11
1.3922242223261492
 21
186.44385065111729
  0
LINE
  8
_0-1_作画層１
  6
CONTINUOUS
 62
    7
 10
1.3922242223261492
 20
186.44385065111729
 11
1.4494416496021074
 21
186.39369338630235
  0
LINE
  8
_0-1_作画層１
  6
CONTINUOUS
 62
    7
 10
1.4494416496021074
 20
186.39369338630235
 11
1.5067501067626381
 21
186.34323799819728
  0
LINE
  8
_0-1_作画層１
  6
CONTINUOUS
 62
    7
 10
1.5067501067626381
 20
186.34323799819728
 11
1.5641268363365839
 21
186.29255901762468
  0
LINE
  8
_0-1_作画層１
  6
CONTINUOUS
 62
    7
 10
1.5641268363365839
 20
186.29255901762468
 11
1.6215490808528443
 21
186.24173097540699
  0
LINE
  8
_0-1_作画層１
  6
CONTINUOUS
 62
    7
 10
1.6215490808528443
 20
186.24173097540699
 11
1.6789940828402337
 21
186.19082840236686
  0
LINE
  8
_0-1_作画層１
  6
CENTER
 62
    7
 10
-16.25
 20
153.75
 11
73.75
 21
153.75
  0
INSERT
  2
-000-_D0
  8
_0-9_寸法線層１
 10
-55.25
 20
-38.75
 41
1
 42
1
 50
0
  0
LINE
  8
_0-1_作画層１
  6
CENTER
 62
    7
 10
84.75
 20
153.75
 11
162.25
 21
153.75
  0
LINE
  8
_0-1_作画層１
  6
CONTINUOUS
 62
    7
 10
64.75
 20
116.25
 11
64.75
 21
191.25
  0
LINE
  8
_0-1_作画層１
  6
CONTINUOUS
 62
    7
 10
64.75
 20
116.25
 11
-10.25
 21
116.25
  0
LINE
  8
_0-1_作画層１
  6
CENTER
 62
    7
 10
27.25
 20
198.75
 11
27.25
 21
108.75
  0
LINE
  8
_0-1_作画層１
  6
CONTINUOUS
 62
    7
 10
63.25
 20
117.75
 11
-8.75
 21
117.75
  0
LINE
  8
_0-1_作画層１
  6
CONTINUOUS
 62
    7
 10
63.25
 20
189.75
 11
63.25
 21
117.75
  0
LINE
  8
_0-1_作画層１
  6
CONTINUOUS
 62
    7
 10
-10.25
 20
116.25
 11
-10.25
 21
191.25
  0
LINE
  8
_0-1_作画層１
  6
CONTINUOUS
 62
    7
 10
64.75
 20
191.25
 11
-10.25
 21
191.25
  0
INSERT
  2
-001-_D1
  8
_0-9_寸法線層１
 10
-55.25
 20
-38.75
 41
1
 42
1
 50
0
  0
INSERT
  2
-002-_D2
  8
_0-9_寸法線層１
 10
-55.25
 20
-38.75
 41
1
 42
1
 50
0
  0
LINE
  8
_0-1_作画層１
  6
CONTINUOUS
 62
    7
 10
-8.75
 20
189.75
 11
63.25
 21
189.75
  0
LINE
  8
_0-1_作画層１
  6
CONTINUOUS
 62
    7
 10
-8.75
 20
189.75
 11
-8.75
 21
117.75
  0
INSERT
  2
-003-_D3
  8
_0-9_寸法線層１
 10
-55.25
 20
-38.75
 41
1
 42
1
 50
0
  0
INSERT
  2
-004-_D4
  8
_0-9_寸法線層１
 10
-55.25
 20
-38.75
 41
1
 42
1
 50
0
  0
TEXT
  8
_0-7_注記層１
 62
    7
 10
4.6500000000000057
 20
132.44999999999999
 40
2.6000000000000001
 41
1
 50
0
  1
項目
  0
TEXT
  8
_0-7_注記層１
 62
    7
 10
37.150000000000006
 20
132.44999999999999
 40
2.6000000000000001
 41
1
 50
0
  1
表示
  0
TEXT
  8
_0-7_注記層１
 62
    7
 10
44.650000000000006
 20
132.44999999999999
 40
2.6000000000000001
 41
1
 50
0
  1
登録
  0
LINE
  8
_0-1_作画層１
  6
CONTINUOUS
 62
    7
 10
14.125
 20
135
 11
14.125
 21
132.5
  0
LINE
  8
_0-1_作画層１
  6
CONTINUOUS
 62
    7
 10
14.125
 20
132.5
 11
16.625
 21
133.75
  0
LINE
  8
_0-1_作画層１
  6
CONTINUOUS
 62
    7
 10
16.625
 20
133.75
 11
14.125
 21
135
  0
LINE
  8
_0-1_作画層１
  6
CONTINUOUS
 62
    7
 10
21.749999999999986
 20
132.5
 11
24.249999999999986
 21
132.5
  0
LINE
  8
_0-1_作画層１
  6
CONTINUOUS
 62
    7
 10
24.249999999999986
 20
132.5
 11
22.999999999999986
 21
135
  0
LINE
  8
_0-1_作画層１
  6
CONTINUOUS
 62
    7
 10
22.999999999999986
 20
135
 11
21.749999999999986
 21
132.5
  0
LINE
  8
_0-1_作画層１
  6
CONTINUOUS
 62
    7
 10
23.0201010126776
 20
134.9597979746448
 11
22.993299662440791
 21
134.98659932488161
  0
LINE
  8
_0-1_作画層１
  6
CONTINUOUS
 62
    7
 10
22.946159210361685
 20
134.89231842072343
 11
23.161522368914916
 21
134.67695526217017
  0
LINE
  8
_0-1_作画層１
  6
CONTINUOUS
 62
    7
 10
23.302943725152204
 20
134.39411254969559
 11
22.899018758282594
 21
134.79803751656522
  0
LINE
  8
_0-1_作画層１
  6
CONTINUOUS
 62
    7
 10
23.44436508138952
 20
134.11126983722096
 11
22.851878306203474
 21
134.70375661240701
  0
LINE
  8
_0-1_作画層１
  6
CONTINUOUS
 62
    7
 10
23.585786437626808
 20
133.82842712474638
 11
22.804737854124383
 21
134.60947570824879
  0
LINE
  8
_0-1_作画層１
  6
CONTINUOUS
 62
    7
 10
23.727207793864125
 20
133.54558441227175
 11
22.757597402045278
 21
134.51519480409058
  0
LINE
  8
_0-1_作画層１
  6
CONTINUOUS
 62
    7
 10
22.710456949966201
 20
134.4209138999324
 11
23.868629150101384
 21
133.26274169979723
  0
LINE
  8
_0-1_作画層１
  6
CONTINUOUS
 62
    7
 10
24.0100505063387
 20
132.9798989873226
 11
22.663316497887095
 21
134.32663299577422
  0
LINE
  8
_0-1_作画層１
  6
CONTINUOUS
 62
    7
 10
24.151471862576017
 20
132.69705627484797
 11
22.61617604580799
 21
134.23235209161601
  0
LINE
  8
_0-1_作画層１
  6
CONTINUOUS
 62
    7
 10
22.569035593728898
 20
134.1380711874578
 11
24.207106781186695
 21
132.5
  0
LINE
  8
_0-1_作画層１
  6
CONTINUOUS
 62
    7
 10
24.065685424949379
 20
132.5
 11
22.521895141649779
 21
134.04379028329959
  0
LINE
  8
_0-1_作画層１
  6
CONTINUOUS
 62
    7
 10
23.924264068712048
 20
132.5
 11
22.474754689570673
 21
133.94950937914138
  0
LINE
  8
_0-1_作画層１
  6
CONTINUOUS
 62
    7
 10
23.782842712474775
 20
132.5
 11
22.427614237491582
 21
133.85522847498319
  0
LINE
  8
_0-1_作画層１
  6
CONTINUOUS
 62
    7
 10
22.380473785412491
 20
133.76094757082501
 11
23.641421356237501
 21
132.5
  0
LINE
  8
_0-1_作画層１
  6
CONTINUOUS
 62
    7
 10
23.500000000000171
 20
132.5
 11
22.333333333333385
 21
133.6666666666668
  0
LINE
  8
_0-1_作画層１
  6
CONTINUOUS
 62
    7
 10
22.28619288125428
 20
133.57238576250859
 11
23.358578643762868
 21
132.5
  0
LINE
  8
_0-1_作画層１
  6
CONTINUOUS
 62
    7
 10
23.217157287525566
 20
132.5
 11
22.239052429175175
 21
133.47810485835038
  0
LINE
  8
_0-1_作画層１
  6
CONTINUOUS
 62
    7
 10
22.191911977096083
 20
133.38382395419222
 11
23.075735931288293
 21
132.5
  0
LINE
  8
_0-1_作画層１
  6
CONTINUOUS
 62
    7
 10
22.934314575050962
 20
132.5
 11
22.144771525016978
 21
133.28954305003398
  0
LINE
  8
_0-1_作画層１
  6
CONTINUOUS
 62
    7
 10
22.792893218813674
 20
132.5
 11
22.097631072937887
 21
133.1952621458758
  0
LINE
  8
_0-1_作画層１
  6
CONTINUOUS
 62
    7
 10
22.651471862576344
 20
132.5
 11
22.050490620858781
 21
133.10098124171759
  0
LINE
  8
_0-1_作画層１
  6
CONTINUOUS
 62
    7
 10
22.510050506339056
 20
132.5
 11
22.003350168779676
 21
133.00670033755938
  0
LINE
  8
_0-1_作画層１
  6
CONTINUOUS
 62
    7
 10
22.368629150101754
 20
132.5
 11
21.95620971670057
 21
132.91241943340117
  0
LINE
  8
_0-1_作画層１
  6
CONTINUOUS
 62
    7
 10
22.227207793864466
 20
132.5
 11
21.909069264621479
 21
132.81813852924299
  0
LINE
  8
_0-1_作画層１
  6
CONTINUOUS
 62
    7
 10
22.085786437627135
 20
132.5
 11
21.861928812542374
 21
132.72385762508478
  0
LINE
  8
_0-1_作画層１
  6
CONTINUOUS
 62
    7
 10
21.814788360463268
 20
132.62957672092659
 11
21.944365081389847
 21
132.5
  0
LINE
  8
_0-1_作画層１
  6
CONTINUOUS
 62
    7
 10
21.767647908384163
 20
132.53529581676838
 11
21.802943725152531
 21
132.5
  0
LINE
  8
_0-1_作画層１
  6
CONTINUOUS
 62
    7
 10
29.874999999999986
 20
135
 11
32.374999999999986
 21
135
  0
LINE
  8
_0-1_作画層１
  6
CONTINUOUS
 62
    7
 10
32.374999999999986
 20
135
 11
31.124999999999986
 21
132.5
  0
LINE
  8
_0-1_作画層１
  6
CONTINUOUS
 62
    7
 10
31.124999999999986
 20
132.5
 11
29.874999999999986
 21
135
  0
LINE
  8
_0-1_作画層１
  6
CONTINUOUS
 62
    7
 10
31.1451010126776
 20
132.5402020253552
 11
31.118299662440791
 21
132.51340067511839
  0
LINE
  8
_0-1_作画層１
  6
CONTINUOUS
 62
    7
 10
31.071159210361685
 20
132.60768157927657
 11
31.286522368914916
 21
132.82304473782983
  0
LINE
  8
_0-1_作画層１
  6
CONTINUOUS
 62
    7
 10
31.427943725152204
 20
133.10588745030441
 11
31.024018758282594
 21
132.70196248343478
  0
LINE
  8
_0-1_作画層１
  6
CONTINUOUS
 62
    7
 10
31.56936508138952
 20
133.38873016277904
 11
30.976878306203474
 21
132.79624338759299
  0
LINE
  8
_0-1_作画層１
  6
CONTINUOUS
 62
    7
 10
31.710786437626808
 20
133.67157287525362
 11
30.929737854124383
 21
132.89052429175121
  0
LINE
  8
_0-1_作画層１
  6
CONTINUOUS
 62
    7
 10
31.852207793864125
 20
133.95441558772825
 11
30.882597402045278
 21
132.98480519590942
  0
LINE
  8
_0-1_作画層１
  6
CONTINUOUS
 62
    7
 10
30.835456949966201
 20
133.0790861000676
 11
31.993629150101384
 21
134.23725830020277
  0
LINE
  8
_0-1_作画層１
  6
CONTINUOUS
 62
    7
 10
32.1350505063387
 20
134.5201010126774
 11
30.788316497887095
 21
133.17336700422578
  0
LINE
  8
_0-1_作画層１
  6
CONTINUOUS
 62
    7
 10
32.276471862576017
 20
134.80294372515203
 11
30.74117604580799
 21
133.26764790838399
  0
LINE
  8
_0-1_作画層１
  6
CONTINUOUS
 62
    7
 10
30.694035593728898
 20
133.3619288125422
 11
32.332106781186695
 21
135
  0
LINE
  8
_0-1_作画層１
  6
CONTINUOUS
 62
    7
 10
32.190685424949379
 20
135
 11
30.646895141649779
 21
133.45620971670041
  0
LINE
  8
_0-1_作画層１
  6
CONTINUOUS
 62
    7
 10
32.049264068712048
 20
135
 11
30.599754689570673
 21
133.55049062085862
  0
LINE
  8
_0-1_作画層１
  6
CONTINUOUS
 62
    7
 10
31.907842712474775
 20
135
 11
30.552614237491582
 21
133.64477152501681
  0
LINE
  8
_0-1_作画層１
  6
CONTINUOUS
 62
    7
 10
30.505473785412491
 20
133.73905242917499
 11
31.766421356237501
 21
135
  0
LINE
  8
_0-1_作画層１
  6
CONTINUOUS
 62
    7
 10
31.625000000000171
 20
135
 11
30.458333333333385
 21
133.8333333333332
  0
LINE
  8
_0-1_作画層１
  6
CONTINUOUS
 62
    7
 10
30.41119288125428
 20
133.92761423749141
 11
31.483578643762868
 21
135
  0
LINE
  8
_0-1_作画層１
  6
CONTINUOUS
 62
    7
 10
31.342157287525566
 20
135
 11
30.364052429175175
 21
134.02189514164962
  0
LINE
  8
_0-1_作画層１
  6
CONTINUOUS
 62
    7
 10
30.316911977096083
 20
134.11617604580778
 11
31.200735931288293
 21
135
  0
LINE
  8
_0-1_作画層１
  6
CONTINUOUS
 62
    7
 10
31.059314575050962
 20
135
 11
30.269771525016978
 21
134.21045694996602
  0
LINE
  8
_0-1_作画層１
  6
CONTINUOUS
 62
    7
 10
30.917893218813674
 20
135
 11
30.222631072937887
 21
134.3047378541242
  0
LINE
  8
_0-1_作画層１
  6
CONTINUOUS
 62
    7
 10
30.776471862576344
 20
135
 11
30.175490620858781
 21
134.39901875828241
  0
LINE
  8
_0-1_作画層１
  6
CONTINUOUS
 62
    7
 10
30.635050506339056
 20
135
 11
30.128350168779676
 21
134.49329966244062
  0
LINE
  8
_0-1_作画層１
  6
CONTINUOUS
 62
    7
 10
30.493629150101754
 20
135
 11
30.08120971670057
 21
134.58758056659883
  0
LINE
  8
_0-1_作画層１
  6
CONTINUOUS
 62
    7
 10
30.352207793864466
 20
135
 11
30.034069264621479
 21
134.68186147075701
  0
LINE
  8
_0-1_作画層１
  6
CONTINUOUS
 62
    7
 10
30.210786437627135
 20
135
 11
29.986928812542374
 21
134.77614237491522
  0
LINE
  8
_0-1_作画層１
  6
CONTINUOUS
 62
    7
 10
29.939788360463268
 20
134.87042327907341
 11
30.069365081389847
 21
135
  0
LINE
  8
_0-1_作画層１
  6
CONTINUOUS
 62
    7
 10
29.892647908384163
 20
134.96470418323162
 11
29.927943725152531
 21
135
  0
TEXT
  8
_0-7_注記層１
 62
    7
 10
7.1999999999999886
 20
126.19999999999999
 40
2.6000000000000001
 41
1
 50
0
  1
入
  0
TEXT
  8
_0-7_注記層１
 62
    7
 10
20.324999999999989
 20
126.19999999999999
 40
2.6000000000000001
 41
1
 50
0
  1
切
  0
TEXT
  8
_0-7_注記層１
 62
    7
 10
12.150000000000006
 20
123.07499999999999
 40
2.6000000000000001
 41
1
 50
0
  1
自動
  0
TEXT
  8
_0-7_注記層１
 62
    7
 10
10.849999999999994
 20
119.94999999999999
 40
2.6000000000000001
 41
1
 50
0
  1
出力１
  0
LINE
  8
_0-1_作画層１
  6
CONTINUOUS
 62
    7
 10
151.34061443008923
 20
120
 11
151.34059833684026
 21
187.50000381469727
  0
LINE
  8
_0-1_作画層１
  6
CONTINUOUS
 62
    7
 10
151.34059833684026
 20
187.50000377198387
 11
101.84059446254071
 21
187.50000377198387
  0
LINE
  8
_0-1_作画層１
  6
CONTINUOUS
 62
    7
 10
151.34061443008923
 20
119.9999999572866
 11
101.84059446254071
 21
119.9999999572866
  0
INSERT
  2
-005-_D5
  8
_0-9_寸法線層１
 10
-55.25
 20
-38.75
 41
1
 42
1
 50
0
  0
TEXT
  8
_0-7_注記層１
 62
    7
 10
135.18355675269353
 20
167.73127505637694
 40
2.2999999999999998
 41
1
 50
90
  1
盤内用
  0
LINE
  8
_0-1_作画層１
  6
CENTER
 62
    7
 10
27.25
 20
6.1594055374592926
 11
27.25
 21
96.25
  0
LINE
  8
_0-1_作画層１
  6
CONTINUOUS
 62
    7
 10
7.25
 20
62.659388848165037
 11
7.25
 21
42.659388848165037
  0
LINE
  8
_0-1_作画層１
  6
CONTINUOUS
 62
    7
 10
-5.0000000427133955
 20
74.159405537459293
 11
-5.0000000427133955
 21
25.159385569910796
  0
LINE
  8
_0-1_作画層１
  6
CONTINUOUS
 62
    7
 10
-10.25
 20
74.159406610342501
 11
-10.25
 21
86.659406252714746
  0
LINE
  8
_0-1_作画層１
  6
CONTINUOUS
 62
    7
 10
-9
 20
79.659406252714746
 11
-9
 21
74.159388728955719
  0
LINE
  8
_0-1_作画層１
  6
CONTINUOUS
 62
    7
 10
-7.75
 20
79.659406252714746
 11
-7.75
 21
84.305852539409301
  0
LINE
  8
_0-1_作画層１
  6
CONTINUOUS
 62
    7
 10
64.750000000000014
 20
74.159406610342486
 11
64.750000000000014
 21
86.659406252714732
  0
LINE
  8
_0-1_作画層１
  6
CONTINUOUS
 62
    7
 10
63.500000000000014
 20
79.659406252714732
 11
63.500000000000014
 21
74.159388728955705
  0
LINE
  8
_0-1_作画層１
  6
CONTINUOUS
 62
    7
 10
62.250000000000014
 20
79.659406252714732
 11
62.250000000000014
 21
84.305852539409287
  0
LINE
  8
_0-1_作画層１
  6
CONTINUOUS
 62
    7
 10
63.500000000000014
 20
79.659406252714746
 11
-9
 21
79.659406252714746
  0
LINE
  8
_0-1_作画層１
  6
CONTINUOUS
 62
    7
 10
64.750000000000014
 20
74.159388371328006
 11
-10.25
 21
74.159406252714788
  0
LINE
  8
_0-1_作画層１
  6
CONTINUOUS
 62
    7
 10
62.250000000000014
 20
84.305835850114988
 11
-7.75
 21
84.305852539409301
  0
LINE
  8
_0-1_作画層１
  6
CONTINUOUS
 62
    7
 10
64.750000000000014
 20
86.659405537459293
 11
-10.25
 21
86.659405537459293
  0
LINE
  8
_0-1_作画層１
  6
CONTINUOUS
 62
    7
 10
64.750000000000014
 20
86.659388371328006
 11
-10.25
 21
86.65940625271476
  0
LINE
  8
_0-1_作画層１
  6
CONTINUOUS
 62
    7
 10
1.2418973988463904
 20
25.15939221985488
 11
3.3918973988463677
 21
25.15939221985488
  0
LINE
  8
_0-1_作画層１
  6
CONTINUOUS
 62
    7
 10
-3.7581026011536096
 20
42.659385866002097
 11
-3.7581026011536096
 21
25.159384828881656
  0
LINE
  8
_0-1_作画層１
  6
CONTINUOUS
 62
    7
 10
49.391897398846382
 20
25.159399610828046
 11
47.541897398846359
 21
25.159399610828046
  0
LINE
  8
_0-1_作画層１
  6
CONTINUOUS
 62
    7
 10
24.104175505355258
 20
34.159399610828075
 11
30.354175505355258
 21
34.159399610828046
  0
ARC
  8
_0-1_作画層１
  6
CONTINUOUS
 62
    7
 10
25.604175505355229
 20
32.181399610828038
 40
1.4999999999999716
 50
179.99999999999892
 51
270.00000000000114
  0
LINE
  8
_0-1_作画層１
  6
CONTINUOUS
 62
    7
 10
25.604175505355258
 20
30.681399610828066
 11
28.854175505355258
 21
30.681399610828038
  0
ARC
  8
_0-1_作画層１
  6
CONTINUOUS
 62
    7
 10
28.854175505355286
 20
32.181399610828009
 40
1.4999999999999716
 50
269.99999999999886
 51
0.0000000000010941
  0
LINE
  8
_0-1_作画層１
  6
CONTINUOUS
 62
    7
 10
24.104175505355258
 20
32.181399610828066
 11
24.104175505355258
 21
32.681399610828066
  0
ARC
  8
_0-1_作画層１
  6
CONTINUOUS
 62
    7
 10
24.604175505355244
 20
32.68139961082808
 40
0.4999999999999856
 50
89.99999999999838
 51
180.00000000000162
  0
LINE
  8
_0-1_作画層１
  6
CONTINUOUS
 62
    7
 10
24.604175505355258
 20
33.181399610828066
 11
29.854175505355258
 21
33.181399610828038
  0
LINE
  8
_0-1_作画層１
  6
CONTINUOUS
 62
    7
 10
30.354175505355258
 20
32.181399610828038
 11
30.354175505355258
 21
32.681399610828038
  0
ARC
  8
_0-1_作画層１
  6
CONTINUOUS
 62
    7
 10
29.854175505355272
 20
32.681399610828052
 40
0.4999999999999856
 50
359.99999999999835
 51
90.000000000001663
  0
LINE
  8
_0-1_作画層１
  6
CONTINUOUS
 62
    7
 10
23.629175505355263
 20
33.533799610828083
 11
24.298540181575774
 21
33.533799610828083
  0
ARC
  8
_0-1_作画層１
  6
CONTINUOUS
 62
    7
 10
24.298540181575774
 20
33.033799610828169
 40
0.4999999999999146
 50
63.412951468158951
 51
90
  0
LINE
  8
_0-1_作画層１
  6
CONTINUOUS
 62
    7
 10
23.629175505355263
 20
34.159399610828075
 11
24.647962784588643
 21
34.159399610828075
  0
ARC
  8
_0-1_作画層１
  6
CONTINUOUS
 62
    7
 10
24.647962784588799
 20
33.659399610829283
 40
0.499999999998792
 50
71.5485515769697
 51
90.00000000001792
  0
LINE
  8
_0-1_作画層１
  6
CONTINUOUS
 62
    7
 10
24.80621325831693
 20
34.133695707759898
 11
25.589637752393614
 21
33.872303513896242
  0
ARC
  8
_0-1_作画層１
  6
CONTINUOUS
 62
    7
 10
25.74788822612183
 20
34.346599610827937
 40
0.4999999999998451
 50
251.54855157699961
 51
270.00000000000813
  0
LINE
  8
_0-1_作画層１
  6
CONTINUOUS
 62
    7
 10
24.522318659888171
 20
33.480927324847443
 11
24.936032350822344
 21
33.273871896808714
  0
ARC
  8
_0-1_作画層１
  6
CONTINUOUS
 62
    7
 10
25.159810829134742
 20
33.720999610827988
 40
0.4999999999999136
 50
243.41295146815895
 51
270
  0
LINE
  8
_0-1_作画層１
  6
CONTINUOUS
 62
    7
 10
25.747888226121901
 20
33.846599610828093
 11
28.710462784588643
 21
33.846599610828065
  0
ARC
  8
_0-1_作画層１
  6
CONTINUOUS
 62
    7
 10
28.710462784588714
 20
34.346599610827909
 40
0.4999999999998436
 50
269.99999999999193
 51
288.45144842300044
  0
LINE
  8
_0-1_作画層１
  6
CONTINUOUS
 62
    7
 10
28.86871325831693
 20
33.872303513896213
 11
29.652137752393614
 21
34.13369570775987
  0
LINE
  8
_0-1_作画層１
  6
CONTINUOUS
 62
    7
 10
30.666675505355258
 20
34.159399610828046
 11
29.810388226121901
 21
34.159399610828046
  0
ARC
  8
_0-1_作画層１
  6
CONTINUOUS
 62
    7
 10
29.810388226121745
 20
33.659399610829254
 40
0.4999999999987935
 50
89.999999999982094
 51
108.45144842303033
  0
ARC
  8
_0-1_作画層１
  6
CONTINUOUS
 62
    7
 10
29.847310829134742
 20
33.03379961082814
 40
0.4999999999999146
 50
90
 51
116.58704853184106
  0
LINE
  8
_0-1_作画層１
  6
CONTINUOUS
 62
    7
 10
29.623532350822344
 20
33.480927324847414
 11
29.209818659888171
 21
33.273871896808686
  0
LINE
  8
_0-1_作画層１
  6
CONTINUOUS
 62
    7
 10
25.159810829134742
 20
33.220999610828073
 11
28.986040181575774
 21
33.220999610828045
  0
ARC
  8
_0-1_作画層１
  6
CONTINUOUS
 62
    7
 10
28.986040181575774
 20
33.72099961082796
 40
0.4999999999999136
 50
270
 51
296.58704853184105
  0
LINE
  8
_0-1_作画層１
  6
CONTINUOUS
 62
    7
 10
30.629175505355263
 20
33.533799610828055
 11
29.847310829134742
 21
33.533799610828055
  0
LINE
  8
_0-1_作画層１
  6
CONTINUOUS
 62
    7
 10
30.629175505355263
 20
25.159399610828046
 11
33.629175505355263
 21
25.159399610828046
  0
LINE
  8
_0-1_作画層１
  6
CONTINUOUS
 62
    7
 10
21.479175505355258
 20
25.159399610828075
 11
23.629175505355263
 21
25.159399610828075
  0
LINE
  8
_0-1_作画層１
  6
CONTINUOUS
 62
    7
 10
23.629175505355263
 20
25.159399610828075
 11
23.629175505355263
 21
34.159399610828075
  0
LINE
  8
_0-1_作画層１
  6
CONTINUOUS
 62
    7
 10
30.629175505355263
 20
25.159399610828075
 11
30.629175505355263
 21
34.159399610828046
  0
LINE
  8
_0-1_作画層１
  6
CONTINUOUS
 62
    7
 10
21.479175505355258
 20
25.159392219854851
 11
21.479175505355258
 21
34.159399610828075
  0
ARC
  8
_0-1_作画層１
  6
CONTINUOUS
 62
    7
 10
16.454175505355238
 20
32.181392219854814
 40
1.4999999999999716
 50
179.99999999999892
 51
270.00000000000114
  0
LINE
  8
_0-1_作画層１
  6
CONTINUOUS
 62
    7
 10
16.454175505355238
 20
30.681392219854843
 11
19.704175505355238
 21
30.681392219854843
  0
ARC
  8
_0-1_作画層１
  6
CONTINUOUS
 62
    7
 10
19.704175505355295
 20
32.181392219854814
 40
1.4999999999999716
 50
269.99999999999886
 51
0.0000000000010941
  0
LINE
  8
_0-1_作画層１
  6
CONTINUOUS
 62
    7
 10
14.954175505355238
 20
32.181392219854843
 11
14.954175505355238
 21
32.681392219854843
  0
ARC
  8
_0-1_作画層１
  6
CONTINUOUS
 62
    7
 10
15.454175505355238
 20
32.681392219854857
 40
0.4999999999999856
 50
89.99999999999838
 51
180.00000000000162
  0
LINE
  8
_0-1_作画層１
  6
CONTINUOUS
 62
    7
 10
15.454175505355238
 20
33.181392219854843
 11
20.704175505355252
 21
33.181392219854843
  0
LINE
  8
_0-1_作画層１
  6
CONTINUOUS
 62
    7
 10
21.204175505355252
 20
32.181392219854843
 11
21.204175505355252
 21
32.681392219854843
  0
ARC
  8
_0-1_作画層１
  6
CONTINUOUS
 62
    7
 10
20.704175505355266
 20
32.681392219854857
 40
0.4999999999999856
 50
359.99999999999835
 51
90.000000000001663
  0
LINE
  8
_0-1_作画層１
  6
CONTINUOUS
 62
    7
 10
14.479175505355272
 20
33.53379221985486
 11
15.148540181575754
 21
33.53379221985486
  0
ARC
  8
_0-1_作画層１
  6
CONTINUOUS
 62
    7
 10
15.148540181575754
 20
33.033792219854945
 40
0.4999999999999146
 50
63.412951468158951
 51
90
  0
LINE
  8
_0-1_作画層１
  6
CONTINUOUS
 62
    7
 10
14.479175505355272
 20
34.159392219854851
 11
15.497962784588651
 21
34.159392219854851
  0
ARC
  8
_0-1_作画層１
  6
CONTINUOUS
 62
    7
 10
15.497962784588793
 20
33.659392219856059
 40
0.499999999998792
 50
71.5485515769697
 51
90.00000000001792
  0
LINE
  8
_0-1_作画層１
  6
CONTINUOUS
 62
    7
 10
15.656213258316939
 20
34.133688316786674
 11
16.439637752393594
 21
33.872296122923018
  0
ARC
  8
_0-1_作画層１
  6
CONTINUOUS
 62
    7
 10
16.597888226121825
 20
34.346592219854713
 40
0.4999999999998451
 50
251.54855157699961
 51
270.00000000000813
  0
LINE
  8
_0-1_作画層１
  6
CONTINUOUS
 62
    7
 10
15.372318659888151
 20
33.480919933874219
 11
15.786032350822325
 21
33.27386450583549
  0
ARC
  8
_0-1_作画層１
  6
CONTINUOUS
 62
    7
 10
16.009810829134722
 20
33.720992219854764
 40
0.4999999999999136
 50
243.41295146815895
 51
270
  0
LINE
  8
_0-1_作画層１
  6
CONTINUOUS
 62
    7
 10
16.597888226121881
 20
33.84659221985487
 11
19.560462784588651
 21
33.84659221985487
  0
ARC
  8
_0-1_作画層１
  6
CONTINUOUS
 62
    7
 10
19.560462784588708
 20
34.346592219854713
 40
0.4999999999998436
 50
269.99999999999193
 51
288.45144842300044
  0
LINE
  8
_0-1_作画層１
  6
CONTINUOUS
 62
    7
 10
19.718713258316939
 20
33.872296122923018
 11
20.502137752393608
 21
34.133688316786674
  0
ARC
  8
_0-1_作画層１
  6
CONTINUOUS
 62
    7
 10
20.660388226121739
 20
33.659392219856059
 40
0.4999999999987935
 50
89.999999999982094
 51
108.45144842303033
  0
ARC
  8
_0-1_作画層１
  6
CONTINUOUS
 62
    7
 10
20.697310829134736
 20
33.033792219854945
 40
0.4999999999999146
 50
90
 51
116.58704853184106
  0
LINE
  8
_0-1_作画層１
  6
CONTINUOUS
 62
    7
 10
20.473532350822325
 20
33.480919933874219
 11
20.059818659888151
 21
33.27386450583549
  0
LINE
  8
_0-1_作画層１
  6
CONTINUOUS
 62
    7
 10
16.009810829134722
 20
33.22099221985485
 11
19.836040181575754
 21
33.22099221985485
  0
ARC
  8
_0-1_作画層１
  6
CONTINUOUS
 62
    7
 10
19.836040181575754
 20
33.720992219854764
 40
0.4999999999999136
 50
270
 51
296.58704853184105
  0
LINE
  8
_0-1_作画層１
  6
CONTINUOUS
 62
    7
 10
21.479175505355258
 20
33.53379221985486
 11
20.697310829134736
 21
33.53379221985486
  0
LINE
  8
_0-1_作画層１
  6
CONTINUOUS
 62
    7
 10
11.479175505355272
 20
25.159392219854851
 11
14.479175505355272
 21
25.159392219854851
  0
LINE
  8
_0-1_作画層１
  6
CONTINUOUS
 62
    7
 10
21.479175505355258
 20
25.159392219854851
 11
21.479175505355258
 21
34.159392219854851
  0
LINE
  8
_0-1_作画層１
  6
CONTINUOUS
 62
    7
 10
14.479175505355272
 20
25.15939221985488
 11
14.479175505355272
 21
34.159392219854851
  0
LINE
  8
_0-1_作画層１
  6
CONTINUOUS
 62
    7
 10
33.104175505355258
 20
34.159399610828046
 11
39.354175505355258
 21
34.159399610828046
  0
ARC
  8
_0-1_作画層１
  6
CONTINUOUS
 62
    7
 10
34.604175505355229
 20
32.181399610828009
 40
1.4999999999999716
 50
179.99999999999892
 51
270.00000000000114
  0
LINE
  8
_0-1_作画層１
  6
CONTINUOUS
 62
    7
 10
34.604175505355258
 20
30.681399610828038
 11
37.854175505355258
 21
30.681399610828038
  0
ARC
  8
_0-1_作画層１
  6
CONTINUOUS
 62
    7
 10
37.854175505355286
 20
32.181399610828009
 40
1.4999999999999716
 50
269.99999999999886
 51
0.0000000000010941
  0
LINE
  8
_0-1_作画層１
  6
CONTINUOUS
 62
    7
 10
33.104175505355258
 20
32.181399610828038
 11
33.104175505355258
 21
32.681399610828038
  0
ARC
  8
_0-1_作画層１
  6
CONTINUOUS
 62
    7
 10
33.604175505355244
 20
32.681399610828052
 40
0.4999999999999856
 50
89.99999999999838
 51
180.00000000000162
  0
LINE
  8
_0-1_作画層１
  6
CONTINUOUS
 62
    7
 10
33.604175505355258
 20
33.181399610828038
 11
38.854175505355258
 21
33.181399610828038
  0
LINE
  8
_0-1_作画層１
  6
CONTINUOUS
 62
    7
 10
39.354175505355258
 20
32.181399610828038
 11
39.354175505355258
 21
32.681399610828038
  0
ARC
  8
_0-1_作画層１
  6
CONTINUOUS
 62
    7
 10
38.854175505355272
 20
32.681399610828052
 40
0.4999999999999856
 50
359.99999999999835
 51
90.000000000001663
  0
LINE
  8
_0-1_作画層１
  6
CONTINUOUS
 62
    7
 10
32.629175505355263
 20
33.533799610828055
 11
33.298540181575774
 21
33.533799610828055
  0
ARC
  8
_0-1_作画層１
  6
CONTINUOUS
 62
    7
 10
33.298540181575774
 20
33.03379961082814
 40
0.4999999999999146
 50
63.412951468158951
 51
90
  0
LINE
  8
_0-1_作画層１
  6
CONTINUOUS
 62
    7
 10
32.629175505355263
 20
34.159399610828046
 11
33.647962784588643
 21
34.159399610828046
  0
ARC
  8
_0-1_作画層１
  6
CONTINUOUS
 62
    7
 10
33.647962784588799
 20
33.659399610829254
 40
0.499999999998792
 50
71.5485515769697
 51
90.00000000001792
  0
LINE
  8
_0-1_作画層１
  6
CONTINUOUS
 62
    7
 10
33.80621325831693
 20
34.13369570775987
 11
34.589637752393614
 21
33.872303513896213
  0
ARC
  8
_0-1_作画層１
  6
CONTINUOUS
 62
    7
 10
34.74788822612183
 20
34.346599610827909
 40
0.4999999999998451
 50
251.54855157699961
 51
270.00000000000813
  0
LINE
  8
_0-1_作画層１
  6
CONTINUOUS
 62
    7
 10
33.522318659888171
 20
33.480927324847414
 11
33.936032350822344
 21
33.273871896808686
  0
ARC
  8
_0-1_作画層１
  6
CONTINUOUS
 62
    7
 10
34.159810829134742
 20
33.72099961082796
 40
0.4999999999999136
 50
243.41295146815895
 51
270
  0
LINE
  8
_0-1_作画層１
  6
CONTINUOUS
 62
    7
 10
34.747888226121901
 20
33.846599610828065
 11
37.710462784588643
 21
33.846599610828065
  0
ARC
  8
_0-1_作画層１
  6
CONTINUOUS
 62
    7
 10
37.710462784588714
 20
34.346599610827909
 40
0.4999999999998436
 50
269.99999999999193
 51
288.45144842300044
  0
LINE
  8
_0-1_作画層１
  6
CONTINUOUS
 62
    7
 10
37.86871325831693
 20
33.872303513896213
 11
38.652137752393614
 21
34.13369570775987
  0
LINE
  8
_0-1_作画層１
  6
CONTINUOUS
 62
    7
 10
39.666675505355258
 20
34.159399610828046
 11
38.810388226121901
 21
34.159399610828046
  0
ARC
  8
_0-1_作画層１
  6
CONTINUOUS
 62
    7
 10
38.810388226121745
 20
33.659399610829254
 40
0.4999999999987935
 50
89.999999999982094
 51
108.45144842303033
  0
ARC
  8
_0-1_作画層１
  6
CONTINUOUS
 62
    7
 10
38.847310829134742
 20
33.03379961082814
 40
0.4999999999999146
 50
90
 51
116.58704853184106
  0
LINE
  8
_0-1_作画層１
  6
CONTINUOUS
 62
    7
 10
38.623532350822344
 20
33.480927324847414
 11
38.209818659888171
 21
33.273871896808686
  0
LINE
  8
_0-1_作画層１
  6
CONTINUOUS
 62
    7
 10
34.159810829134742
 20
33.220999610828045
 11
37.986040181575774
 21
33.220999610828045
  0
ARC
  8
_0-1_作画層１
  6
CONTINUOUS
 62
    7
 10
37.986040181575774
 20
33.72099961082796
 40
0.4999999999999136
 50
270
 51
296.58704853184105
  0
LINE
  8
_0-1_作画層１
  6
CONTINUOUS
 62
    7
 10
39.629175505355263
 20
33.533799610828055
 11
38.847310829134742
 21
33.533799610828055
  0
LINE
  8
_0-1_作画層１
  6
CONTINUOUS
 62
    7
 10
39.629175505355263
 20
25.159399610828046
 11
42.629175505355263
 21
25.159399610828046
  0
LINE
  8
_0-1_作画層１
  6
CONTINUOUS
 62
    7
 10
39.629175505355263
 20
25.159399610828046
 11
39.629175505355263
 21
34.159399610828046
  0
LINE
  8
_0-1_作画層１
  6
CONTINUOUS
 62
    7
 10
32.629175505355263
 20
25.159399610828075
 11
32.629175505355263
 21
34.159399610828046
  0
LINE
  8
_0-1_作画層１
  6
CONTINUOUS
 62
    7
 10
5.479175505355272
 20
25.15939221985488
 11
5.479175505355272
 21
34.15939221985488
  0
LINE
  8
_0-1_作画層１
  6
CONTINUOUS
 62
    7
 10
12.479175505355272
 20
25.15939221985488
 11
12.479175505355272
 21
34.159392219854851
  0
LINE
  8
_0-1_作画層１
  6
CONTINUOUS
 62
    7
 10
42.104175505355258
 20
34.159399610828046
 11
48.354175505355258
 21
34.159399610828046
  0
ARC
  8
_0-1_作画層１
  6
CONTINUOUS
 62
    7
 10
43.604175505355229
 20
32.181399610828009
 40
1.4999999999999716
 50
179.99999999999892
 51
270.00000000000114
  0
LINE
  8
_0-1_作画層１
  6
CONTINUOUS
 62
    7
 10
43.604175505355258
 20
30.681399610828038
 11
46.854175505355258
 21
30.681399610828038
  0
ARC
  8
_0-1_作画層１
  6
CONTINUOUS
 62
    7
 10
46.854175505355286
 20
32.181399610828009
 40
1.4999999999999716
 50
269.99999999999886
 51
0.0000000000010941
  0
LINE
  8
_0-1_作画層１
  6
CONTINUOUS
 62
    7
 10
42.104175505355258
 20
32.181399610828038
 11
42.104175505355258
 21
32.681399610828038
  0
ARC
  8
_0-1_作画層１
  6
CONTINUOUS
 62
    7
 10
42.604175505355244
 20
32.681399610828052
 40
0.4999999999999856
 50
89.99999999999838
 51
180.00000000000162
  0
LINE
  8
_0-1_作画層１
  6
CONTINUOUS
 62
    7
 10
42.604175505355258
 20
33.181399610828038
 11
47.854175505355258
 21
33.181399610828038
  0
LINE
  8
_0-1_作画層１
  6
CONTINUOUS
 62
    7
 10
48.354175505355258
 20
32.181399610828038
 11
48.354175505355258
 21
32.681399610828038
  0
ARC
  8
_0-1_作画層１
  6
CONTINUOUS
 62
    7
 10
47.854175505355272
 20
32.681399610828052
 40
0.4999999999999856
 50
359.99999999999835
 51
90.000000000001663
  0
LINE
  8
_0-1_作画層１
  6
CONTINUOUS
 62
    7
 10
41.629175505355263
 20
33.533799610828055
 11
42.298540181575774
 21
33.533799610828055
  0
ARC
  8
_0-1_作画層１
  6
CONTINUOUS
 62
    7
 10
42.298540181575774
 20
33.03379961082814
 40
0.4999999999999146
 50
63.412951468158951
 51
90
  0
LINE
  8
_0-1_作画層１
  6
CONTINUOUS
 62
    7
 10
41.629175505355263
 20
34.159399610828046
 11
42.647962784588643
 21
34.159399610828046
  0
ARC
  8
_0-1_作画層１
  6
CONTINUOUS
 62
    7
 10
42.647962784588799
 20
33.659399610829254
 40
0.499999999998792
 50
71.5485515769697
 51
90.00000000001792
  0
LINE
  8
_0-1_作画層１
  6
CONTINUOUS
 62
    7
 10
42.80621325831693
 20
34.13369570775987
 11
43.589637752393614
 21
33.872303513896213
  0
ARC
  8
_0-1_作画層１
  6
CONTINUOUS
 62
    7
 10
43.74788822612183
 20
34.346599610827909
 40
0.4999999999998451
 50
251.54855157699961
 51
270.00000000000813
  0
LINE
  8
_0-1_作画層１
  6
CONTINUOUS
 62
    7
 10
42.522318659888171
 20
33.480927324847414
 11
42.936032350822344
 21
33.273871896808686
  0
ARC
  8
_0-1_作画層１
  6
CONTINUOUS
 62
    7
 10
43.159810829134742
 20
33.72099961082796
 40
0.4999999999999136
 50
243.41295146815895
 51
270
  0
LINE
  8
_0-1_作画層１
  6
CONTINUOUS
 62
    7
 10
43.747888226121901
 20
33.846599610828065
 11
46.710462784588643
 21
33.846599610828065
  0
ARC
  8
_0-1_作画層１
  6
CONTINUOUS
 62
    7
 10
46.710462784588714
 20
34.346599610827909
 40
0.4999999999998436
 50
269.99999999999193
 51
288.45144842300044
  0
LINE
  8
_0-1_作画層１
  6
CONTINUOUS
 62
    7
 10
46.86871325831693
 20
33.872303513896213
 11
47.652137752393614
 21
34.13369570775987
  0
LINE
  8
_0-1_作画層１
  6
CONTINUOUS
 62
    7
 10
48.666675505355258
 20
34.159399610828046
 11
47.810388226121901
 21
34.159399610828046
  0
ARC
  8
_0-1_作画層１
  6
CONTINUOUS
 62
    7
 10
47.810388226121745
 20
33.659399610829254
 40
0.4999999999987935
 50
89.999999999982094
 51
108.45144842303033
  0
ARC
  8
_0-1_作画層１
  6
CONTINUOUS
 62
    7
 10
47.847310829134742
 20
33.03379961082814
 40
0.4999999999999146
 50
90
 51
116.58704853184106
  0
LINE
  8
_0-1_作画層１
  6
CONTINUOUS
 62
    7
 10
47.623532350822344
 20
33.480927324847414
 11
47.209818659888171
 21
33.273871896808686
  0
LINE
  8
_0-1_作画層１
  6
CONTINUOUS
 62
    7
 10
43.159810829134742
 20
33.220999610828045
 11
46.986040181575774
 21
33.220999610828045
  0
ARC
  8
_0-1_作画層１
  6
CONTINUOUS
 62
    7
 10
46.986040181575774
 20
33.72099961082796
 40
0.4999999999999136
 50
270
 51
296.58704853184105
  0
LINE
  8
_0-1_作画層１
  6
CONTINUOUS
 62
    7
 10
48.629175505355235
 20
33.533799610828055
 11
47.847310829134742
 21
33.533799610828055
  0
LINE
  8
_0-1_作画層１
  6
CONTINUOUS
 62
    7
 10
41.629175505355263
 20
25.159399610828046
 11
41.629175505355263
 21
34.159399610828046
  0
LINE
  8
_0-1_作画層１
  6
CONTINUOUS
 62
    7
 10
48.629175505355235
 20
25.15939916975384
 11
48.629175505355235
 21
34.159399610828046
  0
LINE
  8
_0-1_作画層１
  6
CONTINUOUS
 62
    7
 10
12.479175505355272
 20
34.15939221985488
 11
5.479175505355272
 21
34.15939221985488
  0
LINE
  8
_0-1_作画層１
  6
CONTINUOUS
 62
    7
 10
21.479175505355258
 20
34.159392219854851
 11
14.954175505355238
 21
34.159392219854851
  0
LINE
  8
_0-1_作画層１
  6
CONTINUOUS
 62
    7
 10
50.391897398846382
 20
29.159399610828075
 11
50.391897398846382
 21
25.159399610828046
  0
LINE
  8
_0-1_作画層１
  6
CONTINUOUS
 62
    7
 10
59.50000004271341
 20
74.159405537459278
 11
59.500000042713395
 21
25.159385569910796
  0
LINE
  8
_0-1_作画層１
  6
CONTINUOUS
 62
    7
 10
59.50000004271341
 20
25.159400947903407
 11
-4.9999999999999716
 21
25.159385569910796
  0
LINE
  8
_0-1_作画層１
  6
CONTINUOUS
 62
    7
 10
58.50000377198387
 20
42.659400709485809
 11
58.50000377198387
 21
25.15940166315977
  0
LINE
  8
_0-1_作画層１
  6
CONTINUOUS
 62
    7
 10
58.50000377198387
 20
42.659400709485794
 11
-3.7581026011536096
 21
42.659385866002097
  0
LINE
  8
_0-1_作画層１
  6
CONTINUOUS
 62
    7
 10
55.75
 20
27.25
 11
52.75
 21
27.25
  0
ARC
  8
_0-1_作画層１
  6
CONTINUOUS
 62
    7
 10
52.749999999999986
 20
28.249999999999986
 40
0.9999999999999856
 50
179.99999999999918
 51
270.0000000000008
  0
LINE
  8
_0-1_作画層１
  6
CONTINUOUS
 62
    7
 10
56.75
 20
28.6405968467256
 11
56.75
 21
28.25
  0
LINE
  8
_0-1_作画層１
  6
CONTINUOUS
 62
    7
 10
56.75
 20
28.6405968467256
 11
56.75
 21
28.25
  0
LINE
  8
_0-1_作画層１
  6
CONTINUOUS
 62
    7
 10
51.75
 20
28.640598038818069
 11
51.75
 21
28.25
  0
ARC
  8
_0-1_作画層１
  6
CONTINUOUS
 62
    7
 10
55.750000000000014
 20
28.249999999999986
 40
0.9999999999999856
 50
269.9999999999992
 51
0.0000000000007887
  0
LINE
  8
_0-1_作画層１
  6
CONTINUOUS
 62
    7
 10
58.50000377198387
 20
29.159399610828075
 11
50.391897398846382
 21
29.159399610828075
  0
LINE
  8
_0-1_作画層１
  6
CONTINUOUS
 62
    7
 10
4.1081026011536323
 20
29.159399610828075
 11
4.1081026011536323
 21
25.159399610828046
  0
LINE
  8
_0-1_作画層１
  6
CONTINUOUS
 62
    7
 10
-1.25
 20
27.25
 11
1.75
 21
27.25
  0
ARC
  8
_0-1_作画層１
  6
CONTINUOUS
 62
    7
 10
1.7500000000000284
 20
28.249999999999986
 40
0.9999999999999856
 50
269.99999999999875
 51
0.0000000000008142
  0
LINE
  8
_0-1_作画層１
  6
CONTINUOUS
 62
    7
 10
-2.25
 20
28.6405968467256
 11
-2.25
 21
28.25
  0
LINE
  8
_0-1_作画層１
  6
CONTINUOUS
 62
    7
 10
-2.25
 20
28.6405968467256
 11
-2.25
 21
28.25
  0
LINE
  8
_0-1_作画層１
  6
CONTINUOUS
 62
    7
 10
2.75
 20
28.640598038818069
 11
2.75
 21
28.25
  0
ARC
  8
_0-1_作画層１
  6
CONTINUOUS
 62
    7
 10
-1.25
 20
28.249999999999986
 40
0.9999999999999856
 50
179.99999999999918
 51
270.00000000000119
  0
LINE
  8
_0-1_作画層１
  6
CONTINUOUS
 62
    7
 10
-4.0000037719838701
 20
29.159399610828075
 11
4.1081026011536323
 21
29.159399610828075
  0
LINE
  8
_0-1_作画層１
  6
CONTINUOUS
 62
    7
 10
8.25
 20
62.659388848165037
 11
8.25
 21
42.659388848165037
  0
LINE
  8
_0-1_作画層１
  6
CONTINUOUS
 62
    7
 10
8.25
 20
62.659389086583531
 11
7.25
 21
62.659388848165037
  0
LINE
  8
_0-1_作画層１
  6
CONTINUOUS
 62
    7
 10
10.25
 20
62.659388848165037
 11
10.25
 21
42.659388848165037
  0
LINE
  8
_0-1_作画層１
  6
CONTINUOUS
 62
    7
 10
11.25
 20
62.659388848165037
 11
11.25
 21
42.659388848165037
  0
LINE
  8
_0-1_作画層１
  6
CONTINUOUS
 62
    7
 10
11.25
 20
62.659389086583531
 11
10.25
 21
62.659388848165037
  0
LINE
  8
_0-1_作画層１
  6
CONTINUOUS
 62
    7
 10
13.25
 20
62.659388848165037
 11
13.25
 21
42.659388848165037
  0
LINE
  8
_0-1_作画層１
  6
CONTINUOUS
 62
    7
 10
14.25
 20
62.659388848165037
 11
14.25
 21
42.659388848165037
  0
LINE
  8
_0-1_作画層１
  6
CONTINUOUS
 62
    7
 10
14.25
 20
62.659389086583531
 11
13.25
 21
62.659388848165037
  0
LINE
  8
_0-1_作画層１
  6
CONTINUOUS
 62
    7
 10
16.25
 20
62.659388848165037
 11
16.25
 21
42.659388848165037
  0
LINE
  8
_0-1_作画層１
  6
CONTINUOUS
 62
    7
 10
17.25
 20
62.659388848165037
 11
17.25
 21
42.659388848165037
  0
LINE
  8
_0-1_作画層１
  6
CONTINUOUS
 62
    7
 10
17.25
 20
62.659389086583531
 11
16.25
 21
62.659388848165037
  0
LINE
  8
_0-1_作画層１
  6
CONTINUOUS
 62
    7
 10
19.25
 20
62.659388848165037
 11
19.25
 21
42.659388848165037
  0
LINE
  8
_0-1_作画層１
  6
CONTINUOUS
 62
    7
 10
20.25
 20
62.659388848165037
 11
20.25
 21
42.659388848165037
  0
LINE
  8
_0-1_作画層１
  6
CONTINUOUS
 62
    7
 10
20.25
 20
62.659389086583531
 11
19.25
 21
62.659388848165037
  0
LINE
  8
_0-1_作画層１
  6
CONTINUOUS
 62
    7
 10
22.25
 20
62.659388848165037
 11
22.25
 21
42.659388848165037
  0
LINE
  8
_0-1_作画層１
  6
CONTINUOUS
 62
    7
 10
23.25
 20
62.659388848165037
 11
23.25
 21
42.659388848165037
  0
LINE
  8
_0-1_作画層１
  6
CONTINUOUS
 62
    7
 10
23.25
 20
62.659389086583531
 11
22.25
 21
62.659388848165037
  0
LINE
  8
_0-1_作画層１
  6
CONTINUOUS
 62
    7
 10
25.25
 20
62.659388848165037
 11
25.25
 21
42.659388848165037
  0
LINE
  8
_0-1_作画層１
  6
CONTINUOUS
 62
    7
 10
26.25
 20
62.659388848165037
 11
26.25
 21
42.659388848165037
  0
LINE
  8
_0-1_作画層１
  6
CONTINUOUS
 62
    7
 10
26.25
 20
62.659389086583531
 11
25.25
 21
62.659388848165037
  0
LINE
  8
_0-1_作画層１
  6
CONTINUOUS
 62
    7
 10
28.25
 20
62.659388848165037
 11
28.25
 21
42.659388848165037
  0
LINE
  8
_0-1_作画層１
  6
CONTINUOUS
 62
    7
 10
29.25
 20
62.659388848165037
 11
29.25
 21
42.659388848165037
  0
LINE
  8
_0-1_作画層１
  6
CONTINUOUS
 62
    7
 10
29.25
 20
62.659389086583531
 11
28.25
 21
62.659388848165037
  0
LINE
  8
_0-1_作画層１
  6
CONTINUOUS
 62
    7
 10
31.25
 20
62.659388848165037
 11
31.25
 21
42.659388848165037
  0
LINE
  8
_0-1_作画層１
  6
CONTINUOUS
 62
    7
 10
32.25
 20
62.659388848165037
 11
32.25
 21
42.659388848165037
  0
LINE
  8
_0-1_作画層１
  6
CONTINUOUS
 62
    7
 10
32.25
 20
62.659389086583531
 11
31.25
 21
62.659388848165037
  0
LINE
  8
_0-1_作画層１
  6
CONTINUOUS
 62
    7
 10
34.25
 20
62.659388848165037
 11
34.25
 21
42.659388848165037
  0
LINE
  8
_0-1_作画層１
  6
CONTINUOUS
 62
    7
 10
35.25
 20
62.659388848165037
 11
35.25
 21
42.659388848165037
  0
LINE
  8
_0-1_作画層１
  6
CONTINUOUS
 62
    7
 10
35.25
 20
62.659389086583531
 11
34.25
 21
62.659388848165037
  0
LINE
  8
_0-1_作画層１
  6
CONTINUOUS
 62
    7
 10
37.25
 20
62.659388848165037
 11
37.25
 21
42.659388848165037
  0
LINE
  8
_0-1_作画層１
  6
CONTINUOUS
 62
    7
 10
38.25
 20
62.659388848165037
 11
38.25
 21
42.659388848165037
  0
LINE
  8
_0-1_作画層１
  6
CONTINUOUS
 62
    7
 10
38.25
 20
62.659389086583531
 11
37.25
 21
62.659388848165037
  0
LINE
  8
_0-1_作画層１
  6
CONTINUOUS
 62
    7
 10
40.25
 20
62.659388848165037
 11
40.25
 21
42.659388848165037
  0
LINE
  8
_0-1_作画層１
  6
CONTINUOUS
 62
    7
 10
41.25
 20
62.659388848165037
 11
41.25
 21
42.659388848165037
  0
LINE
  8
_0-1_作画層１
  6
CONTINUOUS
 62
    7
 10
41.25
 20
62.659389086583531
 11
40.25
 21
62.659388848165037
  0
LINE
  8
_0-1_作画層１
  6
CONTINUOUS
 62
    7
 10
43.25
 20
62.659388848165037
 11
43.25
 21
42.659388848165037
  0
LINE
  8
_0-1_作画層１
  6
CONTINUOUS
 62
    7
 10
44.25
 20
62.659388848165037
 11
44.25
 21
42.659388848165037
  0
LINE
  8
_0-1_作画層１
  6
CONTINUOUS
 62
    7
 10
44.25
 20
62.659389086583531
 11
43.25
 21
62.659388848165037
  0
LINE
  8
_0-1_作画層１
  6
CONTINUOUS
 62
    7
 10
46.25
 20
62.659388848165037
 11
46.25
 21
42.659388848165037
  0
LINE
  8
_0-1_作画層１
  6
CONTINUOUS
 62
    7
 10
47.25
 20
62.659388848165037
 11
47.25
 21
42.659388848165037
  0
LINE
  8
_0-1_作画層１
  6
CONTINUOUS
 62
    7
 10
47.25
 20
62.659389086583531
 11
46.25
 21
62.659388848165037
  0
TEXT
  8
_0-7_注記層１
 62
    7
 10
88.875
 20
14.5
 40
3.5
 41
1
 50
0
  1
1
  0
TEXT
  8
_0-7_注記層１
 62
    7
 10
106.375
 20
14.5
 40
3.5
 41
1
 50
0
  1
2
  0
TEXT
  8
_0-7_注記層１
 62
    7
 10
123.875
 20
14.5
 40
3.5
 41
1
 50
0
  1
3
  0
TEXT
  8
_0-7_注記層１
 62
    7
 10
141.375
 20
14.5
 40
3.5
 41
1
 50
0
  1
4
  0
CIRCLE
  8
_0-1_作画層１
  6
CONTINUOUS
 62
    7
 10
144.75
 20
26.25
 40
5
  0
LINE
  8
_0-1_作画層１
  6
CONTINUOUS
 62
    7
 10
146
 20
30.625
 11
143.5
 21
30.625
  0
LINE
  8
_0-1_作画層１
  6
CONTINUOUS
 62
    7
 10
143.5
 20
21.875
 11
146
 21
21.875
  0
LINE
  8
_0-1_作画層１
  6
CONTINUOUS
 62
    7
 10
140.375
 20
27.5
 11
140.375
 21
25
  0
LINE
  8
_0-1_作画層１
  6
CONTINUOUS
 62
    7
 10
149.125
 20
25
 11
149.125
 21
27.5
  0
ARC
  8
_0-1_作画層１
  6
CONTINUOUS
 62
    7
 10
146.99999999999997
 20
28.499999999999986
 40
0.9999999999999714
 50
179.99999999999918
 51
270.00000000000171
  0
LINE
  8
_0-1_作画層１
  6
CONTINUOUS
 62
    7
 10
149.125
 20
25
 11
147
 21
25
  0
ARC
  8
_0-1_作画層１
  6
CONTINUOUS
 62
    7
 10
146.99999999999997
 20
24.000000000000028
 40
0.9999999999999785
 50
89.99999999999838
 51
180.00000000000122
  0
LINE
  8
_0-1_作画層１
  6
CONTINUOUS
 62
    7
 10
140.375
 20
27.5
 11
142.5
 21
27.5
  0
ARC
  8
_0-1_作画層１
  6
CONTINUOUS
 62
    7
 10
142.50000000000003
 20
28.499999999999986
 40
0.9999999999999856
 50
269.99999999999835
 51
0.0000000000008142
  0
LINE
  8
_0-1_作画層１
  6
CONTINUOUS
 62
    7
 10
146.9999998728434
 20
27.5
 11
149.125
 21
27.5
  0
LINE
  8
_0-1_作画層１
  6
CONTINUOUS
 62
    7
 10
140.375
 20
25
 11
142.5
 21
25
  0
LINE
  8
_0-1_作画層１
  6
CONTINUOUS
 62
    7
 10
143.5
 20
21.875
 11
143.5
 21
24
  0
ARC
  8
_0-1_作画層１
  6
CONTINUOUS
 62
    7
 10
142.50000000000003
 20
24.000000000000028
 40
0.9999999999999785
 50
359.99999999999881
 51
90.00000000000162
  0
LINE
  8
_0-1_作画層１
  6
CONTINUOUS
 62
    7
 10
146
 20
28.499999999999972
 11
146
 21
30.625
  0
LINE
  8
_0-1_作画層１
  6
CONTINUOUS
 62
    7
 10
146
 20
24.000000000000014
 11
146
 21
21.875
  0
LINE
  8
_0-1_作画層１
  6
CONTINUOUS
 62
    7
 10
143.5
 20
28.499999999999972
 11
143.5
 21
30.625
  0
CIRCLE
  8
_0-1_作画層１
  6
CONTINUOUS
 62
    7
 10
127.25
 20
26.25
 40
5
  0
LINE
  8
_0-1_作画層１
  6
CONTINUOUS
 62
    7
 10
128.5
 20
30.625
 11
126
 21
30.625
  0
LINE
  8
_0-1_作画層１
  6
CONTINUOUS
 62
    7
 10
126
 20
21.875
 11
128.5
 21
21.875
  0
LINE
  8
_0-1_作画層１
  6
CONTINUOUS
 62
    7
 10
122.875
 20
27.5
 11
122.875
 21
25
  0
LINE
  8
_0-1_作画層１
  6
CONTINUOUS
 62
    7
 10
131.625
 20
25
 11
131.625
 21
27.5
  0
ARC
  8
_0-1_作画層１
  6
CONTINUOUS
 62
    7
 10
129.49999999999997
 20
28.499999999999986
 40
0.9999999999999714
 50
179.99999999999918
 51
270.00000000000171
  0
LINE
  8
_0-1_作画層１
  6
CONTINUOUS
 62
    7
 10
131.625
 20
25
 11
129.5
 21
25
  0
ARC
  8
_0-1_作画層１
  6
CONTINUOUS
 62
    7
 10
129.49999999999997
 20
24.000000000000028
 40
0.9999999999999785
 50
89.99999999999838
 51
180.00000000000122
  0
LINE
  8
_0-1_作画層１
  6
CONTINUOUS
 62
    7
 10
122.875
 20
27.5
 11
125
 21
27.5
  0
ARC
  8
_0-1_作画層１
  6
CONTINUOUS
 62
    7
 10
125.00000000000003
 20
28.499999999999986
 40
0.9999999999999856
 50
269.99999999999835
 51
0.0000000000008142
  0
LINE
  8
_0-1_作画層１
  6
CONTINUOUS
 62
    7
 10
129.4999998728434
 20
27.5
 11
131.625
 21
27.5
  0
LINE
  8
_0-1_作画層１
  6
CONTINUOUS
 62
    7
 10
122.875
 20
25
 11
125
 21
25
  0
LINE
  8
_0-1_作画層１
  6
CONTINUOUS
 62
    7
 10
126
 20
21.875
 11
126
 21
24
  0
ARC
  8
_0-1_作画層１
  6
CONTINUOUS
 62
    7
 10
125.00000000000003
 20
24.000000000000028
 40
0.9999999999999785
 50
359.99999999999881
 51
90.00000000000162
  0
LINE
  8
_0-1_作画層１
  6
CONTINUOUS
 62
    7
 10
128.5
 20
28.5
 11
128.5
 21
30.625
  0
LINE
  8
_0-1_作画層１
  6
CONTINUOUS
 62
    7
 10
128.5
 20
24.000000000000014
 11
128.5
 21
21.875
  0
LINE
  8
_0-1_作画層１
  6
CONTINUOUS
 62
    7
 10
126
 20
28.5
 11
126
 21
30.625
  0
CIRCLE
  8
_0-1_作画層１
  6
CONTINUOUS
 62
    7
 10
92.25
 20
26.25
 40
5
  0
LINE
  8
_0-1_作画層１
  6
CONTINUOUS
 62
    7
 10
93.5
 20
30.625
 11
91
 21
30.625
  0
LINE
  8
_0-1_作画層１
  6
CONTINUOUS
 62
    7
 10
91
 20
21.875
 11
93.5
 21
21.875
  0
LINE
  8
_0-1_作画層１
  6
CONTINUOUS
 62
    7
 10
87.875
 20
27.5
 11
87.875
 21
25
  0
LINE
  8
_0-1_作画層１
  6
CONTINUOUS
 62
    7
 10
96.625
 20
25
 11
96.625
 21
27.5
  0
ARC
  8
_0-1_作画層１
  6
CONTINUOUS
 62
    7
 10
94.499999999999972
 20
28.499999999999986
 40
0.9999999999999714
 50
179.99999999999918
 51
270.00000000000171
  0
LINE
  8
_0-1_作画層１
  6
CONTINUOUS
 62
    7
 10
96.625
 20
25
 11
94.5
 21
25
  0
ARC
  8
_0-1_作画層１
  6
CONTINUOUS
 62
    7
 10
94.499999999999972
 20
24.000000000000028
 40
0.9999999999999785
 50
89.99999999999838
 51
180.00000000000122
  0
LINE
  8
_0-1_作画層１
  6
CONTINUOUS
 62
    7
 10
87.875
 20
27.5
 11
90
 21
27.5
  0
ARC
  8
_0-1_作画層１
  6
CONTINUOUS
 62
    7
 10
90.000000000000028
 20
28.499999999999986
 40
0.9999999999999856
 50
269.99999999999835
 51
0.0000000000008142
  0
LINE
  8
_0-1_作画層１
  6
CONTINUOUS
 62
    7
 10
94.499999872843404
 20
27.5
 11
96.625
 21
27.5
  0
LINE
  8
_0-1_作画層１
  6
CONTINUOUS
 62
    7
 10
87.875
 20
25
 11
90
 21
25
  0
LINE
  8
_0-1_作画層１
  6
CONTINUOUS
 62
    7
 10
91
 20
21.875
 11
91
 21
24
  0
ARC
  8
_0-1_作画層１
  6
CONTINUOUS
 62
    7
 10
90.000000000000028
 20
24.000000000000028
 40
0.9999999999999785
 50
359.99999999999881
 51
90.00000000000162
  0
LINE
  8
_0-1_作画層１
  6
CONTINUOUS
 62
    7
 10
93.5
 20
28.5
 11
93.5
 21
30.625
  0
LINE
  8
_0-1_作画層１
  6
CONTINUOUS
 62
    7
 10
93.5
 20
24.000000000000028
 11
93.5
 21
21.875
  0
LINE
  8
_0-1_作画層１
  6
CONTINUOUS
 62
    7
 10
91
 20
28.5
 11
91
 21
30.625
  0
CIRCLE
  8
_0-1_作画層１
  6
CONTINUOUS
 62
    7
 10
109.75
 20
26.25
 40
5
  0
LINE
  8
_0-1_作画層１
  6
CONTINUOUS
 62
    7
 10
111
 20
30.625
 11
108.5
 21
30.625
  0
LINE
  8
_0-1_作画層１
  6
CONTINUOUS
 62
    7
 10
108.5
 20
21.875
 11
111
 21
21.875
  0
LINE
  8
_0-1_作画層１
  6
CONTINUOUS
 62
    7
 10
114.125
 20
25
 11
114.125
 21
27.5
  0
ARC
  8
_0-1_作画層１
  6
CONTINUOUS
 62
    7
 10
111.99999999999997
 20
28.499999999999986
 40
0.9999999999999714
 50
179.99999999999918
 51
270.00000000000171
  0
LINE
  8
_0-1_作画層１
  6
CONTINUOUS
 62
    7
 10
114.125
 20
25
 11
112
 21
25
  0
ARC
  8
_0-1_作画層１
  6
CONTINUOUS
 62
    7
 10
111.99999999999997
 20
24.000000000000028
 40
0.9999999999999785
 50
89.99999999999838
 51
180.00000000000122
  0
LINE
  8
_0-1_作画層１
  6
CONTINUOUS
 62
    7
 10
105.375
 20
27.5
 11
107.5
 21
27.5
  0
ARC
  8
_0-1_作画層１
  6
CONTINUOUS
 62
    7
 10
107.50000000000003
 20
28.499999999999986
 40
0.9999999999999856
 50
269.99999999999835
 51
0.0000000000008142
  0
LINE
  8
_0-1_作画層１
  6
CONTINUOUS
 62
    7
 10
111.9999998728434
 20
27.5
 11
114.125
 21
27.5
  0
LINE
  8
_0-1_作画層１
  6
CONTINUOUS
 62
    7
 10
105.375
 20
25
 11
107.5
 21
25
  0
LINE
  8
_0-1_作画層１
  6
CONTINUOUS
 62
    7
 10
108.5
 20
21.875
 11
108.5
 21
24
  0
ARC
  8
_0-1_作画層１
  6
CONTINUOUS
 62
    7
 10
107.50000000000003
 20
24.000000000000028
 40
0.9999999999999785
 50
359.99999999999881
 51
90.00000000000162
  0
LINE
  8
_0-1_作画層１
  6
CONTINUOUS
 62
    7
 10
111
 20
28.5
 11
111
 21
30.625
  0
LINE
  8
_0-1_作画層１
  6
CONTINUOUS
 62
    7
 10
111
 20
24.000000000000014
 11
111
 21
21.875
  0
LINE
  8
_0-1_作画層１
  6
CONTINUOUS
 62
    7
 10
108.5
 20
28.5
 11
108.5
 21
30.625
  0
LINE
  8
_0-1_作画層１
  6
CONTINUOUS
 62
    7
 10
106
 20
3.75
 11
109.75
 21
3.75
  0
LINE
  8
_0-1_作画層１
  6
CONTINUOUS
 62
    7
 10
92.25
 20
3.75
 11
92.25
 21
18.75
  0
LINE
  8
_0-1_作画層１
  6
CONTINUOUS
 62
    7
 10
92.25
 20
3.75
 11
96
 21
3.75
  0
LINE
  8
_0-1_作画層１
  6
CONTINUOUS
 62
    7
 10
109.75
 20
3.75
 11
109.75
 21
18.75
  0
CIRCLE
  8
_0-1_作画層１
  6
CONTINUOUS
 62
    7
 10
101
 20
3.75
 40
5
  0
ARC
  8
_0-1_作画層１
  6
CONTINUOUS
 62
    7
 10
102.5625
 20
3.9099744668289134
 40
1.5706680362308238
 50
185.84578235473452
 51
354.15421764526542
  0
ARC
  8
_0-1_作画層１
  6
CONTINUOUS
 62
    7
 10
99.4375
 20
3.5900255331710582
 40
1.5706680362308283
 50
5.8457823547360706
 51
174.15421764526394
  0
TEXT
  8
_0-7_注記層１
 62
    7
 10
88.75
 20
-3
 40
3.5
 41
1
 50
0
  1
電源
  0
TEXT
  8
_0-7_注記層１
 62
    7
 10
82.625
 20
-6.5
 40
3.5
 41
1
 50
0
  1
AC100V-200V
  0
LINE
  8
_0-1_作画層１
  6
CONTINUOUS
 62
    7
 10
41
 20
146.25
 11
42.25
 21
146.25
  0
LINE
  8
_0-1_作画層１
  6
CONTINUOUS
 62
    7
 10
42.25
 20
146.25
 11
42.25
 21
148.125
  0
LINE
  8
_0-1_作画層１
  6
CONTINUOUS
 62
    7
 10
42.25
 20
148.125
 11
43.5
 21
148.125
  0
LINE
  8
_0-1_作画層１
  6
CONTINUOUS
 62
    7
 10
43.5
 20
148.125
 11
43.5
 21
146.25
  0
LINE
  8
_0-1_作画層１
  6
CONTINUOUS
 62
    7
 10
43.5
 20
146.25
 11
44.75
 21
146.25
  0
TEXT
  8
_0-7_注記層１
 62
    7
 10
119.98355675269354
 20
127.10627505637694
 40
2.2999999999999998
 41
1
 50
90
  1
操作電圧　　AC100V～200V   　　 50/60Hz共用
  0
LINE
  8
_0-1_作画層１
  6
CONTINUOUS
 62
    7
 10
36
 20
126.25
 11
44
 21
126.25
  0
LINE
  8
_0-1_作画層１
  6
CONTINUOUS
 62
    7
 10
44
 20
126.25
 11
44
 21
129.25
  0
LINE
  8
_0-1_作画層１
  6
CONTINUOUS
 62
    7
 10
44
 20
129.25
 11
36
 21
129.25
  0
LINE
  8
_0-1_作画層１
  6
CONTINUOUS
 62
    7
 10
36
 20
129.25
 11
36
 21
126.25
  0
LINE
  8
_0-1_作画層１
  6
CONTINUOUS
 62
    7
 10
38.75
 20
129.25
 11
38.75
 21
126.25
  0
LINE
  8
_0-1_作画層１
  6
CONTINUOUS
 62
    7
 10
41.25
 20
129.25
 11
41.25
 21
126.25
  0
LINE
  8
_0-1_作画層１
  6
CONTINUOUS
 62
    7
 10
38.75
 20
129.25
 11
41.25
 21
129.25
  0
LINE
  8
_0-1_作画層１
  6
CONTINUOUS
 62
    7
 10
41.25
 20
129.25
 11
41.25
 21
126.25
  0
LINE
  8
_0-1_作画層１
  6
CONTINUOUS
 62
    7
 10
41.25
 20
126.25
 11
38.75
 21
126.25
  0
LINE
  8
_0-1_作画層１
  6
CONTINUOUS
 62
    7
 10
38.75
 20
126.25
 11
38.75
 21
129.25
  0
LINE
  8
_0-1_作画層１
  6
CONTINUOUS
 62
    7
 10
41.25
 20
129.22989898732231
 11
41.229898987322329
 21
129.25
  0
LINE
  8
_0-1_作画層１
  6
CONTINUOUS
 62
    7
 10
41.088477631085055
 20
129.25
 11
41.25
 21
129.08847763108506
  0
LINE
  8
_0-1_作画層１
  6
CONTINUOUS
 62
    7
 10
40.947056274847739
 20
129.25
 11
41.25
 21
128.94705627484774
  0
LINE
  8
_0-1_作画層１
  6
CONTINUOUS
 62
    7
 10
40.805634918610451
 20
129.25
 11
41.25
 21
128.80563491861045
  0
LINE
  8
_0-1_作画層１
  6
CONTINUOUS
 62
    7
 10
41.25
 20
128.66421356237313
 11
40.664213562373135
 21
129.25
  0
LINE
  8
_0-1_作画層１
  6
CONTINUOUS
 62
    7
 10
40.522792206135847
 20
129.25
 11
41.25
 21
128.52279220613585
  0
LINE
  8
_0-1_作画層１
  6
CONTINUOUS
 62
    7
 10
41.25
 20
128.38137084989853
 11
40.381370849898545
 21
129.25
  0
LINE
  8
_0-1_作画層１
  6
CONTINUOUS
 62
    7
 10
40.239949493661243
 20
129.25
 11
41.25
 21
128.23994949366124
  0
LINE
  8
_0-1_作画層１
  6
CONTINUOUS
 62
    7
 10
40.098528137423955
 20
129.25
 11
41.25
 21
128.09852813742395
  0
LINE
  8
_0-1_作画層１
  6
CONTINUOUS
 62
    7
 10
39.957106781186653
 20
129.25
 11
41.25
 21
127.95710678118667
  0
LINE
  8
_0-1_作画層１
  6
CONTINUOUS
 62
    7
 10
41.25
 20
127.81568542494932
 11
39.815685424949322
 21
129.25
  0
LINE
  8
_0-1_作画層１
  6
CONTINUOUS
 62
    7
 10
41.25
 20
127.67426406871203
 11
39.674264068712034
 21
129.25
  0
LINE
  8
_0-1_作画層１
  6
CONTINUOUS
 62
    7
 10
41.25
 20
127.53284271247472
 11
39.532842712474718
 21
129.25
  0
LINE
  8
_0-1_作画層１
  6
CONTINUOUS
 62
    7
 10
41.25
 20
127.3914213562374
 11
39.391421356237416
 21
129.25
  0
LINE
  8
_0-1_作画層１
  6
CONTINUOUS
 62
    7
 10
41.25
 20
127.25000000000011
 11
39.250000000000114
 21
129.25
  0
LINE
  8
_0-1_作画層１
  6
CONTINUOUS
 62
    7
 10
41.25
 20
127.10857864376283
 11
39.108578643762826
 21
129.25
  0
LINE
  8
_0-1_作画層１
  6
CONTINUOUS
 62
    7
 10
41.25
 20
126.96715728752551
 11
38.967157287525509
 21
129.25
  0
LINE
  8
_0-1_作画層１
  6
CONTINUOUS
 62
    7
 10
41.25
 20
126.82573593128822
 11
38.825735931288222
 21
129.25
  0
LINE
  8
_0-1_作画層１
  6
CONTINUOUS
 62
    7
 10
41.25
 20
126.68431457505091
 11
38.75
 21
129.18431457505091
  0
LINE
  8
_0-1_作画層１
  6
CONTINUOUS
 62
    7
 10
41.25
 20
126.54289321881359
 11
38.75
 21
129.04289321881359
  0
LINE
  8
_0-1_作画層１
  6
CONTINUOUS
 62
    7
 10
41.25
 20
126.4014718625763
 11
38.75
 21
128.9014718625763
  0
LINE
  8
_0-1_作画層１
  6
CONTINUOUS
 62
    7
 10
41.25
 20
126.26005050633901
 11
38.75
 21
128.76005050633901
  0
LINE
  8
_0-1_作画層１
  6
CONTINUOUS
 62
    7
 10
41.118629150101697
 20
126.25
 11
38.75
 21
128.6186291501017
  0
LINE
  8
_0-1_作画層１
  6
CONTINUOUS
 62
    7
 10
40.97720779386438
 20
126.25
 11
38.75
 21
128.47720779386438
  0
LINE
  8
_0-1_作画層１
  6
CONTINUOUS
 62
    7
 10
38.75
 20
128.33578643762712
 11
40.835786437627121
 21
126.25
  0
LINE
  8
_0-1_作画層１
  6
CONTINUOUS
 62
    7
 10
40.694365081389776
 20
126.25
 11
38.75
 21
128.19436508138978
  0
LINE
  8
_0-1_作画層１
  6
CONTINUOUS
 62
    7
 10
40.552943725152488
 20
126.25
 11
38.75
 21
128.05294372515249
  0
LINE
  8
_0-1_作画層１
  6
CONTINUOUS
 62
    7
 10
40.4115223689152
 20
126.25
 11
38.75
 21
127.9115223689152
  0
LINE
  8
_0-1_作画層１
  6
CONTINUOUS
 62
    7
 10
40.270101012677884
 20
126.25
 11
38.75
 21
127.77010101267788
  0
LINE
  8
_0-1_作画層１
  6
CONTINUOUS
 62
    7
 10
40.128679656440596
 20
126.25
 11
38.75
 21
127.6286796564406
  0
LINE
  8
_0-1_作画層１
  6
CONTINUOUS
 62
    7
 10
39.98725830020328
 20
126.25
 11
38.75
 21
127.48725830020328
  0
LINE
  8
_0-1_作画層１
  6
CONTINUOUS
 62
    7
 10
38.75
 20
127.34583694396599
 11
39.845836943965992
 21
126.25
  0
LINE
  8
_0-1_作画層１
  6
CONTINUOUS
 62
    7
 10
39.704415587728676
 20
126.25
 11
38.75
 21
127.20441558772868
  0
LINE
  8
_0-1_作画層１
  6
CONTINUOUS
 62
    7
 10
39.562994231491359
 20
126.25
 11
38.75
 21
127.06299423149136
  0
LINE
  8
_0-1_作画層１
  6
CONTINUOUS
 62
    7
 10
39.421572875254071
 20
126.25
 11
38.75
 21
126.92157287525407
  0
LINE
  8
_0-1_作画層１
  6
CONTINUOUS
 62
    7
 10
38.75
 20
126.78015151901678
 11
39.280151519016783
 21
126.25
  0
LINE
  8
_0-1_作画層１
  6
CONTINUOUS
 62
    7
 10
39.138730162779467
 20
126.25
 11
38.75
 21
126.63873016277947
  0
LINE
  8
_0-1_作画層１
  6
CONTINUOUS
 62
    7
 10
38.997308806542179
 20
126.25
 11
38.75
 21
126.49730880654218
  0
LINE
  8
_0-1_作画層１
  6
CONTINUOUS
 62
    7
 10
38.855887450304863
 20
126.25
 11
38.75
 21
126.35588745030486
  0
TEXT
  8
_0-7_注記層１
 62
    7
 10
32.200000000000003
 20
126.19999999999999
 40
2.6000000000000001
 41
1
 50
0
  1
入
  0
TEXT
  8
_0-7_注記層１
 62
    7
 10
45.325000000000003
 20
126.19999999999999
 40
2.6000000000000001
 41
1
 50
0
  1
切
  0
TEXT
  8
_0-7_注記層１
 62
    7
 10
37.150000000000006
 20
123.07499999999999
 40
2.6000000000000001
 41
1
 50
0
  1
自動
  0
TEXT
  8
_0-7_注記層１
 62
    7
 10
35.849999999999994
 20
119.94999999999999
 40
2.6000000000000001
 41
1
 50
0
  1
出力２
  0
TEXT
  8
_0-7_注記層１
 62
    7
 10
209.75
 20
227
 40
3.5
 41
1
 50
0
  1
型　　 　番
  0
TEXT
  8
_0-7_注記層１
 62
    7
 10
209.75
 20
217
 40
3.5
 41
1
 50
0
  1
許容電圧変動範囲
  0
TEXT
  8
_0-7_注記層１
 62
    7
 10
209.75
 20
212
 40
3.5
 41
1
 50
0
  1
周　　波　　数
  0
TEXT
  8
_0-7_注記層１
 62
    7
 10
209.75
 20
207
 40
3.5
 41
1
 50
0
  1
停　電　補　償
  0
TEXT
  8
_0-7_注記層１
 62
    7
 10
209.75
 20
222
 40
3.5
 41
1
 50
0
  1
電  源  電  圧
  0
TEXT
  8
_0-7_注記層１
 62
    7
 10
244.75
 20
212
 40
3.5
 41
1
 50
0
  1
50-60Hz共用
  0
LINE
  8
_0-1_作画層１
  6
CONTINUOUS
 62
    7
 10
309.75
 20
231.25
 11
207.25
 21
231.25
  0
LINE
  8
_0-1_作画層１
  6
CONTINUOUS
 62
    7
 10
309.75
 20
226.25
 11
207.25
 21
226.25
  0
LINE
  8
_0-1_作画層１
  6
CONTINUOUS
 62
    7
 10
309.75
 20
221.25
 11
207.25
 21
221.25
  0
LINE
  8
_0-1_作画層１
  6
CONTINUOUS
 62
    7
 10
309.75
 20
216.25
 11
207.25
 21
216.25
  0
LINE
  8
_0-1_作画層１
  6
CONTINUOUS
 62
    7
 10
309.75
 20
211.25
 11
207.25
 21
211.25
  0
LINE
  8
_0-1_作画層１
  6
CONTINUOUS
 62
    7
 10
309.75
 20
206.25
 11
207.25
 21
206.25
  0
LINE
  8
_0-1_作画層１
  6
CONTINUOUS
 62
    7
 10
309.75
 20
201.25
 11
207.25
 21
201.25
  0
TEXT
  8
_0-7_注記層１
 62
    7
 10
207.25
 20
236.25
 40
5
 41
1
 50
0
  1
規　格
  0
LINE
  8
_0-1_作画層１
  6
CONTINUOUS
 62
    7
 10
204.75
 20
236.25
 11
224.75
 21
236.25
  0
TEXT
  8
_0-7_注記層１
 62
    7
 10
209.75
 20
202
 40
3.5
 41
1
 50
0
  1
使 用 周 囲 温 度
  0
TEXT
  8
_0-7_注記層１
 62
    7
 10
209.75
 20
197
 40
3.5
 41
1
 50
0
  1
使 用 周 囲 湿 度
  0
TEXT
  8
_0-7_注記層１
 62
    7
 10
209.75
 20
192
 40
3.5
 41
1
 50
0
  1
接　点　定　格
  0
TEXT
  8
_0-7_注記層１
 62
    7
 10
209.75
 20
187
 40
3.5
 41
1
 50
0
  1
出　　　　　力
  0
TEXT
  8
_0-7_注記層１
 62
    7
 10
209.75
 20
182
 40
3.5
 41
1
 50
0
  1
設　定　回　数
  0
TEXT
  8
_0-7_注記層１
 62
    7
 10
244.75
 20
197
 40
3.5
 41
1
 50
0
  1
35～85％RH
  0
LINE
  8
_0-1_作画層１
  6
CONTINUOUS
 62
    7
 10
309.75
 20
201.25
 11
207.25
 21
201.25
  0
LINE
  8
_0-1_作画層１
  6
CONTINUOUS
 62
    7
 10
309.75
 20
196.25
 11
207.25
 21
196.25
  0
LINE
  8
_0-1_作画層１
  6
CONTINUOUS
 62
    7
 10
309.75
 20
191.25
 11
207.25
 21
191.25
  0
LINE
  8
_0-1_作画層１
  6
CONTINUOUS
 62
    7
 10
309.75
 20
186.25
 11
207.25
 21
186.25
  0
TEXT
  8
_0-7_注記層１
 62
    7
 10
244.75
 20
192
 40
3.5
 41
1
 50
0
  1
抵抗負荷　AC250V  10A
  0
TEXT
  8
_0-7_注記層１
 62
    7
 10
244.75
 20
202
 40
3.5
 41
1
 50
0
  1
-10℃～50℃
  0
TEXT
  8
_0-7_注記層１
 62
    7
 10
244.75
 20
222
 40
3.5
 41
1
 50
0
  1
AC100-200V（共用）
  0
TEXT
  8
_0-7_注記層１
 62
    7
 10
244.75
 20
217
 40
3.5
 41
1
 50
0
  1
AC85V～AC230V
  0
TEXT
  8
_0-7_注記層１
 62
    7
 10
244.75
 20
207
 40
3.5
 41
1
 50
0
  1
累積5年間（リチウム電池使用）
  0
TEXT
  8
_0-7_注記層１
 62
    7
 10
209.75
 20
172
 40
3.5
 41
1
 50
0
  1
最 小 設 定 時 間
  0
TEXT
  8
_0-7_注記層１
 62
    7
 10
209.75
 20
167
 40
3.5
 41
1
 50
0
  1
時　間　精　度
  0
TEXT
  8
_0-7_注記層１
 62
    7
 10
209.75
 20
162
 40
3.5
 41
1
 50
0
  1
消　費　電　力　
  0
TEXT
  8
_0-7_注記層１
 62
    7
 10
209.75
 20
157
 40
3.5
 41
1
 50
0
  1
重　　　  　量
  0
TEXT
  8
_0-7_注記層１
 62
    7
 10
209.75
 20
152
 40
3.5
 41
1
 50
0
  1
外　形　寸　法
  0
TEXT
  8
_0-7_注記層１
 62
    7
 10
244.75
 20
167
 40
3.5
 41
1
 50
0
  1
±15秒／月（25℃）
  0
LINE
  8
_0-1_作画層１
  6
CONTINUOUS
 62
    7
 10
309.75
 20
171.25
 11
207.25
 21
171.25
  0
LINE
  8
_0-1_作画層１
  6
CONTINUOUS
 62
    7
 10
309.75
 20
166.25
 11
207.25
 21
166.25
  0
LINE
  8
_0-1_作画層１
  6
CONTINUOUS
 62
    7
 10
309.75
 20
161.25
 11
207.25
 21
161.25
  0
LINE
  8
_0-1_作画層１
  6
CONTINUOUS
 62
    7
 10
309.75
 20
156.25
 11
207.25
 21
156.25
  0
LINE
  8
_0-1_作画層１
  6
CONTINUOUS
 62
    7
 10
309.75
 20
151.25
 11
207.25
 21
151.25
  0
TEXT
  8
_0-7_注記層１
 62
    7
 10
209.75
 20
147
 40
3.5
 41
1
 50
0
  1
付　　属　　品
  0
LINE
  8
_0-1_作画層１
  6
CONTINUOUS
 62
    7
 10
309.75
 20
142.5
 11
207.25
 21
142.5
  0
LINE
  8
_0-1_作画層１
  6
CONTINUOUS
 62
    7
 10
207.25
 20
231.25
 11
207.25
 21
142.5
  0
LINE
  8
_0-1_作画層１
  6
CONTINUOUS
 62
    7
 10
242.25
 20
231.25
 11
242.25
 21
142.5
  0
LINE
  8
_0-1_作画層１
  6
CONTINUOUS
 62
    7
 10
309.75
 20
142.5
 11
309.75
 21
231.25
  0
TEXT
  8
_0-7_注記層１
 62
    7
 10
244.75
 20
182
 40
3.5
 41
1
 50
0
  1
30回　ON、OFF動作　
  0
TEXT
  8
_0-7_注記層１
 62
    7
 10
244.75
 20
178.5
 40
3.5
 41
1
 50
0
  1
又は60ﾊﾟﾙｽ（各ﾊﾟﾀｰﾝ毎）
  0
LINE
  8
_0-1_作画層１
  6
CONTINUOUS
 62
    7
 10
309.75
 20
176.25
 11
207.25
 21
176.25
  0
TEXT
  8
_0-7_注記層１
 62
    7
 10
244.75
 20
162
 40
3.5
 41
1
 50
0
  1
約5VA
  0
TEXT
  8
_0-7_注記層１
 62
    7
 10
244.75
 20
152
 40
3.5
 41
1
 50
0
  1
H72×W72×D62
  0
TEXT
  8
_0-7_注記層１
 62
    7
 10
244.75
 20
157
 40
3.5
 41
1
 50
0
  1
170g
  0
TEXT
  8
_0-7_注記層１
 62
    7
 10
244.75
 20
147
 40
3.5
 41
1
 50
0
  1
前面カバー、
  0
TEXT
  8
_0-7_注記層１
 62
    7
 10
244.75
 20
187
 40
3.5
 41
1
 50
0
  1
接点出力（1a×2）
  0
LINE
  8
_0-1_作画層１
  6
CONTINUOUS
 62
    7
 10
192.24999999999994
 20
56.25
 11
264.24999999999994
 21
56.25
  0
LINE
  8
_0-1_作画層１
  6
CONTINUOUS
 62
    7
 10
264.24999999999994
 20
56.25
 11
264.24999999999994
 21
128.25
  0
LINE
  8
_0-1_作画層１
  6
CONTINUOUS
 62
    7
 10
264.24999999999994
 20
128.25
 11
192.24999999999994
 21
128.25
  0
LINE
  8
_0-1_作画層１
  6
CONTINUOUS
 62
    7
 10
192.24999999999994
 20
128.25
 11
192.24999999999994
 21
56.25
  0
LINE
  8
_0-1_作画層１
  6
CONTINUOUS
 62
    7
 10
261.25
 20
59.25
 11
195.25
 21
59.25
  0
LINE
  8
_0-1_作画層１
  6
CONTINUOUS
 62
    7
 10
207.74999999999994
 20
59.25
 11
243.74999999999994
 21
59.25
  0
CIRCLE
  8
_0-1_作画層１
  6
CONTINUOUS
 62
    7
 10
211.38499999999993
 20
66
 40
3.1499999999999999
  0
LINE
  8
_0-1_作画層１
  6
CONTINUOUS
 62
    7
 10
210.59749999999997
 20
63.243749999999991
 11
212.17249999999996
 21
63.243749999999991
  0
LINE
  8
_0-1_作画層１
  6
CONTINUOUS
 62
    7
 10
212.17249999999996
 20
68.756249999999994
 11
210.59749999999997
 21
68.756249999999994
  0
LINE
  8
_0-1_作画層１
  6
CONTINUOUS
 62
    7
 10
214.14124999999996
 20
65.212499999999991
 11
214.14124999999996
 21
66.787499999999994
  0
LINE
  8
_0-1_作画層１
  6
CONTINUOUS
 62
    7
 10
208.62874999999997
 20
66.787499999999994
 11
208.62874999999997
 21
65.212499999999991
  0
ARC
  8
_0-1_作画層１
  6
CONTINUOUS
 62
    7
 10
209.96749999999997
 20
64.582499999999982
 40
0.6299999999999954
 50
0.0000000000025848
 51
90
  0
LINE
  8
_0-1_作画層１
  6
CONTINUOUS
 62
    7
 10
208.62874999999997
 20
66.787499999999994
 11
209.96749999999997
 21
66.787499999999994
  0
ARC
  8
_0-1_作画層１
  6
CONTINUOUS
 62
    7
 10
209.96749999999997
 20
67.417500000000018
 40
0.6300000000000237
 50
270
 51
0.0000000000012976
  0
LINE
  8
_0-1_作画層１
  6
CONTINUOUS
 62
    7
 10
214.14124999999996
 20
65.212499999999991
 11
212.80249999999995
 21
65.212499999999991
  0
ARC
  8
_0-1_作画層１
  6
CONTINUOUS
 62
    7
 10
212.80249999999995
 20
64.582499999999968
 40
0.6300000000000237
 50
90
 51
179.99999999999613
  0
LINE
  8
_0-1_作画層１
  6
CONTINUOUS
 62
    7
 10
209.96750008010861
 20
65.212499999999991
 11
208.62874999999997
 21
65.212499999999991
  0
LINE
  8
_0-1_作画層１
  6
CONTINUOUS
 62
    7
 10
214.14124999999996
 20
66.787499999999994
 11
212.80249999999995
 21
66.787499999999994
  0
LINE
  8
_0-1_作画層１
  6
CONTINUOUS
 62
    7
 10
212.17249999999996
 20
68.756249999999994
 11
212.17249999999996
 21
67.417500000000032
  0
ARC
  8
_0-1_作画層１
  6
CONTINUOUS
 62
    7
 10
212.80249999999995
 20
67.417500000000018
 40
0.6300000000000237
 50
179.99999999999869
 51
270
  0
LINE
  8
_0-1_作画層１
  6
CONTINUOUS
 62
    7
 10
210.59749999999997
 20
64.58250000000001
 11
210.59749999999997
 21
63.243749999999991
  0
LINE
  8
_0-1_作画層１
  6
CONTINUOUS
 62
    7
 10
210.59749999999997
 20
67.41749999999999
 11
210.59749999999997
 21
68.756249999999994
  0
LINE
  8
_0-1_作画層１
  6
CONTINUOUS
 62
    7
 10
212.17249999999996
 20
64.58250000000001
 11
212.17249999999996
 21
63.243749999999991
  0
CIRCLE
  8
_0-1_作画層１
  6
CONTINUOUS
 62
    7
 10
220.0137499999999
 20
66
 40
3.1499999999999999
  0
LINE
  8
_0-1_作画層１
  6
CONTINUOUS
 62
    7
 10
219.22624999999994
 20
63.243749999999991
 11
220.80124999999992
 21
63.243749999999991
  0
LINE
  8
_0-1_作画層１
  6
CONTINUOUS
 62
    7
 10
220.80124999999992
 20
68.756249999999994
 11
219.22624999999994
 21
68.756249999999994
  0
LINE
  8
_0-1_作画層１
  6
CONTINUOUS
 62
    7
 10
222.76999999999992
 20
65.212499999999991
 11
222.76999999999992
 21
66.787499999999994
  0
LINE
  8
_0-1_作画層１
  6
CONTINUOUS
 62
    7
 10
217.25749999999994
 20
66.787499999999994
 11
217.25749999999994
 21
65.212499999999991
  0
ARC
  8
_0-1_作画層１
  6
CONTINUOUS
 62
    7
 10
218.59624999999994
 20
64.582499999999982
 40
0.6299999999999954
 50
0.0000000000025848
 51
90
  0
LINE
  8
_0-1_作画層１
  6
CONTINUOUS
 62
    7
 10
217.25749999999994
 20
66.787499999999994
 11
218.59624999999994
 21
66.787499999999994
  0
ARC
  8
_0-1_作画層１
  6
CONTINUOUS
 62
    7
 10
218.59624999999994
 20
67.417500000000018
 40
0.6300000000000237
 50
270
 51
0.0000000000012976
  0
LINE
  8
_0-1_作画層１
  6
CONTINUOUS
 62
    7
 10
222.76999999999992
 20
65.212499999999991
 11
221.43124999999992
 21
65.212499999999991
  0
ARC
  8
_0-1_作画層１
  6
CONTINUOUS
 62
    7
 10
221.43124999999992
 20
64.582499999999968
 40
0.6300000000000237
 50
90
 51
179.99999999999613
  0
LINE
  8
_0-1_作画層１
  6
CONTINUOUS
 62
    7
 10
218.59625008010858
 20
65.212499999999991
 11
217.25749999999994
 21
65.212499999999991
  0
LINE
  8
_0-1_作画層１
  6
CONTINUOUS
 62
    7
 10
222.76999999999992
 20
66.787499999999994
 11
221.43124999999992
 21
66.787499999999994
  0
LINE
  8
_0-1_作画層１
  6
CONTINUOUS
 62
    7
 10
220.80124999999992
 20
68.756249999999994
 11
220.80124999999992
 21
67.417500000000032
  0
ARC
  8
_0-1_作画層１
  6
CONTINUOUS
 62
    7
 10
221.43124999999992
 20
67.417500000000018
 40
0.6300000000000237
 50
179.99999999999869
 51
270
  0
LINE
  8
_0-1_作画層１
  6
CONTINUOUS
 62
    7
 10
219.22624999999994
 20
64.58250000000001
 11
219.22624999999994
 21
63.243749999999991
  0
LINE
  8
_0-1_作画層１
  6
CONTINUOUS
 62
    7
 10
219.22624999999994
 20
67.41749999999999
 11
219.22624999999994
 21
68.756249999999994
  0
LINE
  8
_0-1_作画層１
  6
CONTINUOUS
 62
    7
 10
220.80124999999992
 20
64.58250000000001
 11
220.80124999999992
 21
63.243749999999991
  0
CIRCLE
  8
_0-1_作画層１
  6
CONTINUOUS
 62
    7
 10
228.64249999999993
 20
66
 40
3.1499999999999999
  0
LINE
  8
_0-1_作画層１
  6
CONTINUOUS
 62
    7
 10
227.8549999999999
 20
63.243749999999991
 11
229.42999999999989
 21
63.243749999999991
  0
LINE
  8
_0-1_作画層１
  6
CONTINUOUS
 62
    7
 10
229.42999999999989
 20
68.756249999999994
 11
227.8549999999999
 21
68.756249999999994
  0
LINE
  8
_0-1_作画層１
  6
CONTINUOUS
 62
    7
 10
231.39874999999989
 20
65.212499999999991
 11
231.39874999999989
 21
66.787499999999994
  0
LINE
  8
_0-1_作画層１
  6
CONTINUOUS
 62
    7
 10
225.8862499999999
 20
66.787499999999994
 11
225.8862499999999
 21
65.212499999999991
  0
ARC
  8
_0-1_作画層１
  6
CONTINUOUS
 62
    7
 10
227.22499999999991
 20
64.582499999999982
 40
0.6299999999999954
 50
0.0000000000025848
 51
90
  0
LINE
  8
_0-1_作画層１
  6
CONTINUOUS
 62
    7
 10
225.8862499999999
 20
66.787499999999994
 11
227.22499999999991
 21
66.787499999999994
  0
ARC
  8
_0-1_作画層１
  6
CONTINUOUS
 62
    7
 10
227.22499999999991
 20
67.417500000000018
 40
0.6300000000000237
 50
270
 51
0.0000000000012976
  0
LINE
  8
_0-1_作画層１
  6
CONTINUOUS
 62
    7
 10
231.39874999999989
 20
65.212499999999991
 11
230.05999999999989
 21
65.212499999999991
  0
ARC
  8
_0-1_作画層１
  6
CONTINUOUS
 62
    7
 10
230.05999999999989
 20
64.582499999999968
 40
0.6300000000000237
 50
90
 51
179.99999999999613
  0
LINE
  8
_0-1_作画層１
  6
CONTINUOUS
 62
    7
 10
227.2250000801086
 20
65.212499999999991
 11
225.8862499999999
 21
65.212499999999991
  0
LINE
  8
_0-1_作画層１
  6
CONTINUOUS
 62
    7
 10
231.39874999999989
 20
66.787499999999994
 11
230.05999999999989
 21
66.787499999999994
  0
LINE
  8
_0-1_作画層１
  6
CONTINUOUS
 62
    7
 10
229.42999999999989
 20
68.756249999999994
 11
229.42999999999989
 21
67.417500000000032
  0
ARC
  8
_0-1_作画層１
  6
CONTINUOUS
 62
    7
 10
230.05999999999989
 20
67.417500000000018
 40
0.6300000000000237
 50
179.99999999999869
 51
270
  0
LINE
  8
_0-1_作画層１
  6
CONTINUOUS
 62
    7
 10
227.8549999999999
 20
64.58250000000001
 11
227.8549999999999
 21
63.243749999999991
  0
LINE
  8
_0-1_作画層１
  6
CONTINUOUS
 62
    7
 10
227.8549999999999
 20
67.41749999999999
 11
227.8549999999999
 21
68.756249999999994
  0
LINE
  8
_0-1_作画層１
  6
CONTINUOUS
 62
    7
 10
229.42999999999989
 20
64.58250000000001
 11
229.42999999999989
 21
63.243749999999991
  0
LINE
  8
_0-1_作画層１
  6
CONTINUOUS
 62
    7
 10
214.93274756441741
 20
71.625
 11
214.93274756441741
 21
59.25
  0
LINE
  8
_0-1_作画層１
  6
CONTINUOUS
 62
    7
 10
224.09749999999997
 20
71.625
 11
224.09749999999997
 21
59.25
  0
LINE
  8
_0-1_作画層１
  6
CONTINUOUS
 62
    7
 10
225.67249999999996
 20
71.625
 11
225.67249999999996
 21
59.25
  0
LINE
  8
_0-1_作画層１
  6
CONTINUOUS
 62
    7
 10
216.7318847050625
 20
71.625
 11
216.7318847050625
 21
59.25
  0
LINE
  8
_0-1_作画層１
  6
CONTINUOUS
 62
    7
 10
232.53499999999997
 20
71.625
 11
232.53499999999997
 21
59.25
  0
CIRCLE
  8
_0-1_作画層１
  6
CONTINUOUS
 62
    7
 10
237.27124999999984
 20
66
 40
3.1499999999999999
  0
LINE
  8
_0-1_作画層１
  6
CONTINUOUS
 62
    7
 10
236.48374999999987
 20
63.243749999999991
 11
238.05874999999986
 21
63.243749999999991
  0
LINE
  8
_0-1_作画層１
  6
CONTINUOUS
 62
    7
 10
238.05874999999986
 20
68.756249999999994
 11
236.48374999999987
 21
68.756249999999994
  0
LINE
  8
_0-1_作画層１
  6
CONTINUOUS
 62
    7
 10
240.02749999999986
 20
65.212499999999991
 11
240.02749999999986
 21
66.787499999999994
  0
LINE
  8
_0-1_作画層１
  6
CONTINUOUS
 62
    7
 10
234.51499999999987
 20
66.787499999999994
 11
234.51499999999987
 21
65.212499999999991
  0
ARC
  8
_0-1_作画層１
  6
CONTINUOUS
 62
    7
 10
235.85374999999988
 20
64.582499999999982
 40
0.6299999999999954
 50
0.0000000000025848
 51
90
  0
LINE
  8
_0-1_作画層１
  6
CONTINUOUS
 62
    7
 10
234.51499999999987
 20
66.787499999999994
 11
235.85374999999988
 21
66.787499999999994
  0
ARC
  8
_0-1_作画層１
  6
CONTINUOUS
 62
    7
 10
235.85374999999988
 20
67.417500000000018
 40
0.6300000000000237
 50
270
 51
0.0000000000012976
  0
LINE
  8
_0-1_作画層１
  6
CONTINUOUS
 62
    7
 10
240.02749999999986
 20
65.212499999999991
 11
238.68874999999986
 21
65.212499999999991
  0
ARC
  8
_0-1_作画層１
  6
CONTINUOUS
 62
    7
 10
238.68874999999986
 20
64.582499999999968
 40
0.6300000000000237
 50
90
 51
179.99999999999613
  0
LINE
  8
_0-1_作画層１
  6
CONTINUOUS
 62
    7
 10
235.85375008010851
 20
65.212499999999991
 11
234.51499999999987
 21
65.212499999999991
  0
LINE
  8
_0-1_作画層１
  6
CONTINUOUS
 62
    7
 10
240.02749999999986
 20
66.787499999999994
 11
238.68874999999986
 21
66.787499999999994
  0
LINE
  8
_0-1_作画層１
  6
CONTINUOUS
 62
    7
 10
238.05874999999986
 20
68.756249999999994
 11
238.05874999999986
 21
67.417500000000032
  0
ARC
  8
_0-1_作画層１
  6
CONTINUOUS
 62
    7
 10
238.68874999999986
 20
67.417500000000018
 40
0.6300000000000237
 50
179.99999999999869
 51
270
  0
LINE
  8
_0-1_作画層１
  6
CONTINUOUS
 62
    7
 10
236.48374999999987
 20
64.58250000000001
 11
236.48374999999987
 21
63.243749999999991
  0
LINE
  8
_0-1_作画層１
  6
CONTINUOUS
 62
    7
 10
236.48374999999987
 20
67.41749999999999
 11
236.48374999999987
 21
68.756249999999994
  0
LINE
  8
_0-1_作画層１
  6
CONTINUOUS
 62
    7
 10
238.05874999999986
 20
64.58250000000001
 11
238.05874999999986
 21
63.243749999999991
  0
LINE
  8
_0-1_作画層１
  6
CONTINUOUS
 62
    7
 10
241.3549999999999
 20
71.625
 11
241.3549999999999
 21
59.25
  0
LINE
  8
_0-1_作画層１
  6
CONTINUOUS
 62
    7
 10
242.92999999999989
 20
71.625
 11
242.92999999999989
 21
59.25
  0
LINE
  8
_0-1_作画層１
  6
CONTINUOUS
 62
    7
 10
233.74999999999994
 20
71.625
 11
233.74999999999994
 21
59.25
  0
CIRCLE
  8
_0-1_作画層１
  6
CONTINUOUS
 62
    7
 10
246.39999999999986
 20
66
 40
2.52
  0
CIRCLE
  8
_0-1_作画層１
  6
CONTINUOUS
 62
    7
 10
201
 20
62.5
 40
2.52
  0
LINE
  8
_0-1_作画層１
  6
CONTINUOUS
 62
    7
 10
200.54640000000003
 20
60.912399999999991
 11
201.45359999999994
 21
60.912399999999991
  0
LINE
  8
_0-1_作画層１
  6
CONTINUOUS
 62
    7
 10
201.45359999999994
 20
64.087599999999995
 11
200.54640000000003
 21
64.087599999999995
  0
LINE
  8
_0-1_作画層１
  6
CONTINUOUS
 62
    7
 10
202.58760000000007
 20
62.046399999999991
 11
202.58760000000007
 21
62.95359999999998
  0
LINE
  8
_0-1_作画層１
  6
CONTINUOUS
 62
    7
 10
199.41240000000005
 20
62.95359999999998
 11
199.41240000000005
 21
62.046399999999991
  0
ARC
  8
_0-1_作画層１
  6
CONTINUOUS
 62
    7
 10
200.18351999999999
 20
61.68351999999993
 40
0.3628800000000467
 50
0.0000000000112189
 51
89.999999999986571
  0
LINE
  8
_0-1_作画層１
  6
CONTINUOUS
 62
    7
 10
199.41240000000005
 20
62.95359999999998
 11
200.18352000000007
 21
62.95359999999998
  0
ARC
  8
_0-1_作画層１
  6
CONTINUOUS
 62
    7
 10
200.18351999999996
 20
63.316480000000055
 40
0.3628800000000749
 50
270.00000000001796
 51
359.99999999999329
  0
LINE
  8
_0-1_作画層１
  6
CONTINUOUS
 62
    7
 10
202.58760000000007
 20
62.046399999999991
 11
201.81648000000007
 21
62.046399999999991
  0
ARC
  8
_0-1_作画層１
  6
CONTINUOUS
 62
    7
 10
201.81648000000013
 20
61.683519999999774
 40
0.3628800000002173
 50
90.000000000008967
 51
179.99999999996413
  0
LINE
  8
_0-1_作画層１
  6
CONTINUOUS
 62
    7
 10
200.18352004614258
 20
62.046399999999991
 11
199.41240000000005
 21
62.046399999999991
  0
LINE
  8
_0-1_作画層１
  6
CONTINUOUS
 62
    7
 10
202.58760000000007
 20
62.95359999999998
 11
201.81648000000007
 21
62.95359999999998
  0
LINE
  8
_0-1_作画層１
  6
CONTINUOUS
 62
    7
 10
201.45359999999994
 20
64.087599999999995
 11
201.45359999999994
 21
63.316480000000013
  0
ARC
  8
_0-1_作画層１
  6
CONTINUOUS
 62
    7
 10
201.81648000000013
 20
63.316480000000197
 40
0.3628800000002173
 50
180.00000000002919
 51
269.99999999999108
  0
LINE
  8
_0-1_作画層１
  6
CONTINUOUS
 62
    7
 10
200.54640000000003
 20
61.683520000000001
 11
200.54640000000003
 21
60.912399999999991
  0
LINE
  8
_0-1_作画層１
  6
CONTINUOUS
 62
    7
 10
200.54640000000003
 20
63.316479999999984
 11
200.54640000000003
 21
64.087599999999995
  0
LINE
  8
_0-1_作画層１
  6
CONTINUOUS
 62
    7
 10
201.45359999999994
 20
61.683520000000001
 11
201.45359999999994
 21
60.912399999999991
  0
LINE
  8
_0-1_作画層１
  6
CONTINUOUS
 62
    7
 10
195.25
 20
125.75
 11
195.25
 21
59.25
  0
LINE
  8
_0-1_作画層１
  6
CONTINUOUS
 62
    7
 10
261.25
 20
125.75
 11
261.25
 21
59.25
  0
LINE
  8
_0-1_作画層１
  6
CONTINUOUS
 62
    7
 10
196.75
 20
125.75
 11
196.75
 21
59.25
  0
LINE
  8
_0-1_作画層１
  6
CONTINUOUS
 62
    7
 10
259.75
 20
125.75
 11
259.75
 21
59.25
  0
LINE
  8
_0-1_作画層１
  6
CONTINUOUS
 62
    7
 10
195.25
 20
125.75
 11
261.25
 21
125.75
  0
CIRCLE
  8
_0-1_作画層１
  6
CONTINUOUS
 62
    7
 10
256
 20
62.5
 40
2.52
  0
LINE
  8
_0-1_作画層１
  6
CONTINUOUS
 62
    7
 10
256.45359999999994
 20
60.912399999999977
 11
255.54640000000006
 21
60.912399999999977
  0
LINE
  8
_0-1_作画層１
  6
CONTINUOUS
 62
    7
 10
255.54640000000006
 20
64.087599999999981
 11
256.45359999999994
 21
64.087599999999981
  0
LINE
  8
_0-1_作画層１
  6
CONTINUOUS
 62
    7
 10
254.41239999999993
 20
62.046399999999977
 11
254.41239999999993
 21
62.953599999999966
  0
LINE
  8
_0-1_作画層１
  6
CONTINUOUS
 62
    7
 10
257.58759999999995
 20
62.953599999999966
 11
257.58759999999995
 21
62.046399999999977
  0
ARC
  8
_0-1_作画層１
  6
CONTINUOUS
 62
    7
 10
256.81648000000001
 20
61.683519999999888
 40
0.3628800000000749
 50
90.000000000008967
 51
179.99999999998434
  0
LINE
  8
_0-1_作画層１
  6
CONTINUOUS
 62
    7
 10
257.58759999999995
 20
62.953599999999966
 11
256.81647999999996
 21
62.953599999999966
  0
ARC
  8
_0-1_作画層１
  6
CONTINUOUS
 62
    7
 10
256.81648000000007
 20
63.316480000000098
 40
0.3628800000001318
 50
180.00000000001347
 51
269.99999999998204
  0
LINE
  8
_0-1_作画層１
  6
CONTINUOUS
 62
    7
 10
254.41239999999993
 20
62.046399999999977
 11
255.18351999999993
 21
62.046399999999977
  0
ARC
  8
_0-1_作画層１
  6
CONTINUOUS
 62
    7
 10
255.18351999999993
 20
61.683519999999788
 40
0.3628800000001887
 50
0.0000000000314129
 51
90
  0
LINE
  8
_0-1_作画層１
  6
CONTINUOUS
 62
    7
 10
256.81647995385742
 20
62.046399999999977
 11
257.58759999999995
 21
62.046399999999977
  0
LINE
  8
_0-1_作画層１
  6
CONTINUOUS
 62
    7
 10
254.41239999999993
 20
62.953599999999966
 11
255.18351999999993
 21
62.953599999999966
  0
LINE
  8
_0-1_作画層１
  6
CONTINUOUS
 62
    7
 10
255.54640000000006
 20
64.087599999999981
 11
255.54640000000006
 21
63.316480000000013
  0
ARC
  8
_0-1_作画層１
  6
CONTINUOUS
 62
    7
 10
255.18351999999987
 20
63.316480000000197
 40
0.3628800000002315
 50
270.00000000000898
 51
359.99999999997084
  0
LINE
  8
_0-1_作画層１
  6
CONTINUOUS
 62
    7
 10
256.45359999999994
 20
61.683519999999987
 11
256.45359999999994
 21
60.912399999999977
  0
LINE
  8
_0-1_作画層１
  6
CONTINUOUS
 62
    7
 10
256.45359999999994
 20
63.316479999999984
 11
256.45359999999994
 21
64.087599999999981
  0
LINE
  8
_0-1_作画層１
  6
CONTINUOUS
 62
    7
 10
255.54640000000006
 20
61.683519999999987
 11
255.54640000000006
 21
60.912399999999977
  0
LINE
  8
_0-1_作画層１
  6
CONTINUOUS
 62
    7
 10
251.55874999999992
 20
71.625
 11
259.75
 21
71.625
  0
LINE
  8
_0-1_作画層１
  6
CONTINUOUS
 62
    7
 10
242.92999999999989
 20
71.625
 11
249.98374999999993
 21
71.625
  0
LINE
  8
_0-1_作画層１
  6
CONTINUOUS
 62
    7
 10
233.74999999999994
 20
71.625
 11
241.3549999999999
 21
71.625
  0
LINE
  8
_0-1_作画層１
  6
CONTINUOUS
 62
    7
 10
225.67249999999996
 20
71.625
 11
232.53499999999997
 21
71.625
  0
LINE
  8
_0-1_作画層１
  6
CONTINUOUS
 62
    7
 10
216.7318847050625
 20
71.625
 11
224.09749999999997
 21
71.625
  0
LINE
  8
_0-1_作画層１
  6
CONTINUOUS
 62
    7
 10
207.67249999999996
 20
71.625
 11
214.93274756441741
 21
71.625
  0
LINE
  8
_0-1_作画層１
  6
CONTINUOUS
 62
    7
 10
206.09749999999997
 20
71.625
 11
196.75
 21
71.625
  0
LINE
  8
_0-1_作画層１
  6
CONTINUOUS
 62
    7
 10
251.55874999999992
 20
75.25
 11
259.75
 21
75.25
  0
LINE
  8
_0-1_作画層１
  6
CONTINUOUS
 62
    7
 10
207.67249999999996
 20
75.25
 11
249.98374999999993
 21
75.25
  0
LINE
  8
_0-1_作画層１
  6
CONTINUOUS
 62
    7
 10
206.09749999999997
 20
75.25
 11
196.75
 21
75.25
  0
LINE
  8
_0-1_作画層１
  6
CONTINUOUS
 62
    7
 10
249.98374999999993
 20
71.625
 11
249.98374999999993
 21
59.25
  0
LINE
  8
_0-1_作画層１
  6
CONTINUOUS
 62
    7
 10
251.55874999999992
 20
71.625
 11
251.55874999999992
 21
59.25
  0
LINE
  8
_0-1_作画層１
  6
CONTINUOUS
 62
    7
 10
206.09749999999997
 20
71.625
 11
206.09749999999997
 21
59.25
  0
LINE
  8
_0-1_作画層１
  6
CONTINUOUS
 62
    7
 10
207.67249999999996
 20
71.625
 11
207.67249999999996
 21
59.25
  0
CIRCLE
  8
_0-1_作画層１
  6
CONTINUOUS
 62
    7
 10
256
 20
69
 40
1.26
  0
LINE
  8
_0-1_作画層１
  6
CONTINUOUS
 62
    7
 10
251.55874999999992
 20
66.25
 11
259.75
 21
66.25
  0
CIRCLE
  8
_0-1_作画層１
  6
CONTINUOUS
 62
    7
 10
201
 20
69.000000000000014
 40
1.26
  0
LINE
  8
_0-1_作画層１
  6
CONTINUOUS
 62
    7
 10
206.09749999999997
 20
66.250000000000014
 11
196.75
 21
66.250000000000014
  0
CIRCLE
  8
_0-1_作画層１
  6
CONTINUOUS
 62
    7
 10
201.23374999999993
 20
122
 40
2.52
  0
LINE
  8
_0-1_作画層１
  6
CONTINUOUS
 62
    7
 10
200.78014999999994
 20
123.58760000000001
 11
201.68734999999992
 21
123.58760000000001
  0
LINE
  8
_0-1_作画層１
  6
CONTINUOUS
 62
    7
 10
201.68734999999992
 20
120.41239999999999
 11
200.78014999999994
 21
120.41239999999999
  0
LINE
  8
_0-1_作画層１
  6
CONTINUOUS
 62
    7
 10
202.82135
 20
122.45359999999999
 11
202.82135
 21
121.54640000000001
  0
LINE
  8
_0-1_作画層１
  6
CONTINUOUS
 62
    7
 10
199.64614999999998
 20
121.54640000000001
 11
199.64614999999998
 21
122.45359999999999
  0
ARC
  8
_0-1_作画層１
  6
CONTINUOUS
 62
    7
 10
200.41726999999989
 20
122.81648000000004
 40
0.3628800000000467
 50
270.00000000001796
 51
359.99999999999551
  0
LINE
  8
_0-1_作画層１
  6
CONTINUOUS
 62
    7
 10
199.64614999999998
 20
121.54640000000001
 11
200.41727
 21
121.54640000000001
  0
ARC
  8
_0-1_作画層１
  6
CONTINUOUS
 62
    7
 10
200.41726999999992
 20
121.18352000000002
 40
0.3628799999999898
 50
359.99999999999551
 51
89.999999999986542
  0
LINE
  8
_0-1_作画層１
  6
CONTINUOUS
 62
    7
 10
202.82135
 20
122.45359999999999
 11
202.05022999999994
 21
122.45359999999999
  0
ARC
  8
_0-1_作画層１
  6
CONTINUOUS
 62
    7
 10
202.05023000000006
 20
122.81648000000015
 40
0.3628800000001604
 50
180.00000000002248
 51
269.99999999998204
  0
LINE
  8
_0-1_作画層１
  6
CONTINUOUS
 62
    7
 10
200.41727004614251
 20
122.45359999999999
 11
199.64614999999998
 21
122.45359999999999
  0
LINE
  8
_0-1_作画層１
  6
CONTINUOUS
 62
    7
 10
202.82135
 20
121.54640000000001
 11
202.05022999999994
 21
121.54640000000001
  0
LINE
  8
_0-1_作画層１
  6
CONTINUOUS
 62
    7
 10
201.68734999999992
 20
120.41239999999999
 11
201.68734999999992
 21
121.18351999999999
  0
ARC
  8
_0-1_作画層１
  6
CONTINUOUS
 62
    7
 10
202.05023
 20
121.1835199999999
 40
0.3628800000001036
 50
90.000000000008967
 51
179.99999999998656
  0
LINE
  8
_0-1_作画層１
  6
CONTINUOUS
 62
    7
 10
200.78014999999994
 20
122.81648000000001
 11
200.78014999999994
 21
123.58760000000001
  0
LINE
  8
_0-1_作画層１
  6
CONTINUOUS
 62
    7
 10
200.78014999999994
 20
121.18352000000002
 11
200.78014999999994
 21
120.41239999999999
  0
LINE
  8
_0-1_作画層１
  6
CONTINUOUS
 62
    7
 10
201.68734999999992
 20
122.81648000000001
 11
201.68734999999992
 21
123.58760000000001
  0
CIRCLE
  8
_0-1_作画層１
  6
CONTINUOUS
 62
    7
 10
256.23374999999993
 20
122
 40
2.52
  0
LINE
  8
_0-1_作画層１
  6
CONTINUOUS
 62
    7
 10
256.68734999999987
 20
123.58760000000001
 11
255.78014999999999
 21
123.58760000000001
  0
LINE
  8
_0-1_作画層１
  6
CONTINUOUS
 62
    7
 10
255.78014999999999
 20
120.41240000000002
 11
256.68734999999987
 21
120.41240000000002
  0
LINE
  8
_0-1_作画層１
  6
CONTINUOUS
 62
    7
 10
254.64614999999986
 20
122.45360000000002
 11
254.64614999999986
 21
121.54640000000003
  0
LINE
  8
_0-1_作画層１
  6
CONTINUOUS
 62
    7
 10
257.82134999999988
 20
121.54640000000003
 11
257.82134999999988
 21
122.45360000000002
  0
ARC
  8
_0-1_作画層１
  6
CONTINUOUS
 62
    7
 10
257.05022999999994
 20
122.81648000000013
 40
0.3628800000000749
 50
180.00000000001793
 51
269.99999999999102
  0
LINE
  8
_0-1_作画層１
  6
CONTINUOUS
 62
    7
 10
257.82134999999988
 20
121.54640000000003
 11
257.05022999999989
 21
121.54640000000003
  0
ARC
  8
_0-1_作画層１
  6
CONTINUOUS
 62
    7
 10
257.05023
 20
121.1835199999999
 40
0.3628800000001318
 50
90.000000000017948
 51
179.99999999998656
  0
LINE
  8
_0-1_作画層１
  6
CONTINUOUS
 62
    7
 10
254.64614999999986
 20
122.45360000000002
 11
255.41726999999986
 21
122.45360000000002
  0
ARC
  8
_0-1_作画層１
  6
CONTINUOUS
 62
    7
 10
255.4172699999998
 20
122.81648000000021
 40
0.3628800000001887
 50
270.00000000000898
 51
359.99999999996868
  0
LINE
  8
_0-1_作画層１
  6
CONTINUOUS
 62
    7
 10
257.05022995385735
 20
122.45360000000002
 11
257.82134999999988
 21
122.45360000000002
  0
LINE
  8
_0-1_作画層１
  6
CONTINUOUS
 62
    7
 10
254.64614999999986
 20
121.54640000000003
 11
255.41726999999986
 21
121.54640000000003
  0
LINE
  8
_0-1_作画層１
  6
CONTINUOUS
 62
    7
 10
255.78014999999999
 20
120.41240000000002
 11
255.78014999999999
 21
121.18351999999999
  0
ARC
  8
_0-1_作画層１
  6
CONTINUOUS
 62
    7
 10
255.41726999999975
 20
121.18351999999982
 40
0.3628800000002173
 50
0.0000000000269253
 51
89.999999999982052
  0
LINE
  8
_0-1_作画層１
  6
CONTINUOUS
 62
    7
 10
256.68734999999987
 20
122.81648000000001
 11
256.68734999999987
 21
123.58760000000001
  0
LINE
  8
_0-1_作画層１
  6
CONTINUOUS
 62
    7
 10
256.68734999999987
 20
121.18352000000002
 11
256.68734999999987
 21
120.41240000000002
  0
LINE
  8
_0-1_作画層１
  6
CONTINUOUS
 62
    7
 10
255.78014999999999
 20
122.81648000000001
 11
255.78014999999999
 21
123.58760000000001
  0
CIRCLE
  8
_0-1_作画層１
  6
CONTINUOUS
 62
    7
 10
256.23374999999993
 20
115.5
 40
1.26
  0
CIRCLE
  8
_0-1_作画層１
  6
CONTINUOUS
 62
    7
 10
201.23374999999993
 20
115.5
 40
1.26
  0
LINE
  8
_0-1_作画層１
  6
CONTINUOUS
 62
    7
 10
206.09749999999997
 20
112.875
 11
206.09749999999997
 21
125.75
  0
LINE
  8
_0-1_作画層１
  6
CONTINUOUS
 62
    7
 10
251.55874999999992
 20
112.875
 11
251.55874999999992
 21
125.75
  0
LINE
  8
_0-1_作画層１
  6
CONTINUOUS
 62
    7
 10
249.98374999999993
 20
109.875
 11
249.98374999999993
 21
75.25
  0
LINE
  8
_0-1_作画層１
  6
CONTINUOUS
 62
    7
 10
207.67249999999996
 20
109.875
 11
207.67249999999996
 21
75.25
  0
LINE
  8
_0-1_作画層１
  6
CONTINUOUS
 62
    7
 10
251.55874999999992
 20
109.875
 11
259.75
 21
109.875
  0
LINE
  8
_0-1_作画層１
  6
CONTINUOUS
 62
    7
 10
207.67249999999996
 20
109.875
 11
249.98374999999993
 21
109.875
  0
LINE
  8
_0-1_作画層１
  6
CONTINUOUS
 62
    7
 10
206.09749999999997
 20
109.875
 11
196.75
 21
109.875
  0
CIRCLE
  8
_0-1_作画層１
  6
CONTINUOUS
 62
    7
 10
201.39857817589575
 20
106.09511400651468
 40
1.512
  0
LINE
  8
_0-1_作画層１
  6
CONTINUOUS
 62
    7
 10
196.75
 20
112.875
 11
206.09749999999997
 21
112.875
  0
LINE
  8
_0-1_作画層１
  6
CONTINUOUS
 62
    7
 10
196.75
 20
118.25
 11
206.09749999999997
 21
118.25
  0
LINE
  8
_0-1_作画層１
  6
CONTINUOUS
 62
    7
 10
259.75
 20
112.875
 11
251.79249999999985
 21
112.875
  0
LINE
  8
_0-1_作画層１
  6
CONTINUOUS
 62
    7
 10
259.75
 20
118.25
 11
251.79249999999985
 21
118.25
  0
CIRCLE
  8
_0-1_作画層１
  6
CONTINUOUS
 62
    7
 10
201.39857817589575
 20
78.595114006514663
 40
1.512
  0
CIRCLE
  8
_0-1_作画層１
  6
CONTINUOUS
 62
    7
 10
255.39857817589575
 20
78.595114006514663
 40
1.512
  0
CIRCLE
  8
_0-1_作画層１
  6
CONTINUOUS
 62
    7
 10
255.39857817589575
 20
106.09511400651468
 40
1.512
  0
LINE
  8
_0-1_作画層１
  6
CONTINUOUS
 62
    7
 10
207.67249999999996
 20
82.75
 11
196.75
 21
82.75
  0
LINE
  8
_0-1_作画層１
  6
CONTINUOUS
 62
    7
 10
207.67249999999996
 20
102.25
 11
196.75
 21
102.25
  0
LINE
  8
_0-1_作画層１
  6
CONTINUOUS
 62
    7
 10
206.09749999999997
 20
82.75
 11
206.09749999999997
 21
75.25
  0
LINE
  8
_0-1_作画層１
  6
CONTINUOUS
 62
    7
 10
206.09749999999997
 20
102.25
 11
206.09749999999997
 21
109.875
  0
LINE
  8
_0-1_作画層１
  6
CONTINUOUS
 62
    7
 10
249.98374999999993
 20
82.75
 11
259.75
 21
82.75
  0
LINE
  8
_0-1_作画層１
  6
CONTINUOUS
 62
    7
 10
249.98374999999993
 20
102.25
 11
259.75
 21
102.25
  0
LINE
  8
_0-1_作画層１
  6
CONTINUOUS
 62
    7
 10
251.55874999999992
 20
102.25
 11
251.55874999999992
 21
109.875
  0
LINE
  8
_0-1_作画層１
  6
CONTINUOUS
 62
    7
 10
251.55874999999992
 20
82.75
 11
251.55874999999992
 21
75.25
  0
LINE
  8
_0-1_作画層１
  6
CONTINUOUS
 62
    7
 10
208.75
 20
108.75
 11
248.75
 21
108.75
  0
LINE
  8
_0-1_作画層１
  6
CONTINUOUS
 62
    7
 10
248.75
 20
108.75
 11
248.75
 21
76.25
  0
LINE
  8
_0-1_作画層１
  6
CONTINUOUS
 62
    7
 10
248.75
 20
76.25
 11
208.75
 21
76.25
  0
LINE
  8
_0-1_作画層１
  6
CONTINUOUS
 62
    7
 10
208.75
 20
76.25
 11
208.75
 21
108.75
  0
CIRCLE
  8
_0-1_作画層１
  6
CONTINUOUS
 62
    7
 10
213.25
 20
78.75
 40
2
  0
LINE
  8
_0-1_作画層１
  6
CONTINUOUS
 62
    7
 10
213.19999999999999
 20
80.749374902313221
 11
213.19999999999999
 21
82.774999999999991
  0
CIRCLE
  8
_0-1_作画層１
  6
CONTINUOUS
 62
    7
 10
220.25
 20
78.75
 40
2
  0
LINE
  8
_0-1_作画層１
  6
CONTINUOUS
 62
    7
 10
220.28750000000002
 20
80.749648406595526
 11
220.28750000000002
 21
82.774999999999991
  0
CIRCLE
  8
_0-1_作画層１
  6
CONTINUOUS
 62
    7
 10
216.625
 20
82.5
 40
2
  0
ARC
  8
_0-1_作画層１
  6
CONTINUOUS
 62
    7
 10
216
 20
82.563989786731568
 40
0.6282672144923301
 50
185.84578235473504
 51
354.15421764526491
  0
ARC
  8
_0-1_作画層１
  6
CONTINUOUS
 62
    7
 10
217.25
 20
82.436010213268432
 40
0.6282672144923301
 50
5.8457823547350385
 51
174.15421764526499
  0
LINE
  8
_0-1_作画層１
  6
CONTINUOUS
 62
    7
 10
214.64399646643426
 20
82.774999999999991
 11
213.19999999999999
 21
82.774999999999991
  0
LINE
  8
_0-1_作画層１
  6
CONTINUOUS
 62
    7
 10
218.60600353356574
 20
82.774999999999991
 11
220.28750000000002
 21
82.774999999999991
  0
CIRCLE
  8
_0-1_作画層１
  6
CONTINUOUS
 62
    7
 10
229.71875
 20
82.774999999999991
 40
0.5062499999999998
  0
CIRCLE
  8
_0-1_作画層１
  6
CONTINUOUS
 62
    7
 10
233.76875000000001
 20
82.774999999999991
 40
0.5062499999999998
  0
LINE
  8
_0-1_作画層１
  6
CONTINUOUS
 62
    7
 10
229.21249999999998
 20
82.774999999999991
 11
228.19999999999999
 21
82.774999999999991
  0
LINE
  8
_0-1_作画層１
  6
CONTINUOUS
 62
    7
 10
234.27499999999998
 20
82.774999999999991
 11
235.28750000000002
 21
82.774999999999991
  0
LINE
  8
_0-1_作画層１
  6
CONTINUOUS
 62
    7
 10
230.02249999999998
 20
83.179999999999993
 11
233.26249999999999
 21
84.799999999999997
  0
CIRCLE
  8
_0-1_作画層１
  6
CONTINUOUS
 62
    7
 10
228.25
 20
78.75
 40
2
  0
LINE
  8
_0-1_作画層１
  6
CONTINUOUS
 62
    7
 10
228.19999999999999
 20
80.749374902313221
 11
228.19999999999999
 21
82.774999999999991
  0
CIRCLE
  8
_0-1_作画層１
  6
CONTINUOUS
 62
    7
 10
235.25
 20
78.75
 40
2
  0
LINE
  8
_0-1_作画層１
  6
CONTINUOUS
 62
    7
 10
235.28750000000002
 20
80.749648406595526
 11
235.28750000000002
 21
82.774999999999991
  0
TEXT
  8
_0-7_注記層１
 62
    7
 10
230.75
 20
79.5
 40
3.5
 41
1
 50
0
  1
1
  0
TEXT
  8
_0-7_注記層１
 62
    7
 10
212.375
 20
77
 40
3.5
 41
1
 50
0
  1
1
  0
TEXT
  8
_0-7_注記層１
 62
    7
 10
219.375
 20
77
 40
3.5
 41
1
 50
0
  1
2
  0
TEXT
  8
_0-7_注記層１
 62
    7
 10
227.375
 20
77
 40
3.5
 41
1
 50
0
  1
3
  0
TEXT
  8
_0-7_注記層１
 62
    7
 10
234.375
 20
77
 40
3.5
 41
1
 50
0
  1
4
  0
LINE
  8
_0-1_作画層１
  6
CONTINUOUS
 62
    7
 10
207.74999999999994
 20
125.75
 11
243.74999999999994
 21
125.75
  0
CIRCLE
  8
_0-1_作画層１
  6
CONTINUOUS
 62
    7
 10
220.0137499999999
 20
119
 40
3.1499999999999999
  0
LINE
  8
_0-1_作画層１
  6
CONTINUOUS
 62
    7
 10
219.22624999999994
 20
121.75625000000002
 11
220.80124999999992
 21
121.75625000000002
  0
LINE
  8
_0-1_作画層１
  6
CONTINUOUS
 62
    7
 10
220.80124999999992
 20
116.24375000000001
 11
219.22624999999994
 21
116.24375000000001
  0
LINE
  8
_0-1_作画層１
  6
CONTINUOUS
 62
    7
 10
222.76999999999992
 20
119.78750000000002
 11
222.76999999999992
 21
118.21250000000001
  0
LINE
  8
_0-1_作画層１
  6
CONTINUOUS
 62
    7
 10
217.25749999999994
 20
118.21250000000001
 11
217.25749999999994
 21
119.78750000000002
  0
ARC
  8
_0-1_作画層１
  6
CONTINUOUS
 62
    7
 10
218.59624999999994
 20
120.41750000000005
 40
0.6299999999999954
 50
270
 51
359.99999999999477
  0
LINE
  8
_0-1_作画層１
  6
CONTINUOUS
 62
    7
 10
217.25749999999994
 20
118.21250000000001
 11
218.59624999999994
 21
118.21250000000001
  0
ARC
  8
_0-1_作画層１
  6
CONTINUOUS
 62
    7
 10
218.59624999999994
 20
117.58249999999998
 40
0.6300000000000237
 50
0
 51
90
  0
LINE
  8
_0-1_作画層１
  6
CONTINUOUS
 62
    7
 10
222.76999999999992
 20
119.78750000000002
 11
221.43124999999992
 21
119.78750000000002
  0
ARC
  8
_0-1_作画層１
  6
CONTINUOUS
 62
    7
 10
221.43124999999992
 20
120.41750000000005
 40
0.6300000000000237
 50
180.00000000000517
 51
270
  0
LINE
  8
_0-1_作画層１
  6
CONTINUOUS
 62
    7
 10
218.59625008010858
 20
119.78750000000002
 11
217.25749999999994
 21
119.78750000000002
  0
LINE
  8
_0-1_作画層１
  6
CONTINUOUS
 62
    7
 10
222.76999999999992
 20
118.21250000000001
 11
221.43124999999992
 21
118.21250000000001
  0
LINE
  8
_0-1_作画層１
  6
CONTINUOUS
 62
    7
 10
220.80124999999992
 20
116.24375000000001
 11
220.80124999999992
 21
117.58249999999998
  0
ARC
  8
_0-1_作画層１
  6
CONTINUOUS
 62
    7
 10
221.43124999999992
 20
117.58249999999998
 40
0.6300000000000237
 50
90
 51
180
  0
LINE
  8
_0-1_作画層１
  6
CONTINUOUS
 62
    7
 10
219.22624999999994
 20
120.41749999999999
 11
219.22624999999994
 21
121.75625000000002
  0
LINE
  8
_0-1_作画層１
  6
CONTINUOUS
 62
    7
 10
219.22624999999994
 20
117.58250000000001
 11
219.22624999999994
 21
116.24375000000001
  0
LINE
  8
_0-1_作画層１
  6
CONTINUOUS
 62
    7
 10
220.80124999999992
 20
120.41749999999999
 11
220.80124999999992
 21
121.75625000000002
  0
CIRCLE
  8
_0-1_作画層１
  6
CONTINUOUS
 62
    7
 10
228.64249999999993
 20
119
 40
3.1499999999999999
  0
LINE
  8
_0-1_作画層１
  6
CONTINUOUS
 62
    7
 10
227.8549999999999
 20
121.75625000000002
 11
229.42999999999989
 21
121.75625000000002
  0
LINE
  8
_0-1_作画層１
  6
CONTINUOUS
 62
    7
 10
229.42999999999989
 20
116.24375000000001
 11
227.8549999999999
 21
116.24375000000001
  0
LINE
  8
_0-1_作画層１
  6
CONTINUOUS
 62
    7
 10
231.39874999999989
 20
119.78750000000002
 11
231.39874999999989
 21
118.21250000000001
  0
LINE
  8
_0-1_作画層１
  6
CONTINUOUS
 62
    7
 10
225.8862499999999
 20
118.21250000000001
 11
225.8862499999999
 21
119.78750000000002
  0
ARC
  8
_0-1_作画層１
  6
CONTINUOUS
 62
    7
 10
227.22499999999991
 20
120.41750000000005
 40
0.6299999999999954
 50
270
 51
359.99999999999477
  0
LINE
  8
_0-1_作画層１
  6
CONTINUOUS
 62
    7
 10
225.8862499999999
 20
118.21250000000001
 11
227.22499999999991
 21
118.21250000000001
  0
ARC
  8
_0-1_作画層１
  6
CONTINUOUS
 62
    7
 10
227.22499999999991
 20
117.58249999999998
 40
0.6300000000000237
 50
0
 51
90
  0
LINE
  8
_0-1_作画層１
  6
CONTINUOUS
 62
    7
 10
231.39874999999989
 20
119.78750000000002
 11
230.05999999999989
 21
119.78750000000002
  0
ARC
  8
_0-1_作画層１
  6
CONTINUOUS
 62
    7
 10
230.05999999999989
 20
120.41750000000005
 40
0.6300000000000237
 50
180.00000000000517
 51
270
  0
LINE
  8
_0-1_作画層１
  6
CONTINUOUS
 62
    7
 10
227.2250000801086
 20
119.78750000000002
 11
225.8862499999999
 21
119.78750000000002
  0
LINE
  8
_0-1_作画層１
  6
CONTINUOUS
 62
    7
 10
231.39874999999989
 20
118.21250000000001
 11
230.05999999999989
 21
118.21250000000001
  0
LINE
  8
_0-1_作画層１
  6
CONTINUOUS
 62
    7
 10
229.42999999999989
 20
116.24375000000001
 11
229.42999999999989
 21
117.58249999999998
  0
ARC
  8
_0-1_作画層１
  6
CONTINUOUS
 62
    7
 10
230.05999999999989
 20
117.58249999999998
 40
0.6300000000000237
 50
90
 51
180
  0
LINE
  8
_0-1_作画層１
  6
CONTINUOUS
 62
    7
 10
227.8549999999999
 20
120.41749999999999
 11
227.8549999999999
 21
121.75625000000002
  0
LINE
  8
_0-1_作画層１
  6
CONTINUOUS
 62
    7
 10
227.8549999999999
 20
117.58250000000001
 11
227.8549999999999
 21
116.24375000000001
  0
LINE
  8
_0-1_作画層１
  6
CONTINUOUS
 62
    7
 10
229.42999999999989
 20
120.41749999999999
 11
229.42999999999989
 21
121.75625000000002
  0
LINE
  8
_0-1_作画層１
  6
CONTINUOUS
 62
    7
 10
214.93274756441741
 20
113.375
 11
214.93274756441741
 21
125.75
  0
LINE
  8
_0-1_作画層１
  6
CONTINUOUS
 62
    7
 10
224.09749999999997
 20
113.375
 11
224.09749999999997
 21
125.75
  0
LINE
  8
_0-1_作画層１
  6
CONTINUOUS
 62
    7
 10
225.67249999999996
 20
113.375
 11
225.67249999999996
 21
125.75
  0
LINE
  8
_0-1_作画層１
  6
CONTINUOUS
 62
    7
 10
216.7318847050625
 20
113.375
 11
216.7318847050625
 21
125.75
  0
LINE
  8
_0-1_作画層１
  6
CONTINUOUS
 62
    7
 10
232.53499999999997
 20
113.375
 11
232.53499999999997
 21
125.75
  0
LINE
  8
_0-1_作画層１
  6
CONTINUOUS
 62
    7
 10
241.3549999999999
 20
113.375
 11
241.3549999999999
 21
125.75
  0
LINE
  8
_0-1_作画層１
  6
CONTINUOUS
 62
    7
 10
242.92999999999989
 20
113.375
 11
242.92999999999989
 21
125.75
  0
LINE
  8
_0-1_作画層１
  6
CONTINUOUS
 62
    7
 10
233.74999999999994
 20
113.375
 11
233.74999999999994
 21
125.75
  0
CIRCLE
  8
_0-1_作画層１
  6
CONTINUOUS
 62
    7
 10
246.39999999999986
 20
119
 40
2.52
  0
LINE
  8
_0-1_作画層１
  6
CONTINUOUS
 62
    7
 10
242.92999999999989
 20
113.375
 11
249.98374999999993
 21
113.375
  0
LINE
  8
_0-1_作画層１
  6
CONTINUOUS
 62
    7
 10
233.74999999999994
 20
113.375
 11
241.3549999999999
 21
113.375
  0
LINE
  8
_0-1_作画層１
  6
CONTINUOUS
 62
    7
 10
225.67249999999996
 20
113.375
 11
232.53499999999997
 21
113.375
  0
LINE
  8
_0-1_作画層１
  6
CONTINUOUS
 62
    7
 10
216.7318847050625
 20
113.375
 11
224.09749999999997
 21
113.375
  0
LINE
  8
_0-1_作画層１
  6
CONTINUOUS
 62
    7
 10
207.67249999999996
 20
113.375
 11
214.93274756441741
 21
113.375
  0
LINE
  8
_0-1_作画層１
  6
CONTINUOUS
 62
    7
 10
249.98374999999993
 20
113.375
 11
249.98374999999993
 21
125.75
  0
LINE
  8
_0-1_作画層１
  6
CONTINUOUS
 62
    7
 10
207.67249999999996
 20
113.375
 11
207.67249999999996
 21
125.75
  0
CIRCLE
  8
_0-1_作画層１
  6
CONTINUOUS
 62
    7
 10
237.77124999999984
 20
119
 40
2.52
  0
CIRCLE
  8
_0-1_作画層１
  6
CONTINUOUS
 62
    7
 10
211.34899756441735
 20
119
 40
2.52
  0
CIRCLE
  8
_0-1_作画層１
  6
CONTINUOUS
 62
    7
 10
222.21875
 20
102.22500000000002
 40
0.5062499999999998
  0
CIRCLE
  8
_0-1_作画層１
  6
CONTINUOUS
 62
    7
 10
226.26875000000001
 20
102.22500000000002
 40
0.5062499999999998
  0
LINE
  8
_0-1_作画層１
  6
CONTINUOUS
 62
    7
 10
221.71249999999998
 20
102.22500000000002
 11
220.69999999999999
 21
102.22500000000002
  0
LINE
  8
_0-1_作画層１
  6
CONTINUOUS
 62
    7
 10
226.77499999999998
 20
102.22500000000002
 11
227.78750000000002
 21
102.22500000000002
  0
LINE
  8
_0-1_作画層１
  6
CONTINUOUS
 62
    7
 10
222.52249999999998
 20
101.81999999999999
 11
225.76249999999999
 21
100.19999999999999
  0
CIRCLE
  8
_0-1_作画層１
  6
CONTINUOUS
 62
    7
 10
220.75
 20
106.25
 40
2
  0
LINE
  8
_0-1_作画層１
  6
CONTINUOUS
 62
    7
 10
220.69999999999999
 20
104.25062509768679
 11
220.69999999999999
 21
102.22500000000002
  0
CIRCLE
  8
_0-1_作画層１
  6
CONTINUOUS
 62
    7
 10
227.75
 20
106.25
 40
2
  0
LINE
  8
_0-1_作画層１
  6
CONTINUOUS
 62
    7
 10
227.78750000000002
 20
104.25035159340447
 11
227.78750000000002
 21
102.22500000000002
  0
TEXT
  8
_0-7_注記層１
 62
    7
 10
219.875
 20
104.5
 40
3.5
 41
1
 50
0
  1
7
  0
TEXT
  8
_0-7_注記層１
 62
    7
 10
226.875
 20
104.5
 40
3.5
 41
1
 50
0
  1
8
  0
TEXT
  8
_0-7_注記層１
 62
    7
 10
223.25
 20
102
 40
3.5
 41
1
 50
0
  1
2
  0
LINE
  8
_0-1_作画層１
  6
CONTINUOUS
 62
    7
 10
284.75
 20
81.25
 11
318.75
 21
81.25
  0
LINE
  8
_0-1_作画層１
  6
CONTINUOUS
 62
    7
 10
318.75
 20
81.25
 11
318.75
 21
115.25
  0
LINE
  8
_0-1_作画層１
  6
CONTINUOUS
 62
    7
 10
318.75
 20
115.25
 11
284.75
 21
115.25
  0
LINE
  8
_0-1_作画層１
  6
CONTINUOUS
 62
    7
 10
284.75
 20
115.25
 11
284.75
 21
81.25
  0
LINE
  8
_0-1_作画層１
  6
CONTINUOUS
 62
    7
 10
318.75
 20
112.64213562373095
 11
316.14213562373095
 21
115.25
  0
LINE
  8
_0-1_作画層１
  6
CONTINUOUS
 62
    7
 10
318.75
 20
109.10660171779821
 11
312.60660171779818
 21
115.25
  0
LINE
  8
_0-1_作画層１
  6
CONTINUOUS
 62
    7
 10
318.75
 20
105.57106781186548
 11
309.07106781186548
 21
115.25
  0
LINE
  8
_0-1_作画層１
  6
CONTINUOUS
 62
    7
 10
318.75
 20
102.03553390593274
 11
305.53553390593277
 21
115.25
  0
LINE
  8
_0-1_作画層１
  6
CONTINUOUS
 62
    7
 10
318.75
 20
98.5
 11
302
 21
115.25
  0
LINE
  8
_0-1_作画層１
  6
CONTINUOUS
 62
    7
 10
318.75
 20
94.964466094067262
 11
298.46446609406723
 21
115.25
  0
LINE
  8
_0-1_作画層１
  6
CONTINUOUS
 62
    7
 10
318.75
 20
91.428932188134524
 11
294.92893218813452
 21
115.25
  0
LINE
  8
_0-1_作画層１
  6
CONTINUOUS
 62
    7
 10
318.75
 20
87.893398282201758
 11
291.39339828220176
 21
115.25
  0
LINE
  8
_0-1_作画層１
  6
CONTINUOUS
 62
    7
 10
318.75
 20
84.357864376269049
 11
287.85786437626905
 21
115.25
  0
LINE
  8
_0-1_作画層１
  6
CONTINUOUS
 62
    7
 10
318.32233047033628
 20
81.25
 11
284.75
 21
114.82233047033631
  0
LINE
  8
_0-1_作画層１
  6
CONTINUOUS
 62
    7
 10
314.78679656440357
 20
81.25
 11
284.75
 21
111.28679656440357
  0
LINE
  8
_0-1_作画層１
  6
CONTINUOUS
 62
    7
 10
311.25126265847086
 20
81.25
 11
284.75
 21
107.75126265847084
  0
LINE
  8
_0-1_作画層１
  6
CONTINUOUS
 62
    7
 10
307.7157287525381
 20
81.25
 11
284.75
 21
104.2157287525381
  0
LINE
  8
_0-1_作画層１
  6
CONTINUOUS
 62
    7
 10
304.18019484660533
 20
81.25
 11
284.75
 21
100.68019484660536
  0
LINE
  8
_0-1_作画層１
  6
CONTINUOUS
 62
    7
 10
300.64466094067262
 20
81.25
 11
284.75
 21
97.144660940672622
  0
LINE
  8
_0-1_作画層１
  6
CONTINUOUS
 62
    7
 10
297.10912703473991
 20
81.25
 11
284.75
 21
93.609127034739885
  0
LINE
  8
_0-1_作画層１
  6
CONTINUOUS
 62
    7
 10
293.57359312880715
 20
81.25
 11
284.75
 21
90.073593128807147
  0
LINE
  8
_0-1_作画層１
  6
CONTINUOUS
 62
    7
 10
290.03805922287438
 20
81.25
 11
284.75
 21
86.538059222874409
  0
LINE
  8
_0-1_作画層１
  6
CONTINUOUS
 62
    7
 10
286.50252531694167
 20
81.25
 11
284.75
 21
83.002525316941671
  0
INSERT
  2
-006-_D6
  8
_0-9_寸法線層１
 10
-55.25
 20
-38.75
 41
1
 42
1
 50
0
  0
INSERT
  2
-007-_D7
  8
_0-9_寸法線層１
 10
-55.25
 20
-38.75
 41
1
 42
1
 50
0
  0
TEXT
  8
_0-7_注記層１
 62
    7
 10
281.25
 20
64.25
 40
4
 41
1
 50
0
  1
パネルカット寸法 1／2
  0
LINE
  8
_0-1_作画層１
  6
CONTINUOUS
 62
    7
 10
327.25
 20
63.75
 11
279.75
 21
63.75
  0
LINE
  8
_0-1_作画層１
  6
CONTINUOUS
 62
    7
 10
105.375
 20
27.5
 11
105.375
 21
25
  0
CIRCLE
  8
_0-1_作画層１
  6
CONTINUOUS
 62
    7
 10
131
 20
48.75
 40
1.25
  0
CIRCLE
  8
_0-1_作画層１
  6
CONTINUOUS
 62
    7
 10
141
 20
48.75
 40
1.25
  0
LINE
  8
_0-1_作画層１
  6
CONTINUOUS
 62
    7
 10
129.75
 20
48.75
 11
127.25
 21
48.75
  0
LINE
  8
_0-1_作画層１
  6
CONTINUOUS
 62
    7
 10
142.25
 20
48.75
 11
144.75
 21
48.75
  0
LINE
  8
_0-1_作画層１
  6
CONTINUOUS
 62
    7
 10
127.25
 20
33.75
 11
127.25
 21
48.75
  0
LINE
  8
_0-1_作画層１
  6
CONTINUOUS
 62
    7
 10
144.75
 20
33.75
 11
144.75
 21
48.75
  0
LINE
  8
_0-1_作画層１
  6
CONTINUOUS
 62
    7
 10
131.75
 20
49.75
 11
139.75
 21
53.75
  0
LINE
  8
_0-1_作画層１
  6
CONTINUOUS
 62
    7
 10
92.25
 20
48.75
 11
92.25
 21
33.75
  0
LINE
  8
_0-1_作画層１
  6
CONTINUOUS
 62
    7
 10
109.75
 20
48.75
 11
109.75
 21
33.75
  0
TEXT
  8
_0-7_注記層１
 62
    7
 10
92.625
 20
49.5
 40
3.5
 41
1
 50
0
  1
内 部 回 路
  0
LINE
  8
_0-1_作画層１
  6
CONTINUOUS
 62
    7
 10
89.75
 20
53.75
 11
89.75
 21
48.75
  0
LINE
  8
_0-1_作画層１
  6
CONTINUOUS
 62
    7
 10
112.25
 20
48.75
 11
112.25
 21
53.75
  0
LINE
  8
_0-1_作画層１
  6
CONTINUOUS
 62
    7
 10
89.75
 20
48.75
 11
112.25
 21
48.75
  0
LINE
  8
_0-1_作画層１
  6
CONTINUOUS
 62
    7
 10
89.75
 20
53.75
 11
112.25
 21
53.75
  0
CIRCLE
  8
_0-1_作画層１
  6
CONTINUOUS
 62
    7
 10
197.25
 20
26.25
 40
5
  0
LINE
  8
_0-1_作画層１
  6
CONTINUOUS
 62
    7
 10
198.5
 20
30.625
 11
196
 21
30.625
  0
LINE
  8
_0-1_作画層１
  6
CONTINUOUS
 62
    7
 10
196
 20
21.875
 11
198.5
 21
21.875
  0
LINE
  8
_0-1_作画層１
  6
CONTINUOUS
 62
    7
 10
192.875
 20
27.5
 11
192.875
 21
25
  0
LINE
  8
_0-1_作画層１
  6
CONTINUOUS
 62
    7
 10
201.625
 20
25
 11
201.625
 21
27.5
  0
ARC
  8
_0-1_作画層１
  6
CONTINUOUS
 62
    7
 10
199.49999999999997
 20
28.499999999999986
 40
0.9999999999999714
 50
179.99999999999918
 51
270.00000000000171
  0
LINE
  8
_0-1_作画層１
  6
CONTINUOUS
 62
    7
 10
201.625
 20
25
 11
199.5
 21
25
  0
ARC
  8
_0-1_作画層１
  6
CONTINUOUS
 62
    7
 10
199.49999999999997
 20
24.000000000000028
 40
0.9999999999999785
 50
89.99999999999838
 51
180.00000000000122
  0
LINE
  8
_0-1_作画層１
  6
CONTINUOUS
 62
    7
 10
192.875
 20
27.5
 11
195
 21
27.5
  0
ARC
  8
_0-1_作画層１
  6
CONTINUOUS
 62
    7
 10
195.00000000000003
 20
28.499999999999986
 40
0.9999999999999856
 50
269.99999999999835
 51
0.0000000000008142
  0
LINE
  8
_0-1_作画層１
  6
CONTINUOUS
 62
    7
 10
199.4999998728434
 20
27.5
 11
201.625
 21
27.5
  0
LINE
  8
_0-1_作画層１
  6
CONTINUOUS
 62
    7
 10
192.875
 20
25
 11
195
 21
25
  0
LINE
  8
_0-1_作画層１
  6
CONTINUOUS
 62
    7
 10
196
 20
21.875
 11
196
 21
24
  0
ARC
  8
_0-1_作画層１
  6
CONTINUOUS
 62
    7
 10
195.00000000000003
 20
24.000000000000028
 40
0.9999999999999785
 50
359.99999999999881
 51
90.00000000000162
  0
LINE
  8
_0-1_作画層１
  6
CONTINUOUS
 62
    7
 10
198.5
 20
28.499999999999972
 11
198.5
 21
30.625
  0
LINE
  8
_0-1_作画層１
  6
CONTINUOUS
 62
    7
 10
198.5
 20
24.000000000000014
 11
198.5
 21
21.875
  0
LINE
  8
_0-1_作画層１
  6
CONTINUOUS
 62
    7
 10
196
 20
28.499999999999972
 11
196
 21
30.625
  0
CIRCLE
  8
_0-1_作画層１
  6
CONTINUOUS
 62
    7
 10
179.75
 20
26.25
 40
5
  0
CIRCLE
  8
_0-1_作画層１
  6
CONTINUOUS
 62
    7
 10
162.25
 20
26.25
 40
5
  0
CIRCLE
  8
_0-1_作画層１
  6
CONTINUOUS
 62
    7
 10
214.75
 20
26.25
 40
5
  0
LINE
  8
_0-1_作画層１
  6
CONTINUOUS
 62
    7
 10
216
 20
30.625
 11
213.5
 21
30.625
  0
LINE
  8
_0-1_作画層１
  6
CONTINUOUS
 62
    7
 10
213.5
 20
21.875
 11
216
 21
21.875
  0
LINE
  8
_0-1_作画層１
  6
CONTINUOUS
 62
    7
 10
210.375
 20
27.5
 11
210.375
 21
25
  0
LINE
  8
_0-1_作画層１
  6
CONTINUOUS
 62
    7
 10
219.125
 20
25
 11
219.125
 21
27.5
  0
ARC
  8
_0-1_作画層１
  6
CONTINUOUS
 62
    7
 10
217
 20
28.499999999999986
 40
1
 50
179.99999999999918
 51
270
  0
LINE
  8
_0-1_作画層１
  6
CONTINUOUS
 62
    7
 10
219.125
 20
25
 11
217
 21
25
  0
ARC
  8
_0-1_作画層１
  6
CONTINUOUS
 62
    7
 10
217
 20
24.000000000000028
 40
0.9999999999999785
 50
90
 51
180.00000000000122
  0
LINE
  8
_0-1_作画層１
  6
CONTINUOUS
 62
    7
 10
210.375
 20
27.5
 11
212.5
 21
27.5
  0
ARC
  8
_0-1_作画層１
  6
CONTINUOUS
 62
    7
 10
212.5
 20
28.499999999999986
 40
0.9999999999999856
 50
270
 51
0.0000000000008014
  0
LINE
  8
_0-1_作画層１
  6
CONTINUOUS
 62
    7
 10
216.99999987284343
 20
27.5
 11
219.125
 21
27.5
  0
LINE
  8
_0-1_作画層１
  6
CONTINUOUS
 62
    7
 10
210.375
 20
25
 11
212.5
 21
25
  0
LINE
  8
_0-1_作画層１
  6
CONTINUOUS
 62
    7
 10
213.5
 20
21.875
 11
213.5
 21
24
  0
ARC
  8
_0-1_作画層１
  6
CONTINUOUS
 62
    7
 10
212.5
 20
24.000000000000028
 40
0.9999999999999785
 50
359.99999999999881
 51
89.999999999999929
  0
LINE
  8
_0-1_作画層１
  6
CONTINUOUS
 62
    7
 10
216
 20
28.5
 11
216
 21
30.625
  0
LINE
  8
_0-1_作画層１
  6
CONTINUOUS
 62
    7
 10
216
 20
24.000000000000014
 11
216
 21
21.875
  0
LINE
  8
_0-1_作画層１
  6
CONTINUOUS
 62
    7
 10
213.5
 20
28.5
 11
213.5
 21
30.625
  0
CIRCLE
  8
_0-1_作画層１
  6
CONTINUOUS
 62
    7
 10
232.25
 20
26.25
 40
5
  0
CIRCLE
  8
_0-1_作画層１
  6
CONTINUOUS
 62
    7
 10
249.75
 20
26.25
 40
5
  0
LINE
  8
_0-1_作画層１
  6
CONTINUOUS
 62
    7
 10
259.75
 20
33.75
 11
259.75
 21
18.75
  0
LINE
  8
_0-1_作画層１
  6
DASHED
 62
    7
 10
272.25
 20
26.25
 11
259.75
 21
26.25
  0
LINE
  8
_0-1_作画層１
  6
DASHED
 62
    7
 10
272.25
 20
26.25
 11
272.25
 21
53.75
  0
TEXT
  8
_0-7_注記層１
 62
    7
 10
158.5
 20
-1.25
 40
3.5
 41
1
 50
0
  1
負荷用電源
  0
LINE
  8
_0-1_作画層１
  6
CONTINUOUS
 62
    7
 10
147.25
 20
3.75
 11
144.75
 21
3.75
  0
TEXT
  8
_0-7_注記層１
 62
    7
 10
148.75
 20
2
 40
3.5
 41
1
 50
0
  1
負荷
  0
LINE
  8
_0-1_作画層１
  6
CONTINUOUS
 62
    7
 10
147.25
 20
1.25
 11
157.25
 21
1.25
  0
LINE
  8
_0-1_作画層１
  6
CONTINUOUS
 62
    7
 10
157.25
 20
1.25
 11
157.25
 21
6.25
  0
LINE
  8
_0-1_作画層１
  6
CONTINUOUS
 62
    7
 10
157.25
 20
6.25
 11
147.25
 21
6.25
  0
LINE
  8
_0-1_作画層１
  6
CONTINUOUS
 62
    7
 10
147.25
 20
6.25
 11
147.25
 21
1.25
  0
LINE
  8
_0-1_作画層１
  6
CONTINUOUS
 62
    7
 10
157.25
 20
3.75
 11
174.75
 21
3.75
  0
LINE
  8
_0-1_作画層１
  6
CONTINUOUS
 62
    7
 10
127.25
 20
-3.75
 11
174.75
 21
-3.75
  0
LINE
  8
_0-1_作画層１
  6
CONTINUOUS
 62
    7
 10
127.25
 20
-3.75
 11
127.25
 21
18.75
  0
LINE
  8
_0-1_作画層１
  6
CONTINUOUS
 62
    7
 10
144.75
 20
3.75
 11
144.75
 21
18.75
  0
TEXT
  8
_0-7_注記層１
 62
    7
 10
228.5
 20
-1.25
 40
3.5
 41
1
 50
0
  1
負荷用電源
  0
LINE
  8
_0-1_作画層１
  6
CONTINUOUS
 62
    7
 10
217.25
 20
3.75
 11
214.75
 21
3.75
  0
TEXT
  8
_0-7_注記層１
 62
    7
 10
218.75
 20
2
 40
3.5
 41
1
 50
0
  1
負荷
  0
LINE
  8
_0-1_作画層１
  6
CONTINUOUS
 62
    7
 10
217.25
 20
1.25
 11
227.25
 21
1.25
  0
LINE
  8
_0-1_作画層１
  6
CONTINUOUS
 62
    7
 10
227.25
 20
1.25
 11
227.25
 21
6.25
  0
LINE
  8
_0-1_作画層１
  6
CONTINUOUS
 62
    7
 10
227.25
 20
6.25
 11
217.25
 21
6.25
  0
LINE
  8
_0-1_作画層１
  6
CONTINUOUS
 62
    7
 10
217.25
 20
6.25
 11
217.25
 21
1.25
  0
LINE
  8
_0-1_作画層１
  6
CONTINUOUS
 62
    7
 10
227.25
 20
3.75
 11
244.75
 21
3.75
  0
LINE
  8
_0-1_作画層１
  6
CONTINUOUS
 62
    7
 10
197.25
 20
-3.75
 11
244.75
 21
-3.75
  0
LINE
  8
_0-1_作画層１
  6
CONTINUOUS
 62
    7
 10
214.75
 20
3.75
 11
214.75
 21
18.75
  0
LINE
  8
_0-1_作画層１
  6
CONTINUOUS
 62
    7
 10
197.25
 20
-3.75
 11
197.25
 21
18.75
  0
CIRCLE
  8
_0-1_作画層１
  6
CONTINUOUS
 62
    7
 10
201
 20
48.75
 40
1.25
  0
CIRCLE
  8
_0-1_作画層１
  6
CONTINUOUS
 62
    7
 10
211
 20
48.75
 40
1.25
  0
LINE
  8
_0-1_作画層１
  6
CONTINUOUS
 62
    7
 10
199.75
 20
48.75
 11
197.25
 21
48.75
  0
LINE
  8
_0-1_作画層１
  6
CONTINUOUS
 62
    7
 10
212.25
 20
48.75
 11
214.75
 21
48.75
  0
LINE
  8
_0-1_作画層１
  6
CONTINUOUS
 62
    7
 10
197.25
 20
33.75
 11
197.25
 21
48.75
  0
LINE
  8
_0-1_作画層１
  6
CONTINUOUS
 62
    7
 10
214.75
 20
33.75
 11
214.75
 21
48.75
  0
LINE
  8
_0-1_作画層１
  6
CONTINUOUS
 62
    7
 10
201.75
 20
49.75
 11
209.75
 21
53.75
  0
TEXT
  8
_0-7_注記層１
 62
    7
 10
143.5
 20
49.5
 40
3.5
 41
1
 50
0
  1
接点出力１
  0
TEXT
  8
_0-7_注記層１
 62
    7
 10
213.5
 20
49.5
 40
3.5
 41
1
 50
0
  1
接点出力２
  0
TEXT
  8
_0-7_注記層１
 62
    7
 10
158.875
 20
14.5
 40
3.5
 41
1
 50
0
  1
5
  0
TEXT
  8
_0-7_注記層１
 62
    7
 10
176.375
 20
14.5
 40
3.5
 41
1
 50
0
  1
6
  0
TEXT
  8
_0-7_注記層１
 62
    7
 10
193.875
 20
14.5
 40
3.5
 41
1
 50
0
  1
7
  0
TEXT
  8
_0-7_注記層１
 62
    7
 10
211.375
 20
14.5
 40
3.5
 41
1
 50
0
  1
8
  0
TEXT
  8
_0-7_注記層１
 62
    7
 10
228.875
 20
14.5
 40
3.5
 41
1
 50
0
  1
9
  0
TEXT
  8
_0-7_注記層１
 62
    7
 10
245.5
 20
14.5
 40
3.5
 41
1
 50
0
  1
10
  0
TEXT
  8
_0-7_注記層１
 62
    7
 10
1.1970684039088155
 20
177.25
 40
2.6000000000000001
 41
1
 50
0
  1
日　月　火　水　木　金　土年　月日　時分
  0
LINE
  8
_0-1_作画層１
  6
CONTINUOUS
 62
    7
 10
169.75
 20
33.75
 11
169.75
 21
18.75
  0
LINE
  8
_0-1_作画層１
  6
CONTINUOUS
 62
    7
 10
172.25
 20
18.75
 11
172.25
 21
33.75
  0
LINE
  8
_0-1_作画層１
  6
CONTINUOUS
 62
    7
 10
84.75
 20
33.75
 11
169.75
 21
33.75
  0
LINE
  8
_0-1_作画層１
  6
CONTINUOUS
 62
    7
 10
172.25
 20
33.75
 11
259.75
 21
33.75
  0
LINE
  8
_0-1_作画層１
  6
CONTINUOUS
 62
    7
 10
84.75
 20
18.75
 11
169.75
 21
18.75
  0
LINE
  8
_0-1_作画層１
  6
CONTINUOUS
 62
    7
 10
172.25
 20
18.75
 11
259.75
 21
18.75
  0
TEXT
  8
_0-7_注記層１
 62
    7
 10
287.25
 20
-16.25
 40
4
 41
1
 50
0
  1
平野
  0
TEXT
  8
_0-7_注記層１
 62
    7
 10
48
 20
185
 40
2.5
 41
1.2
 50
0
  1
SSC-7372
  0
TEXT
  8
_0-7_注記層１
 62
    7
 10
0.3220684039088155
 20
146
 40
2.5
 41
1
 50
0
  1
時計　年間　週間  動作　入　切　　 　 ﾊﾟﾀｰﾝ
  0
TEXT
  8
_0-0_BaseLayer
 62
    7
 10
12.245584415584432
 20
142.01162337662336
 40
2.5
 41
1
 50
0
  1
期間
  0
LINE
  8
_0-0_BaseLayer
  6
CONTINUOUS
 62
    7
 10
10.262077922077964
 20
145.02642857142857
 11
17.871168831168859
 21
145.02642857142857
  0
LINE
  8
_0-0_BaseLayer
  6
CONTINUOUS
 62
    7
 10
17.871168831168859
 20
145.02642857142857
 11
17.871168831168859
 21
146.00824675324674
  0
LINE
  8
_0-0_BaseLayer
  6
CONTINUOUS
 62
    7
 10
10.262077922077964
 20
145.02642857142857
 11
10.262077922077964
 21
146.00824675324674
  0
TEXT
  8
_0-7_注記層１
 62
    7
 10
244.75
 20
227
 40
3.5
 41
1
 50
0
  1
SSC-7372P
  0
TEXT
  8
_0-7_注記層１
 62
    7
 10
244.75
 20
172
 40
3.5
 41
1
 50
0
  1
1分又は1秒（ﾊﾟﾙｽ動作）
  0
TEXT
  8
_0-7_注記層１
 62
    7
 10
257
 20
-15.5
 40
3.5
 41
1
 50
0
  1
石津
  0
TEXT
  8
_0-7_注記層１
 62
    7
 10
55.247068403908813
 20
165.75
 40
2.6000000000000001
 41
1
 50
0
  1
2ch
  0
TEXT
  8
_0-7_注記層１
 62
    7
 10
244.75
 20
143.5
 40
3.5
 41
1
 50
0
  1
取付け具、取付ビス２本
  0
TEXT
  8
_0-7_注記層１
 62
    7
 10
207.25
 20
137
 40
3.5
 41
1
 50
0
  1
※取付け具：取扱説明書を参照
  0
TEXT
  8
_0-7_注記層１
 62
    7
 10
302.25
 20
-26.25
 40
5
 41
1
 50
0
  1
SSC-7372P-001-02
  0
TEXT
  8
_0-7_注記層１
 62
    7
 10
211
 20
-15.5
 40
3.5
 41
1
 50
0
  1
2020.04.21
  0
TEXT
  8
_0-0_BaseLayer
 62
    7
 10
211.20775113550985
 20
-8.5227471228058107
 40
3.5
 41
1
 50
0
  1
2020.04.21：取付け具変更
  0
ENDSEC
  0
EOF
