  0
SECTION
  2
HEADER
  9
$ACADVER
  1
AC1009
  9
$INSBASE
 10
0
 20
0
 30
0
  9
$EXTMIN
 10
0
 20
0
  9
$EXTMAX
 10
420
 20
297
  9
$LIMMIN
 10
0
 20
0
  9
$LIMMAX
 10
420
 20
297
  9
$LTSCALE
 40
1
  0
ENDSEC
  0
SECTION
  2
TABLES
  0
TABLE
  2
LTYPE
 70
     9
  0
LTYPE
  2
CONTINUOUS
 70
    64
  3
実線
 72
    65
 73
     0
 40
0.0
  0
LTYPE
  2
DASHED1
 70
    64
  3
--  --  --  --  --  --  --  --  
 72
    65
 73
     2
 40
2.5
 49
1.25
 49
-1.25
  0
LTYPE
  2
DASHED2
 70
    64
  3
----    ----    ----    ----    
 72
    65
 73
     2
 40
5.0
 49
2.5
 49
-2.5
  0
LTYPE
  2
DASHED3
 70
    64
  3
------  ------  ------  ------  
 72
    65
 73
     2
 40
5.0
 49
3.75
 49
-1.25
  0
LTYPE
  2
CENTER1
 70
    64
  3
----- - ----- - ----- - ----- - 
 72
    65
 73
     4
 40
10.0
 49
6.25
 49
-1.25
 49
1.25
 49
-1.25
  0
LTYPE
  2
CENTER2
 70
    64
  3
----------  --  ----------  --  
 72
    65
 73
     4
 40
20.0
 49
12.5
 49
-2.5
 49
2.5
 49
-2.5
  0
LTYPE
  2
PHANTOM1
 70
    64
  3
--- - - --- - - --- - - --- - - 
 72
    65
 73
     6
 40
10.0
 49
3.25
 49
-1.25
 49
1.25
 49
-1.25
 49
1.25
 49
-1.25
  0
LTYPE
  2
PHANTOM2
 70
    64
  3
--------  -  -  --------  -  -  
 72
    65
 73
     6
 40
20.0
 49
10.0
 49
-2.5
 49
1.25
 49
-2.5
 49
1.25
 49
-2.5
  0
LTYPE
  2
DOT
 70
    64
  3
-   -   -   -   -   -   -   -   
 72
    65
 73
     2
 40
2.5
 49
0.625
 49
-1.875
  0
LTYPE
  2
DUMMY
 70
    64
  3
ダミー
 72
    65
 73
     0
 40
0.0
  0
LTYPE
  2
RAND1
 70
    64
  3
ランダム線1
 72
    65
 73
     4
 40
10.0
 49
1.0
 49
-2.0
 49
3.0
 49
-4.0
  0
LTYPE
  2
RAND2
 70
    64
  3
ランダム線2
 72
    65
 73
     4
 40
14.0
 49
2.0
 49
-3.0
 49
4.0
 49
-5.0
  0
LTYPE
  2
RAND3
 70
    64
  3
ランダム線3
 72
    65
 73
     4
 40
18.0
 49
3.0
 49
-4.0
 49
5.0
 49
-6.0
  0
LTYPE
  2
RAND4
 70
    64
  3
ランダム線4
 72
    65
 73
     4
 40
22.0
 49
4.0
 49
-5.0
 49
6.0
 49
-7.0
  0
LTYPE
  2
RAND5
 70
    64
  3
ランダム線5
 72
    65
 73
     4
 40
26.0
 49
5.0
 49
-6.0
 49
7.0
 49
-8.0
  0
LTYPE
  2
LONG1
 70
    64
  3
----------  --  ----------  --  
 72
    65
 73
     4
 40
40.0
 49
32.5
 49
-2.5
 49
2.5
 49
-2.5
  0
LTYPE
  2
LONG2
 70
    64
  3
--------  -  -  --------  -  -  
 72
    65
 73
     6
 40
40.0
 49
30.0
 49
-2.5
 49
1.25
 49
-2.5
 49
1.25
 49
-2.5
  0
LTYPE
  2
LONG3
 70
    64
  3
+++++++++++++++..+++++++++++++++
 72
    65
 73
     2
 40
40.0
 49
37.5
 49
-2.5
  0
LTYPE
  2
LONG4
 70
    64
  3
+++++++++++++++..+++++++++++++++
 72
    65
 73
     2
 40
80.0
 49
75.0
 49
-5.0
  0
LTYPE
  2
LONG5
 70
    64
  3
----------  --  ----------  --  
 72
    65
 73
     4
 40
60.0
 49
37.5
 49
-7.5
 49
7.5
 49
-7.5
  0
LTYPE
  2
dashed
 70
   64
  3
-------   -------------   ------
 72
   65
 73
    2
 40
7.5
 49
6
 49
-1.5
  0
LTYPE
  2
dashed_spaced
 70
   64
  3
----        --------        ----
 72
   65
 73
    2
 40
12
 49
6
 49
-6
  0
LTYPE
  2
long_dashed_dotted
 70
   64
  3
------------- --- --------------
 72
   65
 73
    4
 40
15.25
 49
12
 49
-1.5
 49
0.25
 49
-1.5
  0
LTYPE
  2
long_dashed_double-dotted
 70
   64
  3
----------- --- --- ------------
 72
   65
 73
    6
 40
17
 49
12
 49
-1.5
 49
0.25
 49
-1.5
 49
0.25
 49
-1.5
  0
LTYPE
  2
long_dashed_triplicate-dotted
 70
   64
  3
--------- --- --- --- ----------
 72
   65
 73
    8
 40
18.75
 49
12
 49
-1.5
 49
0.25
 49
-1.5
 49
0.25
 49
-1.5
 49
0.25
 49
-1.5
  0
LTYPE
  2
dotted
 70
   64
  3
   -       -       -       -    
 72
   65
 73
    2
 40
1.75
 49
0.25
 49
-1.5
  0
LTYPE
  2
chain
 70
   64
  3
-------------- -- --------------
 72
   65
 73
    4
 40
18.5
 49
12
 49
-1.5
 49
3.5
 49
-1.5
  0
LTYPE
  2
chain_double_dash
 70
   64
  3
------------ -- -- -------------
 72
   65
 73
    6
 40
23.5
 49
12
 49
-1.5
 49
3.5
 49
-1.5
 49
3.5
 49
-1.5
  0
LTYPE
  2
dashed_dotted
 70
   64
  3
-----------     -     ----------
 72
   65
 73
    4
 40
9.25
 49
6
 49
-1.5
 49
0.25
 49
-1.5
  0
LTYPE
  2
double-dashed_dotted
 70
   64
  3
------   -----------   -   -----
 72
   65
 73
    6
 40
16.75
 49
6
 49
-1.5
 49
6
 49
-1.5
 49
0.25
 49
-1.5
  0
LTYPE
  2
dashed_double-dotted
 70
   64
  3
---------    -    -    ---------
 72
   65
 73
    6
 40
11
 49
6
 49
-1.5
 49
0.25
 49
-1.5
 49
0.25
 49
-1.5
  0
LTYPE
  2
double-dashed_double-dotted
 70
   64
  3
-----   ---------   -   -   ----
 72
   65
 73
    8
 40
18.5
 49
6
 49
-1.5
 49
6
 49
-1.5
 49
0.25
 49
-1.5
 49
0.25
 49
-1.5
  0
LTYPE
  2
dashed_triplicate-dotted
 70
   64
  3
-------    -    -    -    ------
 72
   65
 73
    8
 40
12.75
 49
6
 49
-1.5
 49
0.25
 49
-1.5
 49
0.25
 49
-1.5
 49
0.25
 49
-1.5
  0
LTYPE
  2
double-dashed_triplicate-dotted
 70
   64
  3
-----  ---------  -  -  -  -----
 72
   65
 73
   10
 40
20.25
 49
6
 49
-1.5
 49
6
 49
-1.5
 49
0.25
 49
-1.5
 49
0.25
 49
-1.5
 49
0.25
 49
-1.5
  0
LTYPE
  2
undefined
 70
   64
  3
--------------------------------
 72
   65
 73
    0
 40
0
  0
LTYPE
  2
DASHED
 70
   64
  3
----        --------        ----
 72
   65
 73
    2
 40
4
 49
2
 49
-2
  0
LTYPE
  2
DOT_18
 70
   64
  3
---           -----           --
 72
   65
 73
    2
 40
3
 49
1
 49
-2
  0
LTYPE
  2
DASHDOT
 70
   64
  3
---------    ------    ---------
 72
   65
 73
    4
 40
17
 49
10
 49
-2
 49
3
 49
-2
  0
LTYPE
  2
DIVIDE
 70
   64
  3
-----------  --  --  -----------
 72
   65
 73
    6
 40
30
 49
20
 49
-2
 49
2
 49
-2
 49
2
 49
-2
  0
LTYPE
  2
CENTER
 70
   64
  3
-------------  --  -------------
 72
   65
 73
    4
 40
13
 49
10
 49
-1
 49
1
 49
-1
  0
LTYPE
  2
_
 70
   64
  3
                                
 72
   65
 73
    0
 40
0
  0
LTYPE
  2
__23
 70
   64
  3
                                
 72
   65
 73
    0
 40
0
  0
LTYPE
  2
__24
 70
   64
  3
                                
 72
   65
 73
    0
 40
0
  0
LTYPE
  2
__25
 70
   64
  3
                                
 72
   65
 73
    0
 40
0
  0
LTYPE
  2
__26
 70
   64
  3
                                
 72
   65
 73
    0
 40
0
  0
LTYPE
  2
__27
 70
   64
  3
                                
 72
   65
 73
    0
 40
0
  0
LTYPE
  2
__28
 70
   64
  3
                                
 72
   65
 73
    0
 40
0
  0
LTYPE
  2
__29
 70
   64
  3
                                
 72
   65
 73
    0
 40
0
  0
LTYPE
  2
__30
 70
   64
  3
                                
 72
   65
 73
    0
 40
0
  0
LTYPE
  2
__31
 70
   64
  3
                                
 72
   65
 73
    0
 40
0
  0
LTYPE
  2
__32
 70
   64
  3
                                
 72
   65
 73
    0
 40
0
  0
ENDTAB
  0
TABLE
  2
STYLE
  5
3
100
AcDbSymbolTable
 70
     1
  0
STYLE
  5
10
100
AcDbSymbolTableRecord
100
AcDbTextStyleTableRecord
  2
STANDARD
 70
     0
 40
0.0
 41
1.0
 50
0.0
 71
     0
 42
0.2
  3
txt
  4
bigfont.shx
  0
STYLE
  5
26
100
AcDbSymbolTableRecord
100
AcDbTextStyleTableRecord
  2
TATEGAKI
 70
    68
 40
0.0
 41
1.0
 50
0.0
 71
     0
 42
1.0
  3
txt
  4
bigfont.shx
  0
ENDTAB
  0
TABLE
  2
LAYER
 70
    5
  0
LAYER
  2
_0-1_作画層１
 70
   64
 62
    7
  6
CONTINUOUS
  0
LAYER
  2
_0-7_注記層１
 70
   64
 62
    7
  6
CONTINUOUS
  0
LAYER
  2
_0-9_寸法線層１
 70
   64
 62
    7
  6
CONTINUOUS
  0
LAYER
  2
_0-d_0_1
 70
   64
 62
    7
  6
CONTINUOUS
  0
LAYER
  2
ADD_LINE
 70
   64
 62
    7
  6
CONTINUOUS
  0
ENDTAB
  0
ENDSEC
  0
SECTION
  2
BLOCKS
  0
BLOCK
  2
-000-_D0
 70
   64
 10
0
 20
0
 30
0
  0
LINE
  8
_0-9_寸法線層１
  6
CONTINUOUS
 62
    7
 10
297.5
 20
57.5
 11
327.5
 21
57.5
  0
TEXT
  8
_0-9_寸法線層１
 62
    7
 10
310.61177143234625
 20
58.5
 40
3
 41
1
 50
0
  1
60
  0
LINE
  8
_0-9_寸法線層１
  6
CONTINUOUS
 62
    7
 10
297.5
 20
72
 11
297.5
 21
55.5
  0
LINE
  8
_0-9_寸法線層１
  6
CONTINUOUS
 62
    7
 10
327.5
 20
72
 11
327.5
 21
55.5
  0
ENDBLK
  0
BLOCK
  2
-001-_D1
 70
   64
 10
0
 20
0
 30
0
  0
LINE
  8
_0-9_寸法線層１
  6
CONTINUOUS
 62
    7
 10
345
 20
70
 11
345
 21
126.52181090811564
  0
TEXT
  8
_0-9_寸法線層１
 62
    7
 10
344
 20
95.622676886404037
 40
3
 41
1
 50
90
  1
113
  0
LINE
  8
_0-9_寸法線層１
  6
CONTINUOUS
 62
    7
 10
295.5
 20
70
 11
347
 21
70
  0
LINE
  8
_0-9_寸法線層１
  6
CONTINUOUS
 62
    7
 10
313.79668559344657
 20
126.52181090811564
 11
347
 21
126.52181090811564
  0
ENDBLK
  0
BLOCK
  2
-002-_D2
 70
   64
 10
0
 20
0
 30
0
  0
LINE
  8
_0-9_寸法線層１
  6
CONTINUOUS
 62
    7
 10
28.000007629394531
 20
120
 11
121.99999237060547
 21
120
  0
TEXT
  8
_0-9_寸法線層１
 62
    7
 10
73.111771432346217
 20
121
 40
3
 41
1
 50
0
  1
94
  0
LINE
  8
_0-9_寸法線層１
  6
CONTINUOUS
 62
    7
 10
28.000007629394531
 20
135
 11
28.000007629394531
 21
118
  0
LINE
  8
_0-9_寸法線層１
  6
CONTINUOUS
 62
    7
 10
121.99999237060547
 20
135
 11
121.99999237060547
 21
118
  0
ENDBLK
  0
BLOCK
  2
-003-_D3
 70
   64
 10
0
 20
0
 30
0
  0
LINE
  8
_0-9_寸法線層１
  6
CONTINUOUS
 62
    7
 10
132.5
 20
275.5
 11
132.5
 21
130.5
  0
TEXT
  8
_0-9_寸法線層１
 62
    7
 10
131.5
 20
200.36177143234622
 40
3
 41
1
 50
90
  1
145
  0
LINE
  8
_0-9_寸法線層１
  6
CONTINUOUS
 62
    7
 10
117.49999237060547
 20
275.5
 11
134.5
 21
275.5
  0
LINE
  8
_0-9_寸法線層１
  6
CONTINUOUS
 62
    7
 10
117.49999237060547
 20
130.5
 11
134.5
 21
130.5
  0
ENDBLK
  0
BLOCK
  2
-004-_D4
 70
   64
 10
0
 20
0
 30
0
  0
TEXT
  8
_0-9_寸法線層１
 62
    7
 10
170.61177143234622
 20
281
 40
3
 41
1
 50
0
  1
30
  0
LINE
  8
_0-9_寸法線層１
  6
CONTINUOUS
 62
    7
 10
157.5
 20
280
 11
187.5
 21
280
  0
LINE
  8
_0-9_寸法線層１
  6
CONTINUOUS
 62
    7
 10
157.5
 20
273
 11
157.5
 21
282
  0
LINE
  8
_0-9_寸法線層１
  6
CONTINUOUS
 62
    7
 10
187.5
 20
273
 11
187.5
 21
282
  0
ENDBLK
  0
BLOCK
  2
-005-_D5
 70
   64
 10
0
 20
0
 30
0
  0
LINE
  8
_0-9_寸法線層１
  6
CONTINUOUS
 62
    7
 10
157.5
 20
120
 11
217.5
 21
120
  0
TEXT
  8
_0-9_寸法線層１
 62
    7
 10
185.61177143234622
 20
121
 40
3
 41
1
 50
0
  1
60
  0
LINE
  8
_0-9_寸法線層１
  6
CONTINUOUS
 62
    7
 10
157.5
 20
132
 11
157.5
 21
118
  0
LINE
  8
_0-9_寸法線層１
  6
CONTINUOUS
 62
    7
 10
217.5
 20
134.5
 11
217.5
 21
118
  0
ENDBLK
  0
ENDSEC
  0
SECTION
  2
ENTITIES
  0
TEXT
  8
_0-7_注記層１
 62
    7
 10
271.25
 20
263
 40
3.5
 41
1
 50
0
  1
型　　 　番
  0
TEXT
  8
_0-7_注記層１
 62
    7
 10
271.25
 20
253
 40
3.5
 41
1
 50
0
  1
許容電圧変動範囲
  0
TEXT
  8
_0-7_注記層１
 62
    7
 10
271.25
 20
248
 40
3.5
 41
1
 50
0
  1
周　　波　　数
  0
TEXT
  8
_0-7_注記層１
 62
    7
 10
271.25
 20
243
 40
3.5
 41
1
 50
0
  1
停　電　補　償
  0
TEXT
  8
_0-7_注記層１
 62
    7
 10
271.25
 20
258
 40
3.5
 41
1
 50
0
  1
電  源  電  圧
  0
LINE
  8
_0-1_作画層１
  6
CONTINUOUS
 62
    7
 10
371.25
 20
267.25
 11
268.75
 21
267.25
  0
LINE
  8
_0-1_作画層１
  6
CONTINUOUS
 62
    7
 10
371.25
 20
262.25
 11
268.75
 21
262.25
  0
LINE
  8
_0-1_作画層１
  6
CONTINUOUS
 62
    7
 10
371.25
 20
257.25
 11
268.75
 21
257.25
  0
LINE
  8
_0-1_作画層１
  6
CONTINUOUS
 62
    7
 10
371.25
 20
252.25
 11
268.75
 21
252.25
  0
LINE
  8
_0-1_作画層１
  6
CONTINUOUS
 62
    7
 10
371.25
 20
247.25
 11
268.75
 21
247.25
  0
LINE
  8
_0-1_作画層１
  6
CONTINUOUS
 62
    7
 10
371.25
 20
242.25
 11
268.75
 21
242.25
  0
LINE
  8
_0-1_作画層１
  6
CONTINUOUS
 62
    7
 10
371.25
 20
237.25
 11
268.75
 21
237.25
  0
TEXT
  8
_0-7_注記層１
 62
    7
 10
268.75
 20
272.25
 40
5
 41
1
 50
0
  1
規　格
  0
LINE
  8
_0-1_作画層１
  6
CONTINUOUS
 62
    7
 10
266.25
 20
272.25
 11
286.25
 21
272.25
  0
TEXT
  8
_0-7_注記層１
 62
    7
 10
301.125
 20
28
 40
3.5
 41
1
 50
0
  1
1/1
  0
TEXT
  8
_0-7_注記層１
 62
    7
 10
335.25
 20
30.5
 40
3.5
 41
1
 50
0
  1
承認
  0
TEXT
  8
_0-7_注記層１
 62
    7
 10
273.75
 20
17.25
 40
5
 41
1
 50
0
  1
スナオ電気株式会社
  0
LINE
  8
_0-1_作画層１
  6
CONTINUOUS
 62
    7
 10
268.75
 20
34.75
 11
268.75
 21
14.75
  0
LINE
  8
_0-1_作画層１
  6
CONTINUOUS
 62
    7
 10
293.75
 20
34.75
 11
293.75
 21
24.75
  0
LINE
  8
_0-1_作画層１
  6
CONTINUOUS
 62
    7
 10
313.75
 20
34.75
 11
313.75
 21
24.75
  0
LINE
  8
_0-1_作画層１
  6
CONTINUOUS
 62
    7
 10
333.75
 20
34.75
 11
333.75
 21
24.75
  0
LINE
  8
_0-1_作画層１
  6
CONTINUOUS
 62
    7
 10
358.75
 20
14.75
 11
358.75
 21
34.75
  0
LINE
  8
_0-1_作画層１
  6
CONTINUOUS
 62
    7
 10
413.75
 20
292.25
 11
16.25
 21
292.25
  0
LINE
  8
_0-1_作画層１
  6
CONTINUOUS
 62
    7
 10
16.25
 20
14.75
 11
16.25
 21
292.25
  0
LINE
  8
_0-1_作画層１
  6
CONTINUOUS
 62
    7
 10
413.75
 20
14.75
 11
16.25
 21
14.75
  0
LINE
  8
_0-1_作画層１
  6
CONTINUOUS
 62
    7
 10
413.75
 20
34.75
 11
268.75
 21
34.75
  0
LINE
  8
_0-1_作画層１
  6
CONTINUOUS
 62
    7
 10
413.75
 20
24.75
 11
268.75
 21
24.75
  0
LINE
  8
_0-1_作画層１
  6
CONTINUOUS
 62
    7
 10
413.75
 20
14.75
 11
413.75
 21
292.25
  0
TEXT
  8
_0-7_注記層１
 62
    7
 10
318.5
 20
28
 40
3.5
 41
1
 50
0
  1
ゴトウ
  0
TEXT
  8
_0-7_注記層１
 62
    7
 10
271.25
 20
238
 40
3.5
 41
1
 50
0
  1
使 用 周 囲 温 度
  0
TEXT
  8
_0-7_注記層１
 62
    7
 10
271.25
 20
233
 40
3.5
 41
1
 50
0
  1
使 用 周 囲 湿 度
  0
TEXT
  8
_0-7_注記層１
 62
    7
 10
271.25
 20
228
 40
3.5
 41
1
 50
0
  1
接　点　定　格
  0
TEXT
  8
_0-7_注記層１
 62
    7
 10
271.25
 20
223
 40
3.5
 41
1
 50
0
  1
出　　　　　力
  0
TEXT
  8
_0-7_注記層１
 62
    7
 10
271.25
 20
218
 40
3.5
 41
1
 50
0
  1
設　定　回　数
  0
TEXT
  8
_0-7_注記層１
 62
    7
 10
271.25
 20
213
 40
3.5
 41
1
 50
0
  1
最 小 設 定 時 間
  0
TEXT
  8
_0-7_注記層１
 62
    7
 10
271.25
 20
208
 40
3.5
 41
1
 50
0
  1
時　間　精　度
  0
TEXT
  8
_0-7_注記層１
 62
    7
 10
271.25
 20
203
 40
3.5
 41
1
 50
0
  1
消　費　電　力　
  0
TEXT
  8
_0-7_注記層１
 62
    7
 10
271.25
 20
198
 40
3.5
 41
1
 50
0
  1
重　　　  　量
  0
TEXT
  8
_0-7_注記層１
 62
    7
 10
271.25
 20
193
 40
3.5
 41
1
 50
0
  1
外　形　寸　法
  0
LINE
  8
_0-1_作画層１
  6
CONTINUOUS
 62
    7
 10
371.25
 20
237.25
 11
268.75
 21
237.25
  0
LINE
  8
_0-1_作画層１
  6
CONTINUOUS
 62
    7
 10
371.25
 20
232.25
 11
268.75
 21
232.25
  0
LINE
  8
_0-1_作画層１
  6
CONTINUOUS
 62
    7
 10
371.25
 20
227.25
 11
268.75
 21
227.25
  0
LINE
  8
_0-1_作画層１
  6
CONTINUOUS
 62
    7
 10
371.25
 20
222.25
 11
268.75
 21
222.25
  0
LINE
  8
_0-1_作画層１
  6
CONTINUOUS
 62
    7
 10
371.25
 20
217.25
 11
268.75
 21
217.25
  0
LINE
  8
_0-1_作画層１
  6
CONTINUOUS
 62
    7
 10
371.25
 20
212.25
 11
268.75
 21
212.25
  0
LINE
  8
_0-1_作画層１
  6
CONTINUOUS
 62
    7
 10
371.25
 20
207.25
 11
268.75
 21
207.25
  0
LINE
  8
_0-1_作画層１
  6
CONTINUOUS
 62
    7
 10
371.25
 20
202.25
 11
268.75
 21
202.25
  0
LINE
  8
_0-1_作画層１
  6
CONTINUOUS
 62
    7
 10
371.25
 20
197.25
 11
268.75
 21
197.25
  0
LINE
  8
_0-1_作画層１
  6
CONTINUOUS
 62
    7
 10
371.25
 20
192.25
 11
268.75
 21
192.25
  0
TEXT
  8
_0-7_注記層１
 62
    7
 10
306.25
 20
203
 40
3.5
 41
1
 50
0
  1
約3VA
  0
TEXT
  8
_0-7_注記層１
 62
    7
 10
306.25
 20
238
 40
3.5
 41
1
 50
0
  1
-10℃～50℃
  0
TEXT
  8
_0-7_注記層１
 62
    7
 10
271.25
 20
188
 40
3.5
 41
1
 50
0
  1
付　　属　　品
  0
LINE
  8
_0-1_作画層１
  6
CONTINUOUS
 62
    7
 10
371.25
 20
183.5
 11
268.75
 21
183.5
  0
LINE
  8
_0-1_作画層１
  6
CONTINUOUS
 62
    7
 10
268.75
 20
183.5
 11
268.75
 21
267.25
  0
LINE
  8
_0-1_作画層１
  6
CONTINUOUS
 62
    7
 10
303.75
 20
183.5
 11
303.75
 21
267.25
  0
LINE
  8
_0-1_作画層１
  6
CONTINUOUS
 62
    7
 10
371.25
 20
183.5
 11
371.25
 21
267.25
  0
TEXT
  8
_0-7_注記層１
 62
    7
 10
306.25
 20
263
 40
3.5
 41
1
 50
0
  1
TM-301
  0
TEXT
  8
_0-7_注記層１
 62
    7
 10
306.25
 20
258
 40
3.5
 41
1
 50
0
  1
AC100V
  0
TEXT
  8
_0-7_注記層１
 62
    7
 10
306.25
 20
243
 40
3.5
 41
1
 50
0
  1
なし
  0
TEXT
  8
_0-7_注記層１
 62
    7
 10
306.25
 20
228
 40
3.5
 41
1
 50
0
  1
抵抗負荷　AC250V  20A
  0
TEXT
  8
_0-7_注記層１
 62
    7
 10
306.25
 20
223
 40
3.5
 41
1
 50
0
  1
電源出力
  0
TEXT
  8
_0-7_注記層１
 62
    7
 10
306.25
 20
213
 40
3.5
 41
1
 50
0
  1
15分
  0
TEXT
  8
_0-7_注記層１
 62
    7
 10
306.25
 20
208
 40
3.5
 41
1
 50
0
  1
電源周波数に同期
  0
TEXT
  8
_0-7_注記層１
 62
    7
 10
306.25
 20
198
 40
3.5
 41
1
 50
0
  1
420g
  0
TEXT
  8
_0-7_注記層１
 62
    7
 10
306.25
 20
188
 40
3.5
 41
1
 50
0
  1
取付けビス３本、
  0
TEXT
  8
_0-7_注記層１
 62
    7
 10
306.25
 20
184.5
 40
3.5
 41
1
 50
0
  1
（赤）（白）色設定子各４個
  0
LINE
  8
_0-1_作画層１
  6
CONTINUOUS
 62
    7
 10
338.25
 20
141.25
 11
299.25
 21
141.25
  0
LINE
  8
_0-1_作画層１
  6
CONTINUOUS
 62
    7
 10
342.24999618530273
 20
72.75
 11
342.24999618530273
 21
137.25000381469727
  0
LINE
  8
_0-1_作画層１
  6
CONTINUOUS
 62
    7
 10
299.25
 20
68.75
 11
338.25
 21
68.75
  0
LINE
  8
_0-1_作画層１
  6
CONTINUOUS
 62
    7
 10
295.25000381469727
 20
72.75
 11
295.25000381469727
 21
137.25000381469727
  0
ARC
  8
_0-1_作画層１
  6
CONTINUOUS
 62
    7
 10
299.24999999999994
 20
137.25000381469732
 40
3.9999999999999432
 50
89.99999999999919
 51
180.0000000000008
  0
ARC
  8
_0-1_作画層１
  6
CONTINUOUS
 62
    7
 10
338.25000000000006
 20
137.25000381469732
 40
3.9999999999999432
 50
359.9999999999992
 51
90.000000000000782
  0
ARC
  8
_0-1_作画層１
  6
CONTINUOUS
 62
    7
 10
338.25000000000006
 20
72.749999999999972
 40
3.9999999999999716
 50
269.9999999999992
 51
0.0000000000003816
  0
ARC
  8
_0-1_作画層１
  6
CONTINUOUS
 62
    7
 10
299.24999999999994
 20
72.749999999999972
 40
3.9999999999999432
 50
179.9999999999996
 51
270.0000000000008
  0
CIRCLE
  8
_0-1_作画層１
  6
CONTINUOUS
 62
    7
 10
333.75
 20
74.75
 40
1
  0
CIRCLE
  8
_0-1_作画層１
  6
CONTINUOUS
 62
    7
 10
303.75
 20
74.75
 40
1
  0
CIRCLE
  8
_0-1_作画層１
  6
CONTINUOUS
 62
    7
 10
318.75
 20
87.75
 40
0.875
  0
CIRCLE
  8
_0-1_作画層１
  6
CONTINUOUS
 62
    7
 10
318.75
 20
87.75
 40
4
  0
LINE
  8
_0-d_0_1
  6
CONTINUOUS
 62
    7
 10
317.94670875581153
 20
132.73202170828651
 11
317.94670875581153
 21
131.27872695425822
  0
LINE
  8
_0-d_0_1
  6
CONTINUOUS
 62
    7
 10
319.54668559344657
 20
132.73202170828651
 11
319.54668559344657
 21
131.27181090811564
  0
ARC
  8
_0-d_0_1
  6
CONTINUOUS
 62
    7
 10
318.74670291258218
 20
132.72730748940774
 40
0.8000000119209558
 50
0.3370971679736422
 51
179.66290283202633
  0
ARC
  8
_0-d_0_1
  6
CONTINUOUS
 62
    7
 10
318.74670291258212
 20
129.72730748940776
 40
1.7500000000000042
 50
117.27784729003641
 51
62.6176910400373
  0
INSERT
  2
-000-_D0
  8
_0-9_寸法線層１
 10
6.25
 20
4.75
 41
1
 42
1
 50
0
  0
INSERT
  2
-001-_D1
  8
_0-9_寸法線層１
 10
6.25
 20
4.75
 41
1
 42
1
 50
0
  0
TEXT
  8
_0-7_注記層１
 62
    7
 10
351.25
 20
62.25
 40
5
 41
1
 50
0
  1
1/2
  0
LINE
  8
_0-1_作画層１
  6
CONTINUOUS
 62
    7
 10
348.75
 20
62.25
 11
361.25
 21
62.25
  0
LINE
  8
_0-1_作画層１
  6
CONTINUOUS
 62
    7
 10
125.2499885559082
 20
104.75000381469727
 11
37.250011444091797
 21
104.75000381469727
  0
LINE
  8
_0-1_作画層１
  6
CONTINUOUS
 62
    7
 10
39.250011444091797
 20
44.75
 11
123.2499885559082
 21
44.75
  0
ARC
  8
_0-1_作画層１
  6
CONTINUOUS
 62
    7
 10
37.250011444091797
 20
101.75000000000001
 40
2.9999999999999858
 50
89.999999999999801
 51
180.00000000000026
  0
ARC
  8
_0-1_作画層１
  6
CONTINUOUS
 62
    7
 10
125.24998855590822
 20
101.75000000000001
 40
2.9999999999999858
 50
359.99999999999977
 51
90.00000000000027
  0
ARC
  8
_0-1_作画層１
  6
CONTINUOUS
 62
    7
 10
123.24998855590822
 20
47.749999761581421
 40
2.9999999999999929
 50
269.99999999999977
 51
0.000000000000089
  0
ARC
  8
_0-1_作画層１
  6
CONTINUOUS
 62
    7
 10
39.250011444091797
 20
47.749999761581421
 40
2.9999999999999929
 50
179.99999999999986
 51
270.00000000000011
  0
LINE
  8
_0-1_作画層１
  6
CENTER
 62
    7
 10
81.25
 20
37.75
 11
81.25
 21
112.25
  0
TEXT
  8
_0-7_注記層１
 62
    7
 10
48.75
 20
284.75
 40
5
 41
1
 50
0
  1
外形寸法
  0
LINE
  8
_0-1_作画層１
  6
CONTINUOUS
 62
    7
 10
46.25
 20
284.75
 11
71.25
 21
284.75
  0
LINE
  8
_0-1_作画層１
  6
CONTINUOUS
 62
    7
 10
118.24998092651367
 20
268.25000381469727
 11
44.250019073486328
 21
268.25000381469727
  0
LINE
  8
_0-1_作画層１
  6
CONTINUOUS
 62
    7
 10
123.2499885559082
 20
189.25
 11
123.2499885559082
 21
263.24999618530273
  0
LINE
  8
_0-1_作画層１
  6
CONTINUOUS
 62
    7
 10
44.250019073486328
 20
184.24999618530273
 11
118.24998092651367
 21
184.24999618530273
  0
LINE
  8
_0-1_作画層１
  6
CONTINUOUS
 62
    7
 10
39.250011444091797
 20
189.25
 11
39.250011444091797
 21
263.24999618530273
  0
LINE
  8
_0-1_作画層１
  6
CONTINUOUS
 62
    7
 10
120.25
 20
280.25
 11
42.25
 21
280.25
  0
LINE
  8
_0-1_作画層１
  6
CONTINUOUS
 62
    7
 10
128.24999237060547
 20
143.25
 11
128.24999237060547
 21
272.25000762939453
  0
LINE
  8
_0-1_作画層１
  6
CONTINUOUS
 62
    7
 10
42.25
 20
135.25
 11
120.25
 21
135.25
  0
LINE
  8
_0-1_作画層１
  6
CONTINUOUS
 62
    7
 10
34.250007629394531
 20
143.25
 11
34.250007629394531
 21
272.25000762939453
  0
LINE
  8
_0-1_作画層１
  6
CONTINUOUS
 62
    7
 10
51.750057220458984
 20
232.70460987091064
 11
44.863395690917969
 21
233.9779577255249
  0
LINE
  8
_0-1_作画層１
  6
CONTINUOUS
 62
    7
 10
45.058494567871094
 20
234.95874691009521
 11
51.90821647644043
 21
233.4997501373291
  0
LINE
  8
_0-1_作画層１
  6
CONTINUOUS
 62
    7
 10
51.456464767456055
 20
230.76353907585144
 11
44.501285552978516
 21
231.58375310897827
  0
LINE
  8
_0-1_作画層１
  6
CONTINUOUS
 62
    7
 10
44.631816864013672
 20
232.57519817352295
 11
51.562290191650391
 21
231.56732320785522
  0
LINE
  8
_0-1_作画層１
  6
CONTINUOUS
 62
    7
 10
51.252740859985352
 20
226.8446347117424
 11
44.250003814697266
 21
226.74999058246613
  0
LINE
  8
_0-1_作画層１
  6
CONTINUOUS
 62
    7
 10
44.250003814697266
 20
227.74999192357063
 11
51.25275993347168
 21
227.6553652882576
  0
LINE
  8
_0-1_作画層１
  6
CONTINUOUS
 62
    7
 10
51.343465805053711
 20
224.88359904289246
 11
44.361915588378906
 21
224.33114957809448
  0
LINE
  8
_0-1_作画層１
  6
CONTINUOUS
 62
    7
 10
44.296512603759766
 20
225.32899868488312
 11
51.29046630859375
 21
225.69257986545563
  0
LINE
  8
_0-1_作画層１
  6
CONTINUOUS
 62
    7
 10
51.562290191650391
 20
222.93267679214478
 11
44.631797790527344
 21
221.92480182647705
  0
LINE
  8
_0-1_作画層１
  6
CONTINUOUS
 62
    7
 10
44.501285552978516
 20
222.91624689102173
 11
51.456464767456055
 21
223.73646092414856
  0
LINE
  8
_0-1_作画層１
  6
CONTINUOUS
 62
    7
 10
51.90821647644043
 20
221.00023221969604
 11
45.058494567871094
 21
219.54127073287964
  0
LINE
  8
_0-1_作画層１
  6
CONTINUOUS
 62
    7
 10
44.863395690917969
 20
220.52205944061279
 11
51.750038146972656
 21
221.79539012908936
  0
LINE
  8
_0-1_作画層１
  6
CONTINUOUS
 62
    7
 10
52.379793167114258
 20
219.09457588195801
 11
45.640163421630859
 21
217.19073963165283
  0
LINE
  8
_0-1_作画層１
  6
CONTINUOUS
 62
    7
 10
45.381340026855469
 20
218.15665626525879
 11
52.169961929321289
 21
219.87769556045532
  0
LINE
  8
_0-1_作画層１
  6
CONTINUOUS
 62
    7
 10
52.97498893737793
 20
217.22384548187256
 11
46.374305725097656
 21
214.88327026367187
  0
LINE
  8
_0-1_作画層１
  6
CONTINUOUS
 62
    7
 10
46.052879333496094
 20
215.83020210266113
 11
52.714397430419922
 21
217.99154949188232
  0
LINE
  8
_0-1_作画層１
  6
CONTINUOUS
 62
    7
 10
53.691267013549805
 20
215.39603519439697
 11
47.257793426513672
 21
212.6287841796875
  0
LINE
  8
_0-1_作画層１
  6
CONTINUOUS
 62
    7
 10
46.8751220703125
 20
213.55265331268311
 11
53.381017684936523
 21
216.14505195617676
  0
LINE
  8
_0-1_作画層１
  6
CONTINUOUS
 62
    7
 10
54.525568008422852
 20
213.61900424957275
 11
48.286857604980469
 21
210.43688583374023
  0
LINE
  8
_0-1_作画層１
  6
CONTINUOUS
 62
    7
 10
47.844573974609375
 20
211.33375644683838
 11
54.166990280151367
 21
214.34611415863037
  0
LINE
  8
_0-1_作画層１
  6
CONTINUOUS
 62
    7
 10
55.474300384521484
 20
211.90030860900879
 11
49.457057952880859
 21
208.31698989868164
  0
LINE
  8
_0-1_作画層１
  6
CONTINUOUS
 62
    7
 10
48.957065582275391
 20
209.18301200866699
 11
55.068935394287109
 21
212.60243225097656
  0
LINE
  8
_0-1_作画層１
  6
CONTINUOUS
 62
    7
 10
56.533409118652344
 20
210.24736976623535
 11
50.763404846191406
 21
206.27816009521484
  0
LINE
  8
_0-1_作画層１
  6
CONTINUOUS
 62
    7
 10
50.207841873168945
 20
207.10964202880859
 11
56.082986831665039
 21
210.92146301269531
  0
LINE
  8
_0-1_作画層１
  6
CONTINUOUS
 62
    7
 10
57.698341369628906
 20
208.66723823547363
 11
52.200302124023438
 21
204.32914543151855
  0
LINE
  8
_0-1_作画層１
  6
CONTINUOUS
 62
    7
 10
51.591547012329102
 20
205.12251853942871
 11
57.204807281494141
 21
209.31041145324707
  0
LINE
  8
_0-1_作画層１
  6
CONTINUOUS
 62
    7
 10
58.964147567749023
 20
207.16666793823242
 11
53.761608123779297
 21
202.47829055786133
  0
LINE
  8
_0-1_作画層１
  6
CONTINUOUS
 62
    7
 10
53.10224723815918
 20
203.23012542724609
 11
58.429597854614258
 21
207.77619361877441
  0
LINE
  8
_0-1_作画層１
  6
CONTINUOUS
 62
    7
 10
60.325368881225586
 20
205.75211524963379
 11
55.440601348876953
 21
200.73350715637207
  0
LINE
  8
_0-1_作画層１
  6
CONTINUOUS
 62
    7
 10
54.73350715637207
 20
201.44061851501465
 11
59.752115249633789
 21
206.32536888122559
  0
LINE
  8
_0-1_作画層１
  6
CONTINUOUS
 62
    7
 10
61.776193618774414
 20
204.42959785461426
 11
57.230125427246094
 21
199.10224723815918
  0
LINE
  8
_0-1_作画層１
  6
CONTINUOUS
 62
    7
 10
56.478290557861328
 20
199.7616081237793
 11
61.166648864746094
 21
204.96414756774902
  0
LINE
  8
_0-1_作画層１
  6
CONTINUOUS
 62
    7
 10
63.31041145324707
 20
203.20480728149414
 11
59.122518539428711
 21
197.5915470123291
  0
LINE
  8
_0-1_作画層１
  6
CONTINUOUS
 62
    7
 10
58.329145431518555
 20
198.20032119750977
 11
62.667238235473633
 21
203.6983585357666
  0
LINE
  8
_0-1_作画層１
  6
CONTINUOUS
 62
    7
 10
64.921463012695313
 20
202.08298683166504
 11
61.109642028808594
 21
196.20784187316895
  0
LINE
  8
_0-1_作画層１
  6
CONTINUOUS
 62
    7
 10
60.278160095214844
 20
196.76342391967773
 11
64.247369766235352
 21
202.53339195251465
  0
LINE
  8
_0-1_作画層１
  6
CONTINUOUS
 62
    7
 10
66.602432250976562
 20
201.06893539428711
 11
63.183012008666992
 21
194.95706558227539
  0
LINE
  8
_0-1_作画層１
  6
CONTINUOUS
 62
    7
 10
62.316989898681641
 20
195.45705795288086
 11
65.900326728820801
 21
201.47430038452148
  0
LINE
  8
_0-1_作画層１
  6
CONTINUOUS
 62
    7
 10
68.346114158630371
 20
200.16699028015137
 11
65.333756446838379
 21
193.84455490112305
  0
LINE
  8
_0-1_作画層１
  6
CONTINUOUS
 62
    7
 10
64.436868667602539
 20
194.28685760498047
 11
67.619004249572754
 21
200.52556800842285
  0
LINE
  8
_0-1_作画層１
  6
CONTINUOUS
 62
    7
 10
70.145051956176758
 20
199.38101768493652
 11
67.552653312683105
 21
192.8751220703125
  0
LINE
  8
_0-1_作画層１
  6
CONTINUOUS
 62
    7
 10
66.6287841796875
 20
193.25779342651367
 11
69.396035194396973
 21
199.6912670135498
  0
LINE
  8
_0-1_作画層１
  6
CONTINUOUS
 62
    7
 10
71.991549491882324
 20
198.71439743041992
 11
69.830202102661133
 21
192.05287933349609
  0
LINE
  8
_0-1_作画層１
  6
CONTINUOUS
 62
    7
 10
68.883270263671875
 20
192.37430572509766
 11
71.223845481872559
 21
198.97500610351562
  0
LINE
  8
_0-1_作画層１
  6
CONTINUOUS
 62
    7
 10
73.877695560455322
 20
198.16996192932129
 11
72.156656265258789
 21
191.38134002685547
  0
LINE
  8
_0-1_作画層１
  6
CONTINUOUS
 62
    7
 10
71.190739631652832
 20
191.64016342163086
 11
73.094575881958008
 21
198.37979316711426
  0
LINE
  8
_0-1_作画層１
  6
CONTINUOUS
 62
    7
 10
75.795390129089355
 20
197.75005722045898
 11
74.522059440612793
 21
190.86339569091797
  0
LINE
  8
_0-1_作画層１
  6
CONTINUOUS
 62
    7
 10
73.541253089904785
 20
191.05849456787109
 11
75.000249862670898
 21
197.90821647644043
  0
LINE
  8
_0-1_作画層１
  6
CONTINUOUS
 62
    7
 10
77.73646092414856
 20
197.45646476745605
 11
76.916246891021729
 21
190.50128555297852
  0
LINE
  8
_0-1_作画層１
  6
CONTINUOUS
 62
    7
 10
75.924801826477051
 20
190.63181686401367
 11
76.932676792144775
 21
197.56229019165039
  0
LINE
  8
_0-1_作画層１
  6
CONTINUOUS
 62
    7
 10
79.692579865455627
 20
197.29044914245605
 11
79.329016089439392
 21
190.29652786254883
  0
LINE
  8
_0-1_作画層１
  6
CONTINUOUS
 62
    7
 10
78.331166982650757
 20
190.36191558837891
 11
78.883599042892456
 21
197.34348297119141
  0
LINE
  8
_0-1_作画層１
  6
CONTINUOUS
 62
    7
 10
81.655365288257599
 20
197.25274085998535
 11
81.750009417533875
 21
190.25000381469727
  0
LINE
  8
_0-1_作画層１
  6
CONTINUOUS
 62
    7
 10
80.750008076429367
 20
190.25000381469727
 11
80.844634711742401
 21
197.25275993347168
  0
LINE
  8
_0-1_作画層１
  6
CONTINUOUS
 62
    7
 10
83.616400957107544
 20
197.34346580505371
 11
84.168850421905518
 21
190.36191558837891
  0
LINE
  8
_0-1_作画層１
  6
CONTINUOUS
 62
    7
 10
83.171001315116882
 20
190.29651260375977
 11
82.807420134544373
 21
197.29046630859375
  0
LINE
  8
_0-1_作画層１
  6
CONTINUOUS
 62
    7
 10
85.567323207855225
 20
197.56229019165039
 11
86.575198173522949
 21
190.63179779052734
  0
LINE
  8
_0-1_作画層１
  6
CONTINUOUS
 62
    7
 10
85.583753108978271
 20
190.50128555297852
 11
84.76353907585144
 21
197.45646476745605
  0
LINE
  8
_0-1_作画層１
  6
CONTINUOUS
 62
    7
 10
87.499767780303955
 20
197.90821647644043
 11
88.958729267120361
 21
191.05849456787109
  0
LINE
  8
_0-1_作画層１
  6
CONTINUOUS
 62
    7
 10
87.977940559387207
 20
190.86339569091797
 11
86.704609870910645
 21
197.75003814697266
  0
LINE
  8
_0-1_作画層１
  6
CONTINUOUS
 62
    7
 10
89.405424118041992
 20
198.37979316711426
 11
91.309260368347168
 21
191.64016342163086
  0
LINE
  8
_0-1_作画層１
  6
CONTINUOUS
 62
    7
 10
90.343343734741211
 20
191.38134002685547
 11
88.622304439544678
 21
198.16996192932129
  0
LINE
  8
_0-1_作画層１
  6
CONTINUOUS
 62
    7
 10
91.276154518127441
 20
198.97498893737793
 11
93.616729736328125
 21
192.37430572509766
  0
LINE
  8
_0-1_作画層１
  6
CONTINUOUS
 62
    7
 10
92.669797897338867
 20
192.05287933349609
 11
90.508450508117676
 21
198.71439743041992
  0
LINE
  8
_0-1_作画層１
  6
CONTINUOUS
 62
    7
 10
93.103946685791016
 20
199.6912670135498
 11
95.871233940124512
 21
193.25779342651367
  0
LINE
  8
_0-1_作画層１
  6
CONTINUOUS
 62
    7
 10
94.947346687316895
 20
192.8751220703125
 11
92.354948043823242
 21
199.38101768493652
  0
LINE
  8
_0-1_作画層１
  6
CONTINUOUS
 62
    7
 10
94.880995750427246
 20
200.52556800842285
 11
98.063114166259766
 21
194.28685760498047
  0
LINE
  8
_0-1_作画層１
  6
CONTINUOUS
 62
    7
 10
97.166243553161621
 20
193.84457397460937
 11
94.153903961181641
 21
200.16699028015137
  0
LINE
  8
_0-1_作画層１
  6
CONTINUOUS
 62
    7
 10
96.599691390991211
 20
201.47430038452148
 11
100.18302726745605
 21
195.45705795288086
  0
LINE
  8
_0-1_作画層１
  6
CONTINUOUS
 62
    7
 10
99.316987991333008
 20
194.95706558227539
 11
95.897567749023438
 21
201.06893539428711
  0
LINE
  8
_0-1_作画層１
  6
CONTINUOUS
 62
    7
 10
98.252647399902344
 20
202.53340911865234
 11
102.22183990478516
 21
196.76340484619141
  0
LINE
  8
_0-1_作画層１
  6
CONTINUOUS
 62
    7
 10
101.39035797119141
 20
196.20784187316895
 11
97.578519821166992
 21
202.08298683166504
  0
LINE
  8
_0-1_作画層１
  6
CONTINUOUS
 62
    7
 10
99.832761764526367
 20
203.69834136962891
 11
104.17085456848145
 21
198.20030212402344
  0
LINE
  8
_0-1_作画層１
  6
CONTINUOUS
 62
    7
 10
103.37749862670898
 20
197.5915470123291
 11
99.18958854675293
 21
203.20480728149414
  0
LINE
  8
_0-1_作画層１
  6
CONTINUOUS
 62
    7
 10
101.33333206176758
 20
204.96414756774902
 11
106.02170944213867
 21
199.7616081237793
  0
LINE
  8
_0-1_作画層１
  6
CONTINUOUS
 62
    7
 10
105.26987457275391
 20
199.10224723815918
 11
100.72378921508789
 21
204.42959785461426
  0
LINE
  8
_0-1_作画層１
  6
CONTINUOUS
 62
    7
 10
102.74788475036621
 20
206.32536888122559
 11
107.76649284362793
 21
201.44060134887695
  0
LINE
  8
_0-1_作画層１
  6
CONTINUOUS
 62
    7
 10
107.05939865112305
 20
200.73350715637207
 11
102.17463111877441
 21
205.75211524963379
  0
LINE
  8
_0-1_作画層１
  6
CONTINUOUS
 62
    7
 10
104.07040214538574
 20
207.77619361877441
 11
109.39773368835449
 21
203.23012542724609
  0
LINE
  8
_0-1_作画層１
  6
CONTINUOUS
 62
    7
 10
108.7383918762207
 20
202.47829055786133
 11
103.53585243225098
 21
207.16664886474609
  0
LINE
  8
_0-1_作画層１
  6
CONTINUOUS
 62
    7
 10
105.29519271850586
 20
209.31041145324707
 11
110.9084529876709
 21
205.12251853942871
  0
LINE
  8
_0-1_作画層１
  6
CONTINUOUS
 62
    7
 10
110.29969787597656
 20
204.32914543151855
 11
104.80165863037109
 21
208.66722106933594
  0
LINE
  8
_0-1_作画層１
  6
CONTINUOUS
 62
    7
 10
106.41701316833496
 20
210.92146301269531
 11
112.29214096069336
 21
207.10964202880859
  0
LINE
  8
_0-1_作画層１
  6
CONTINUOUS
 62
    7
 10
111.73657608032227
 20
206.27816009521484
 11
105.96660804748535
 21
210.24736976623535
  0
LINE
  8
_0-1_作画層１
  6
CONTINUOUS
 62
    7
 10
107.43106460571289
 20
212.60243225097656
 11
113.54293441772461
 21
209.18301200866699
  0
LINE
  8
_0-1_作画層１
  6
CONTINUOUS
 62
    7
 10
113.04292488098145
 20
208.31698989868164
 11
107.02569961547852
 21
211.9003267288208
  0
LINE
  8
_0-1_作画層１
  6
CONTINUOUS
 62
    7
 10
108.33302688598633
 20
214.34609603881836
 11
114.65544509887695
 21
211.33375644683838
  0
LINE
  8
_0-1_作画層１
  6
CONTINUOUS
 62
    7
 10
114.21314239501953
 20
210.43686866760254
 11
107.97443199157715
 21
213.61900424957275
  0
LINE
  8
_0-1_作画層１
  6
CONTINUOUS
 62
    7
 10
109.11898231506348
 20
216.14505195617676
 11
115.6248779296875
 21
213.55265331268311
  0
LINE
  8
_0-1_作画層１
  6
CONTINUOUS
 62
    7
 10
115.24220657348633
 20
212.6287841796875
 11
108.8087158203125
 21
215.39605331420898
  0
LINE
  8
_0-1_作画層１
  6
CONTINUOUS
 62
    7
 10
109.78560256958008
 20
217.99154949188232
 11
116.44713973999023
 21
215.83020210266113
  0
LINE
  8
_0-1_作画層１
  6
CONTINUOUS
 62
    7
 10
116.12569427490234
 20
214.88327026367187
 11
109.52499389648437
 21
217.22384548187256
  0
LINE
  8
_0-1_作画層１
  6
CONTINUOUS
 62
    7
 10
110.33003807067871
 20
219.87769556045532
 11
117.11865997314453
 21
218.15665626525879
  0
LINE
  8
_0-1_作画層１
  6
CONTINUOUS
 62
    7
 10
116.85983657836914
 20
217.19073963165283
 11
110.12020683288574
 21
219.09457588195801
  0
LINE
  8
_0-1_作画層１
  6
CONTINUOUS
 62
    7
 10
110.74994277954102
 20
221.79539012908936
 11
117.63660430908203
 21
220.5220422744751
  0
LINE
  8
_0-1_作画層１
  6
CONTINUOUS
 62
    7
 10
117.44150543212891
 20
219.54125308990479
 11
110.59178352355957
 21
221.0002498626709
  0
LINE
  8
_0-1_作画層１
  6
CONTINUOUS
 62
    7
 10
111.04353523254395
 20
223.73646092414856
 11
117.99873352050781
 21
222.91624689102173
  0
LINE
  8
_0-1_作画層１
  6
CONTINUOUS
 62
    7
 10
117.86818313598633
 20
221.92480182647705
 11
110.93770980834961
 21
222.93267679214478
  0
LINE
  8
_0-1_作画層１
  6
CONTINUOUS
 62
    7
 10
111.20955085754395
 20
225.69257986545563
 11
118.20347213745117
 21
225.32901608943939
  0
LINE
  8
_0-1_作画層１
  6
CONTINUOUS
 62
    7
 10
118.13808441162109
 20
224.33114957809448
 11
111.15653419494629
 21
224.88359904289246
  0
LINE
  8
_0-1_作画層１
  6
CONTINUOUS
 62
    7
 10
111.24725914001465
 20
227.6553652882576
 11
118.24999618530273
 21
227.75000941753387
  0
LINE
  8
_0-1_作画層１
  6
CONTINUOUS
 62
    7
 10
118.24999618530273
 20
226.75000807642937
 11
111.24724006652832
 21
226.8446347117424
  0
LINE
  8
_0-1_作画層１
  6
CONTINUOUS
 62
    7
 10
111.15653419494629
 20
229.61640095710754
 11
118.13808441162109
 21
230.16885042190552
  0
LINE
  8
_0-1_作画層１
  6
CONTINUOUS
 62
    7
 10
118.20347213745117
 20
229.17100131511688
 11
111.20953369140625
 21
228.80742013454437
  0
LINE
  8
_0-1_作画層１
  6
CONTINUOUS
 62
    7
 10
110.9377269744873
 20
231.56732320785522
 11
117.86820220947266
 21
232.57519817352295
  0
LINE
  8
_0-1_作画層１
  6
CONTINUOUS
 62
    7
 10
117.99871444702148
 20
231.58375310897827
 11
111.04353523254395
 21
230.76353907585144
  0
LINE
  8
_0-1_作画層１
  6
CONTINUOUS
 62
    7
 10
110.59178352355957
 20
233.49976778030396
 11
117.44150543212891
 21
234.95872926712036
  0
LINE
  8
_0-1_作画層１
  6
CONTINUOUS
 62
    7
 10
117.6365852355957
 20
233.97794055938721
 11
110.74996185302734
 21
232.70460987091064
  0
LINE
  8
_0-1_作画層１
  6
CONTINUOUS
 62
    7
 10
110.12020683288574
 20
235.40542411804199
 11
116.85983657836914
 21
237.30926036834717
  0
LINE
  8
_0-1_作画層１
  6
CONTINUOUS
 62
    7
 10
117.11865997314453
 20
236.34334373474121
 11
110.33003807067871
 21
234.62230443954468
  0
LINE
  8
_0-1_作画層１
  6
CONTINUOUS
 62
    7
 10
109.52499389648437
 20
237.27615451812744
 11
116.12569427490234
 21
239.61672973632812
  0
LINE
  8
_0-1_作画層１
  6
CONTINUOUS
 62
    7
 10
116.44712066650391
 20
238.66979789733887
 11
109.78560256958008
 21
236.50845050811768
  0
LINE
  8
_0-1_作画層１
  6
CONTINUOUS
 62
    7
 10
108.8087329864502
 20
239.10396480560303
 11
115.24220657348633
 21
241.87123394012451
  0
LINE
  8
_0-1_作画層１
  6
CONTINUOUS
 62
    7
 10
115.6248779296875
 20
240.94734668731689
 11
109.11898231506348
 21
238.35494804382324
  0
LINE
  8
_0-1_作画層１
  6
CONTINUOUS
 62
    7
 10
107.97443199157715
 20
240.88099575042725
 11
114.21314239501953
 21
244.06311416625977
  0
LINE
  8
_0-1_作画層１
  6
CONTINUOUS
 62
    7
 10
114.65544509887695
 20
243.16624355316162
 11
108.33302688598633
 21
240.15388584136963
  0
LINE
  8
_0-1_作画層１
  6
CONTINUOUS
 62
    7
 10
107.02569961547852
 20
242.59969139099121
 11
113.04294204711914
 21
246.18299293518066
  0
LINE
  8
_0-1_作画層１
  6
CONTINUOUS
 62
    7
 10
113.54293441772461
 20
245.31698799133301
 11
107.43106460571289
 21
241.89756774902344
  0
LINE
  8
_0-1_作画層１
  6
CONTINUOUS
 62
    7
 10
105.96660804748535
 20
244.25264739990234
 11
111.73659515380859
 21
248.22183990478516
  0
LINE
  8
_0-1_作画層１
  6
CONTINUOUS
 62
    7
 10
112.29215812683105
 20
247.39035797119141
 11
106.41701316833496
 21
243.57853698730469
  0
LINE
  8
_0-1_作画層１
  6
CONTINUOUS
 62
    7
 10
104.8016414642334
 20
245.83276176452637
 11
110.29969787597656
 21
250.17085456848145
  0
LINE
  8
_0-1_作画層１
  6
CONTINUOUS
 62
    7
 10
110.9084529876709
 20
249.37748146057129
 11
105.29517555236816
 21
245.18958854675293
  0
LINE
  8
_0-1_作画層１
  6
CONTINUOUS
 62
    7
 10
103.53585243225098
 20
247.33333206176758
 11
108.7383918762207
 21
252.02170944213867
  0
LINE
  8
_0-1_作画層１
  6
CONTINUOUS
 62
    7
 10
109.39775276184082
 20
251.26985740661621
 11
104.07040214538574
 21
246.72378921508789
  0
LINE
  8
_0-1_作画層１
  6
CONTINUOUS
 62
    7
 10
102.17463111877441
 20
248.74790382385254
 11
107.05939865112305
 21
253.76649284362793
  0
LINE
  8
_0-1_作画層１
  6
CONTINUOUS
 62
    7
 10
107.76649284362793
 20
253.05939865112305
 11
102.74790382385254
 21
248.17461395263672
  0
LINE
  8
_0-1_作画層１
  6
CONTINUOUS
 62
    7
 10
100.72380638122559
 20
250.07040214538574
 11
105.26987457275391
 21
255.39775276184082
  0
LINE
  8
_0-1_作画層１
  6
CONTINUOUS
 62
    7
 10
106.02170944213867
 20
254.7383918762207
 11
101.33335113525391
 21
249.53585243225098
  0
LINE
  8
_0-1_作画層１
  6
CONTINUOUS
 62
    7
 10
99.18958854675293
 20
251.29519271850586
 11
103.37748146057129
 21
256.9084529876709
  0
LINE
  8
_0-1_作画層１
  6
CONTINUOUS
 62
    7
 10
104.17085456848145
 20
256.29969787597656
 11
99.832778930664063
 21
250.80165863037109
  0
LINE
  8
_0-1_作画層１
  6
CONTINUOUS
 62
    7
 10
97.578536987304688
 20
252.41701316833496
 11
101.39035797119141
 21
258.29214096069336
  0
LINE
  8
_0-1_作画層１
  6
CONTINUOUS
 62
    7
 10
102.22183990478516
 20
257.73659515380859
 11
98.252630233764648
 21
251.96660804748535
  0
LINE
  8
_0-1_作画層１
  6
CONTINUOUS
 62
    7
 10
95.897567749023438
 20
253.43106460571289
 11
99.316987991333008
 21
259.54293441772461
  0
LINE
  8
_0-1_作画層１
  6
CONTINUOUS
 62
    7
 10
100.18301010131836
 20
259.04292488098145
 11
96.599673271179199
 21
253.02569961547852
  0
LINE
  8
_0-1_作画層１
  6
CONTINUOUS
 62
    7
 10
94.153903961181641
 20
254.33302688598633
 11
97.166243553161621
 21
260.65544509887695
  0
LINE
  8
_0-1_作画層１
  6
CONTINUOUS
 62
    7
 10
98.063131332397461
 20
260.21314239501953
 11
94.880995750427246
 21
253.97443199157715
  0
LINE
  8
_0-1_作画層１
  6
CONTINUOUS
 62
    7
 10
92.354948043823242
 20
255.11898231506348
 11
94.947346687316895
 21
261.6248779296875
  0
LINE
  8
_0-1_作画層１
  6
CONTINUOUS
 62
    7
 10
95.8712158203125
 20
261.24220657348633
 11
93.103946685791016
 21
254.8087158203125
  0
LINE
  8
_0-1_作画層１
  6
CONTINUOUS
 62
    7
 10
90.508450508117676
 20
255.78561973571777
 11
92.669797897338867
 21
262.44713973999023
  0
LINE
  8
_0-1_作画層１
  6
CONTINUOUS
 62
    7
 10
93.616729736328125
 20
262.12569427490234
 11
91.276154518127441
 21
255.52501106262207
  0
LINE
  8
_0-1_作画層１
  6
CONTINUOUS
 62
    7
 10
88.622304439544678
 20
256.33003807067871
 11
90.343343734741211
 21
263.11865997314453
  0
LINE
  8
_0-1_作画層１
  6
CONTINUOUS
 62
    7
 10
91.309260368347168
 20
262.85983657836914
 11
89.405424118041992
 21
256.12020683288574
  0
LINE
  8
_0-1_作画層１
  6
CONTINUOUS
 62
    7
 10
86.704609870910645
 20
256.74994277954102
 11
87.977940559387207
 21
263.63660430908203
  0
LINE
  8
_0-1_作画層１
  6
CONTINUOUS
 62
    7
 10
88.958746910095215
 20
263.44150543212891
 11
87.499750137329102
 21
256.59180068969727
  0
LINE
  8
_0-1_作画層１
  6
CONTINUOUS
 62
    7
 10
84.76353907585144
 20
257.04353523254395
 11
85.583753108978271
 21
263.99873352050781
  0
LINE
  8
_0-1_作画層１
  6
CONTINUOUS
 62
    7
 10
86.575198173522949
 20
263.86818313598633
 11
85.567323207855225
 21
256.93770980834961
  0
LINE
  8
_0-1_作画層１
  6
CONTINUOUS
 62
    7
 10
82.807420134544373
 20
257.20953369140625
 11
83.170983910560608
 21
264.20347213745117
  0
LINE
  8
_0-1_作画層１
  6
CONTINUOUS
 62
    7
 10
84.168850421905518
 20
264.13808441162109
 11
83.616400957107544
 21
257.15653419494629
  0
LINE
  8
_0-1_作画層１
  6
CONTINUOUS
 62
    7
 10
80.844634711742401
 20
257.24725914001465
 11
80.749990582466125
 21
264.24999618530273
  0
LINE
  8
_0-1_作画層１
  6
CONTINUOUS
 62
    7
 10
81.749991923570633
 20
264.24999618530273
 11
81.655365288257599
 21
257.24725914001465
  0
LINE
  8
_0-1_作画層１
  6
CONTINUOUS
 62
    7
 10
76.932676792144775
 20
256.93770980834961
 11
75.924801826477051
 21
263.86820220947266
  0
LINE
  8
_0-1_作画層１
  6
CONTINUOUS
 62
    7
 10
76.916246891021729
 20
263.99871444702148
 11
77.73646092414856
 21
257.04353523254395
  0
LINE
  8
_0-1_作画層１
  6
CONTINUOUS
 62
    7
 10
75.000232219696045
 20
256.59178352355957
 11
73.541270732879639
 21
263.44150543212891
  0
LINE
  8
_0-1_作画層１
  6
CONTINUOUS
 62
    7
 10
74.522059440612793
 20
263.63660430908203
 11
75.795390129089355
 21
256.74994277954102
  0
LINE
  8
_0-1_作画層１
  6
CONTINUOUS
 62
    7
 10
71.223845481872559
 20
255.52499389648438
 11
68.883270263671875
 21
262.12567520141602
  0
LINE
  8
_0-1_作画層１
  6
CONTINUOUS
 62
    7
 10
69.830202102661133
 20
262.44712066650391
 11
71.991549491882324
 21
255.78560256958008
  0
LINE
  8
_0-1_作画層１
  6
CONTINUOUS
 62
    7
 10
69.396035194396973
 20
254.8087329864502
 11
66.6287841796875
 21
261.24219131469727
  0
LINE
  8
_0-1_作画層１
  6
CONTINUOUS
 62
    7
 10
67.552653312683105
 20
261.6248779296875
 11
70.145051956176758
 21
255.11898231506348
  0
LINE
  8
_0-1_作画層１
  6
CONTINUOUS
 62
    7
 10
64.247369766235352
 20
251.96659088134766
 11
60.278160095214844
 21
257.73659515380859
  0
LINE
  8
_0-1_作画層１
  6
CONTINUOUS
 62
    7
 10
56.082986831665039
 20
243.57853698730469
 11
50.207841873168945
 21
247.39035797119141
  0
LINE
  8
_0-1_作画層１
  6
CONTINUOUS
 62
    7
 10
50.763404846191406
 20
248.22182273864746
 11
56.533391952514648
 21
244.25263023376465
  0
LINE
  8
_0-1_作画層１
  6
CONTINUOUS
 62
    7
 10
55.068935394287109
 20
241.89756774902344
 11
48.957065582275391
 21
245.31698799133301
  0
LINE
  8
_0-1_作画層１
  6
CONTINUOUS
 62
    7
 10
49.457057952880859
 20
246.18301010131836
 11
55.474300384521484
 21
242.5996732711792
  0
LINE
  8
_0-1_作画層１
  6
CONTINUOUS
 62
    7
 10
53.381017684936523
 20
238.35494804382324
 11
46.8751220703125
 21
240.94734668731689
  0
LINE
  8
_0-1_作画層１
  6
CONTINUOUS
 62
    7
 10
47.257793426513672
 20
241.8712158203125
 11
53.691267013549805
 21
239.10396480560303
  0
LINE
  8
_0-1_作画層１
  6
CONTINUOUS
 62
    7
 10
52.714397430419922
 20
236.50845050811768
 11
46.052860260009766
 21
238.66979789733887
  0
LINE
  8
_0-1_作画層１
  6
CONTINUOUS
 62
    7
 10
46.374305725097656
 20
239.61672973632812
 11
52.975006103515625
 21
237.27615451812744
  0
LINE
  8
_0-1_作画層１
  6
CONTINUOUS
 62
    7
 10
67.814976692199707
 20
250.5201587677002
 11
69.02741527557373
 21
251.22014617919922
  0
LINE
  8
_0-1_作画層１
  6
CONTINUOUS
 62
    7
 10
67.814976692199707
 20
250.5201587677002
 11
69.02741527557373
 21
251.22014617919922
  0
LINE
  8
_0-1_作画層１
  6
CONTINUOUS
 62
    7
 10
67.814976692199707
 20
250.5201587677002
 11
66.602537155151367
 21
249.82015228271484
  0
LINE
  8
_0-1_作画層１
  6
CONTINUOUS
 62
    7
 10
66.590219497680664
 20
249.81304740905762
 11
74.124305725097656
 21
231.88406324386597
  0
LINE
  8
_0-1_作画層１
  6
CONTINUOUS
 62
    7
 10
69.039715766906738
 20
251.22725105285645
 11
80.799613565206528
 21
235.73805236816406
  0
LINE
  8
_0-1_作画層１
  6
CONTINUOUS
 62
    7
 10
73.161381721496582
 20
242.05989170074463
 11
72.738308906555176
 21
242.79270648956299
  0
LINE
  8
_0-1_作画層１
  6
CONTINUOUS
 62
    7
 10
72.814983367919922
 20
241.85989570617676
 11
73.161381721496582
 21
242.05989170074463
  0
LINE
  8
_0-1_作画層１
  6
CONTINUOUS
 62
    7
 10
72.814983367919922
 20
241.85989570617676
 11
72.46856689453125
 21
241.65989875793457
  0
LINE
  8
_0-1_作画層１
  6
CONTINUOUS
 62
    7
 10
72.46856689453125
 20
241.65989875793457
 11
67.468560218811035
 21
250.32014465332031
  0
LINE
  8
_0-1_作画層１
  6
CONTINUOUS
 62
    7
 10
72.738308906555176
 20
242.79270648956299
 11
68.161392211914063
 21
250.72013664245605
  0
LINE
  8
_0-1_作画層１
  6
CONTINUOUS
 62
    7
 10
88.249991893768311
 20
215.12564659118652
 11
88.750001430511475
 21
214.25962352752686
  0
LINE
  8
_0-1_作画層１
  6
CONTINUOUS
 62
    7
 10
69.125646591186523
 20
220.25000810623169
 11
70.196057319641113
 21
216.25512981414795
  0
LINE
  8
_0-1_作画層１
  6
CONTINUOUS
 62
    7
 10
70.195497512817383
 20
216.230299949646
 11
70.885128021240234
 21
216.35887241363525
  0
LINE
  8
_0-1_作画層１
  6
CONTINUOUS
 62
    7
 10
92.392006874084473
 20
237.91617965698242
 11
91.698843002319336
 21
238.01204872131348
  0
LINE
  8
_0-1_作画層１
  6
CONTINUOUS
 62
    7
 10
93.374353408813477
 20
234.24999189376831
 11
92.392006874084473
 21
237.91617965698242
  0
LINE
  8
_0-1_作画層１
  6
CONTINUOUS
 62
    7
 10
64.34630012512207
 20
231.77934074401855
 11
70.141850471496582
 21
230.22641730308533
  0
LINE
  8
_0-1_作画層１
  6
CONTINUOUS
 62
    7
 10
87.221154689788818
 20
213.48973178863525
 11
88.701165676116943
 21
214.34420680999756
  0
LINE
  8
_0-1_作画層１
  6
CONTINUOUS
 62
    7
 10
86.549197196960449
 20
213.21724319458008
 11
88.651175498962402
 21
214.43080234527588
  0
LINE
  8
_0-1_作画層１
  6
CONTINUOUS
 62
    7
 10
86.026055812835693
 20
213.03066730499268
 11
88.60116720199585
 21
214.51741504669189
  0
LINE
  8
_0-1_作画層１
  6
CONTINUOUS
 62
    7
 10
85.579781532287598
 20
212.88848209381104
 11
88.551159381866455
 21
214.6040096282959
  0
LINE
  8
_0-1_作画層１
  6
CONTINUOUS
 62
    7
 10
85.182744979858398
 20
212.77471351623535
 11
88.501151561737061
 21
214.69062232971191
  0
LINE
  8
_0-1_作画層１
  6
CONTINUOUS
 62
    7
 10
84.820773601531982
 20
212.68120670318604
 11
88.451160907745361
 21
214.77721786499023
  0
LINE
  8
_0-1_作画層１
  6
CONTINUOUS
 62
    7
 10
84.48546838760376
 20
212.6030969619751
 11
88.401153087615967
 21
214.86381340026855
  0
LINE
  8
_0-1_作画層１
  6
CONTINUOUS
 62
    7
 10
84.171387672424316
 20
212.53723621368408
 11
88.351162910461426
 21
214.95042610168457
  0
LINE
  8
_0-1_作画層１
  6
CONTINUOUS
 62
    7
 10
83.87473464012146
 20
212.48141956329346
 11
88.301154613494873
 21
215.03703880310059
  0
LINE
  8
_0-1_作画層１
  6
CONTINUOUS
 62
    7
 10
83.592709302902222
 20
212.43407154083252
 11
88.251146793365479
 21
215.12363433837891
  0
LINE
  8
_0-1_作画層１
  6
CONTINUOUS
 62
    7
 10
83.32324743270874
 20
212.39396667480469
 11
86.771450519561768
 21
214.38480091094971
  0
LINE
  8
_0-1_作画層１
  6
CONTINUOUS
 62
    7
 10
83.064721345901489
 20
212.36017894744873
 11
86.120910167694092
 21
214.12468242645264
  0
LINE
  8
_0-1_作画層１
  6
CONTINUOUS
 62
    7
 10
82.815819025039673
 20
212.331955909729
 11
85.61423397064209
 21
213.94760799407959
  0
LINE
  8
_0-1_作画層１
  6
CONTINUOUS
 62
    7
 10
82.575507879257202
 20
212.30868434906006
 11
85.181905031204224
 21
213.81347179412842
  0
LINE
  8
_0-1_作画層１
  6
CONTINUOUS
 62
    7
 10
82.342948198318481
 20
212.28985691070557
 11
84.79716944694519
 21
213.70682430267334
  0
LINE
  8
_0-1_作画層１
  6
CONTINUOUS
 62
    7
 10
82.117352604866028
 20
212.27510643005371
 11
84.446396350860596
 21
213.61977386474609
  0
LINE
  8
_0-1_作画層１
  6
CONTINUOUS
 62
    7
 10
81.898143529891968
 20
212.26401233673096
 11
84.121449708938599
 21
213.54763126373291
  0
LINE
  8
_0-1_作画層１
  6
CONTINUOUS
 62
    7
 10
81.684796124696732
 20
212.25629615783691
 11
83.817045211791992
 21
213.48735237121582
  0
LINE
  8
_0-1_作画層１
  6
CONTINUOUS
 62
    7
 10
81.476855486631393
 20
212.25171184539795
 11
83.529508352279663
 21
213.4368200302124
  0
LINE
  8
_0-1_作画層１
  6
CONTINUOUS
 62
    7
 10
81.273919124156237
 20
212.25001430511475
 11
83.256196737289429
 21
213.39447593688965
  0
LINE
  8
_0-1_作画層１
  6
CONTINUOUS
 62
    7
 10
81.075637117028236
 20
212.25101184844971
 11
82.995028734207153
 21
213.3591833114624
  0
LINE
  8
_0-1_作画層１
  6
CONTINUOUS
 62
    7
 10
80.88171198964119
 20
212.25451183319092
 11
82.744464039802551
 21
213.32999706268311
  0
LINE
  8
_0-1_作画層１
  6
CONTINUOUS
 62
    7
 10
80.691863775253296
 20
212.26039028167725
 11
82.503278136253357
 21
213.30621814727783
  0
LINE
  8
_0-1_作画層１
  6
CONTINUOUS
 62
    7
 10
80.505865037441254
 20
212.26847457885742
 11
82.270421028137207
 21
213.28723335266113
  0
LINE
  8
_0-1_作画層１
  6
CONTINUOUS
 62
    7
 10
80.323470771312714
 20
212.27864074707031
 11
82.045052766799927
 21
213.27258777618408
  0
LINE
  8
_0-1_作画層１
  6
CONTINUOUS
 62
    7
 10
80.144523501396179
 20
212.29080104827881
 11
81.826491117477417
 21
213.26187896728516
  0
LINE
  8
_0-1_作画層１
  6
CONTINUOUS
 62
    7
 10
79.968795895576477
 20
212.30481719970703
 11
81.614123612642288
 21
213.25474071502686
  0
LINE
  8
_0-1_作画層１
  6
CONTINUOUS
 62
    7
 10
79.796165227890015
 20
212.32061767578125
 11
81.407442778348923
 21
213.25089073181152
  0
LINE
  8
_0-1_作画層１
  6
CONTINUOUS
 62
    7
 10
79.626491665840149
 20
212.33811473846436
 11
81.206028707325459
 21
213.25006866455078
  0
LINE
  8
_0-1_作画層１
  6
CONTINUOUS
 62
    7
 10
79.459600210189819
 20
212.35723972320557
 11
81.009478941559792
 21
213.25206279754639
  0
LINE
  8
_0-1_作画層１
  6
CONTINUOUS
 62
    7
 10
79.295385837554932
 20
212.37790393829346
 11
80.817478537559509
 21
213.25668239593506
  0
LINE
  8
_0-1_作画層１
  6
CONTINUOUS
 62
    7
 10
79.133743762969971
 20
212.40003871917725
 11
80.629730045795441
 21
213.26373386383057
  0
LINE
  8
_0-1_作画層１
  6
CONTINUOUS
 62
    7
 10
78.974551200866699
 20
212.42360782623291
 11
80.445935964584351
 21
213.27311325073242
  0
LINE
  8
_0-1_作画層１
  6
CONTINUOUS
 62
    7
 10
78.817703247070313
 20
212.44852447509766
 11
80.265903890132904
 21
213.28462600708008
  0
LINE
  8
_0-1_作画層１
  6
CONTINUOUS
 62
    7
 10
78.663130044937134
 20
212.47473526000977
 11
80.08937132358551
 21
213.29820442199707
  0
LINE
  8
_0-1_作画層１
  6
CONTINUOUS
 62
    7
 10
78.510744094848633
 20
212.50224113464355
 11
79.916198253631592
 21
213.31367206573486
  0
LINE
  8
_0-1_作画層１
  6
CONTINUOUS
 62
    7
 10
78.360457897186279
 20
212.53095531463623
 11
79.746192216873169
 21
213.33099460601807
  0
LINE
  8
_0-1_作画層１
  6
CONTINUOUS
 62
    7
 10
78.212218761444092
 20
212.56082344055176
 11
79.579195857048035
 21
213.35004901885986
  0
LINE
  8
_0-1_作画層１
  6
CONTINUOUS
 62
    7
 10
78.065939426422119
 20
212.59182929992676
 11
79.415068984031677
 21
213.37076663970947
  0
LINE
  8
_0-1_作画層１
  6
CONTINUOUS
 62
    7
 10
77.921549797058105
 20
212.62395477294922
 11
79.253689289093018
 21
213.39307594299316
  0
LINE
  8
_0-1_作画層１
  6
CONTINUOUS
 62
    7
 10
77.779014825820923
 20
212.65712928771973
 11
79.094934225082397
 21
213.41687297821045
  0
LINE
  8
_0-1_作画層１
  6
CONTINUOUS
 62
    7
 10
77.63824725151062
 20
212.69131946563721
 11
78.93864631652832
 21
213.44210433959961
  0
LINE
  8
_0-1_作画層１
  6
CONTINUOUS
 62
    7
 10
77.499194383621216
 20
212.72652530670166
 11
78.784790515899658
 21
213.46875286102295
  0
LINE
  8
_0-1_作画層１
  6
CONTINUOUS
 62
    7
 10
77.36185622215271
 20
212.76267528533936
 11
78.633244276046753
 21
213.49673080444336
  0
LINE
  8
_0-1_作画層１
  6
CONTINUOUS
 62
    7
 10
77.226128101348877
 20
212.7997875213623
 11
78.483920335769653
 21
213.52598667144775
  0
LINE
  8
_0-1_作画層１
  6
CONTINUOUS
 62
    7
 10
77.091991901397705
 20
212.83780956268311
 11
78.336731195449829
 21
213.55646800994873
  0
LINE
  8
_0-1_作画層１
  6
CONTINUOUS
 62
    7
 10
76.959413051605225
 20
212.87674140930176
 11
78.191606760025024
 21
213.58813858032227
  0
LINE
  8
_0-1_作画層１
  6
CONTINUOUS
 62
    7
 10
76.828304290771484
 20
212.91651344299316
 11
78.048476934432983
 21
213.62098121643066
  0
LINE
  8
_0-1_作画層１
  6
CONTINUOUS
 62
    7
 10
76.698682308197021
 20
212.95714282989502
 11
77.907271862030029
 21
213.65492630004883
  0
LINE
  8
_0-1_作画層１
  6
CONTINUOUS
 62
    7
 10
76.57049560546875
 20
212.99861145019531
 11
77.767921447753906
 21
213.68993854522705
  0
LINE
  8
_0-1_作画層１
  6
CONTINUOUS
 62
    7
 10
76.443690776824951
 20
213.04088592529297
 11
77.630390882492065
 21
213.72601890563965
  0
LINE
  8
_0-1_作画層１
  6
CONTINUOUS
 62
    7
 10
76.318251132965088
 20
213.08392906188965
 11
77.494592666625977
 21
213.7630786895752
  0
LINE
  8
_0-1_作画層１
  6
CONTINUOUS
 62
    7
 10
76.194158554077148
 20
213.1277437210083
 11
77.360508918762207
 21
213.8011360168457
  0
LINE
  8
_0-1_作画層１
  6
CONTINUOUS
 62
    7
 10
76.071343421936035
 20
213.17230987548828
 11
77.228087902069092
 21
213.84013748168945
  0
LINE
  8
_0-1_作画層１
  6
CONTINUOUS
 62
    7
 10
75.949822902679443
 20
213.21761035919189
 11
77.097258567810059
 21
213.88008499145508
  0
LINE
  8
_0-1_作画層１
  6
CONTINUOUS
 62
    7
 10
75.829527378082275
 20
213.26362895965576
 11
76.967987060546875
 21
213.92092418670654
  0
LINE
  8
_0-1_作画層１
  6
CONTINUOUS
 62
    7
 10
75.710456848144531
 20
213.31036472320557
 11
76.840237617492676
 21
213.96263790130615
  0
LINE
  8
_0-1_作画層１
  6
CONTINUOUS
 62
    7
 10
75.592593669891357
 20
213.35776615142822
 11
76.713975429534912
 21
214.00520992279053
  0
LINE
  8
_0-1_作画層１
  6
CONTINUOUS
 62
    7
 10
75.475902557373047
 20
213.4058837890625
 11
76.589148044586182
 21
214.04860305786133
  0
LINE
  8
_0-1_作画層１
  6
CONTINUOUS
 62
    7
 10
75.360366344451904
 20
213.45463180541992
 11
76.465755462646484
 21
214.0928373336792
  0
LINE
  8
_0-1_作画層１
  6
CONTINUOUS
 62
    7
 10
75.245932579040527
 20
213.5040454864502
 11
76.343727588653564
 21
214.13784027099609
  0
LINE
  8
_0-1_作画層１
  6
CONTINUOUS
 62
    7
 10
75.132636070251465
 20
213.5540885925293
 11
76.223029613494873
 21
214.18364906311035
  0
LINE
  8
_0-1_作画層１
  6
CONTINUOUS
 62
    7
 10
75.020424365997314
 20
213.60476112365723
 11
76.103678703308105
 21
214.23019313812256
  0
LINE
  8
_0-1_作画層１
  6
CONTINUOUS
 62
    7
 10
74.909245014190674
 20
213.6560640335083
 11
75.985588073730469
 21
214.27748870849609
  0
LINE
  8
_0-1_作画層１
  6
CONTINUOUS
 62
    7
 10
74.799150466918945
 20
213.70797920227051
 11
75.8687744140625
 21
214.32551956176758
  0
LINE
  8
_0-1_作画層１
  6
CONTINUOUS
 62
    7
 10
74.690071105957031
 20
213.76045417785645
 11
75.753185749053955
 21
214.37423229217529
  0
LINE
  8
_0-1_作画層１
  6
CONTINUOUS
 62
    7
 10
74.582041263580322
 20
213.81354141235352
 11
75.638786792755127
 21
214.42368030548096
  0
LINE
  8
_0-1_作画層１
  6
CONTINUOUS
 62
    7
 10
74.474973678588867
 20
213.86720657348633
 11
75.525612831115723
 21
214.47379302978516
  0
LINE
  8
_0-1_作画層１
  6
CONTINUOUS
 62
    7
 10
74.368886470794678
 20
213.92143154144287
 11
75.413576126098633
 21
214.5245885848999
  0
LINE
  8
_0-1_作画層１
  6
CONTINUOUS
 62
    7
 10
74.263795852661133
 20
213.97623348236084
 11
75.302694320678711
 21
214.57603168487549
  0
LINE
  8
_0-1_作画層１
  6
CONTINUOUS
 62
    7
 10
74.159650802612305
 20
214.03156089782715
 11
75.192914962768555
 21
214.6281213760376
  0
LINE
  8
_0-1_作画層１
  6
CONTINUOUS
 62
    7
 10
74.056450366973877
 20
214.08744812011719
 11
75.084255218505859
 21
214.68085956573486
  0
LINE
  8
_0-1_作画層１
  6
CONTINUOUS
 62
    7
 10
73.954159736633301
 20
214.14385986328125
 11
74.976645469665527
 21
214.73420906066895
  0
LINE
  8
_0-1_作画層１
  6
CONTINUOUS
 62
    7
 10
73.852778911590576
 20
214.20081424713135
 11
74.870120525360107
 21
214.78815364837646
  0
LINE
  8
_0-1_作画層１
  6
CONTINUOUS
 62
    7
 10
73.752325534820557
 20
214.25827598571777
 11
74.764645576477051
 21
214.84274578094482
  0
LINE
  8
_0-1_作画層１
  6
CONTINUOUS
 62
    7
 10
73.65274715423584
 20
214.31624603271484
 11
74.66018533706665
 21
214.89789867401123
  0
LINE
  8
_0-1_作画層１
  6
CONTINUOUS
 62
    7
 10
73.554043769836426
 20
214.37473964691162
 11
74.556739807128906
 21
214.95364570617676
  0
LINE
  8
_0-1_作画層１
  6
CONTINUOUS
 62
    7
 10
73.456214904785156
 20
214.43372440338135
 11
74.454308986663818
 21
215.00996971130371
  0
LINE
  8
_0-1_作画層１
  6
CONTINUOUS
 62
    7
 10
73.359243869781494
 20
214.49321556091309
 11
74.352823734283447
 21
215.06685447692871
  0
LINE
  8
_0-1_作画層１
  6
CONTINUOUS
 62
    7
 10
73.263112545013428
 20
214.55316257476807
 11
74.252317905426025
 21
215.12429904937744
  0
LINE
  8
_0-1_作画層１
  6
CONTINUOUS
 62
    7
 10
73.167802810668945
 20
214.61361598968506
 11
74.152774333953857
 21
215.1823034286499
  0
LINE
  8
_0-1_作画層１
  6
CONTINUOUS
 62
    7
 10
73.073333740234375
 20
214.67454242706299
 11
74.054175853729248
 21
215.24083232879639
  0
LINE
  8
_0-1_作画層１
  6
CONTINUOUS
 62
    7
 10
72.979669570922852
 20
214.73594093322754
 11
73.95648717880249
 21
215.29990386962891
  0
LINE
  8
_0-1_作画層１
  6
CONTINUOUS
 62
    7
 10
72.886810302734375
 20
214.79781246185303
 11
73.859725475311279
 21
215.35951805114746
  0
LINE
  8
_0-1_作画層１
  6
CONTINUOUS
 62
    7
 10
72.794773101806641
 20
214.86012172698975
 11
73.763856410980225
 21
215.41963958740234
  0
LINE
  8
_0-1_作画層１
  6
CONTINUOUS
 62
    7
 10
72.703506469726563
 20
214.92290210723877
 11
73.668879985809326
 21
215.48026847839355
  0
LINE
  8
_0-1_作画層１
  6
CONTINUOUS
 62
    7
 10
72.61302661895752
 20
214.98613834381104
 11
73.57477855682373
 21
215.54142284393311
  0
LINE
  8
_0-1_作画層１
  6
CONTINUOUS
 62
    7
 10
72.523299217224121
 20
215.04981231689453
 11
73.481568813323975
 21
215.60304927825928
  0
LINE
  8
_0-1_作画層１
  6
CONTINUOUS
 62
    7
 10
72.434359550476074
 20
215.11392307281494
 11
73.389199733734131
 21
215.66520023345947
  0
LINE
  8
_0-1_作画層１
  6
CONTINUOUS
 62
    7
 10
72.346171379089355
 20
215.17847156524658
 11
73.297669887542725
 21
215.72782421112061
  0
LINE
  8
_0-1_作画層１
  6
CONTINUOUS
 62
    7
 10
72.258736610412598
 20
215.24345684051514
 11
73.206997871398926
 21
215.79093742370605
  0
LINE
  8
_0-1_作画層１
  6
CONTINUOUS
 62
    7
 10
72.172036170959473
 20
215.30888080596924
 11
73.117148399353027
 21
215.85452365875244
  0
LINE
  8
_0-1_作画層１
  6
CONTINUOUS
 62
    7
 10
72.086071014404297
 20
215.37470626831055
 11
73.028120040893555
 21
215.91859912872314
  0
LINE
  8
_0-1_作画層１
  6
CONTINUOUS
 62
    7
 10
72.000840187072754
 20
215.44096946716309
 11
72.939897537231445
 21
215.98313045501709
  0
LINE
  8
_0-1_作画層１
  6
CONTINUOUS
 62
    7
 10
71.916327476501465
 20
215.50765228271484
 11
72.852479934692383
 21
216.04815101623535
  0
LINE
  8
_0-1_作画層１
  6
CONTINUOUS
 62
    7
 10
71.832549095153809
 20
215.57475566864014
 11
72.765867233276367
 21
216.11359214782715
  0
LINE
  8
_0-1_作画層１
  6
CONTINUOUS
 62
    7
 10
71.749470710754395
 20
215.64224338531494
 11
72.680025100708008
 21
216.17952251434326
  0
LINE
  8
_0-1_作画層１
  6
CONTINUOUS
 62
    7
 10
71.667092323303223
 20
215.71016883850098
 11
72.594986915588379
 21
216.24587345123291
  0
LINE
  8
_0-1_作画層１
  6
CONTINUOUS
 62
    7
 10
71.585413932800293
 20
215.77847957611084
 11
72.510701179504395
 21
216.31269645690918
  0
LINE
  8
_0-1_作画層１
  6
CONTINUOUS
 62
    7
 10
71.504435539245605
 20
215.84719181060791
 11
72.42718505859375
 21
216.37993907928467
  0
LINE
  8
_0-1_作画層１
  6
CONTINUOUS
 62
    7
 10
71.42415714263916
 20
215.91630744934082
 11
72.344439506530762
 21
216.4476375579834
  0
LINE
  8
_0-1_作画層１
  6
CONTINUOUS
 62
    7
 10
71.34454345703125
 20
215.98582458496094
 11
72.262446403503418
 21
216.51575469970703
  0
LINE
  8
_0-1_作画層１
  6
CONTINUOUS
 62
    7
 10
71.26561164855957
 20
216.05570983886719
 11
72.181187629699707
 21
216.58431053161621
  0
LINE
  8
_0-1_作画層１
  6
CONTINUOUS
 62
    7
 10
71.187345504760742
 20
216.12601470947266
 11
72.100681304931641
 21
216.6533203125
  0
LINE
  8
_0-1_作画層１
  6
CONTINUOUS
 62
    7
 10
71.10977840423584
 20
216.19668769836426
 11
72.020893096923828
 21
216.72271633148193
  0
LINE
  8
_0-1_作画層１
  6
CONTINUOUS
 62
    7
 10
71.032841682434082
 20
216.26774501800537
 11
71.941839218139648
 21
216.79254817962646
  0
LINE
  8
_0-1_作画層１
  6
CONTINUOUS
 62
    7
 10
70.956604957580566
 20
216.33918762207031
 11
71.863519668579102
 21
216.86280155181885
  0
LINE
  8
_0-1_作画層１
  6
CONTINUOUS
 62
    7
 10
70.745672225952148
 20
216.33287048339844
 11
71.785918235778809
 21
216.93345642089844
  0
LINE
  8
_0-1_作画層１
  6
CONTINUOUS
 62
    7
 10
70.450279235839844
 20
216.27780628204346
 11
71.709016799926758
 21
217.00453090667725
  0
LINE
  8
_0-1_作画層１
  6
CONTINUOUS
 62
    7
 10
70.171263694763184
 20
216.34765625
 11
71.557348251342773
 21
217.14790630340576
  0
LINE
  8
_0-1_作画層１
  6
CONTINUOUS
 62
    7
 10
70.144474983215332
 20
216.44765472412109
 11
71.482563972473145
 21
217.22020530700684
  0
LINE
  8
_0-1_作画層１
  6
CONTINUOUS
 62
    7
 10
70.11768627166748
 20
216.54765319824219
 11
71.408478736877441
 21
217.29289054870605
  0
LINE
  8
_0-1_作画層１
  6
CONTINUOUS
 62
    7
 10
70.090880393981934
 20
216.64765167236328
 11
71.33505916595459
 21
217.36597728729248
  0
LINE
  8
_0-1_作画層１
  6
CONTINUOUS
 62
    7
 10
70.06407356262207
 20
216.74765014648437
 11
71.26233959197998
 21
217.43944931030273
  0
LINE
  8
_0-1_作画層１
  6
CONTINUOUS
 62
    7
 10
70.037284851074219
 20
216.84764862060547
 11
71.190320014953613
 21
217.51334190368652
  0
LINE
  8
_0-1_作画層１
  6
CONTINUOUS
 62
    7
 10
70.010496139526367
 20
216.94766426086426
 11
71.11894702911377
 21
217.58761882781982
  0
LINE
  8
_0-1_作画層１
  6
CONTINUOUS
 62
    7
 10
69.98369026184082
 20
217.04764461517334
 11
71.048257827758789
 21
217.66226291656494
  0
LINE
  8
_0-1_作画層１
  6
CONTINUOUS
 62
    7
 10
69.956901550292969
 20
217.14764308929443
 11
70.978249549865723
 21
217.73732757568359
  0
LINE
  8
_0-1_作画層１
  6
CONTINUOUS
 62
    7
 10
69.930112838745117
 20
217.24764156341553
 11
70.908889770507813
 21
217.81274223327637
  0
LINE
  8
_0-1_作画層１
  6
CONTINUOUS
 62
    7
 10
69.90330696105957
 20
217.34764003753662
 11
70.840229034423828
 21
217.88855838775635
  0
LINE
  8
_0-1_作画層１
  6
CONTINUOUS
 62
    7
 10
69.876518249511719
 20
217.44763851165771
 11
70.772198677062988
 21
217.96476078033447
  0
LINE
  8
_0-1_作画層１
  6
CONTINUOUS
 62
    7
 10
69.849729537963867
 20
217.5476541519165
 11
70.704833030700684
 21
218.04134750366211
  0
LINE
  8
_0-1_作画層１
  6
CONTINUOUS
 62
    7
 10
69.822922706604004
 20
217.6476354598999
 11
70.63813304901123
 21
218.11830139160156
  0
LINE
  8
_0-1_作画層１
  6
CONTINUOUS
 62
    7
 10
69.796133995056152
 20
217.74765110015869
 11
70.572062492370605
 21
218.19562339782715
  0
LINE
  8
_0-1_作画層１
  6
CONTINUOUS
 62
    7
 10
69.769345283508301
 20
217.84764957427979
 11
70.506656646728516
 21
218.27332973480225
  0
LINE
  8
_0-1_作画層１
  6
CONTINUOUS
 62
    7
 10
69.742539405822754
 20
217.94764804840088
 11
70.441898345947266
 21
218.35140323638916
  0
LINE
  8
_0-1_作画層１
  6
CONTINUOUS
 62
    7
 10
69.715750694274902
 20
218.04764652252197
 11
70.377769470214844
 21
218.4298620223999
  0
LINE
  8
_0-1_作画層１
  6
CONTINUOUS
 62
    7
 10
69.688961982727051
 20
218.14764499664307
 11
70.314306259155273
 21
218.50868892669678
  0
LINE
  8
_0-1_作画層１
  6
CONTINUOUS
 62
    7
 10
69.662155151367188
 20
218.24764347076416
 11
70.251472473144531
 21
218.58786487579346
  0
LINE
  8
_0-1_作画層１
  6
CONTINUOUS
 62
    7
 10
69.635366439819336
 20
218.34764194488525
 11
70.189269065856934
 21
218.66742610931396
  0
LINE
  8
_0-1_作画層１
  6
CONTINUOUS
 62
    7
 10
69.608577728271484
 20
218.44763946533203
 11
70.127729415893555
 21
218.7473726272583
  0
LINE
  8
_0-1_作画層１
  6
CONTINUOUS
 62
    7
 10
69.581771850585938
 20
218.54763793945312
 11
70.06678581237793
 21
218.82765102386475
  0
LINE
  8
_0-1_作画層１
  6
CONTINUOUS
 62
    7
 10
69.554983139038086
 20
218.64763641357422
 11
70.006489753723145
 21
218.90833282470703
  0
LINE
  8
_0-1_作画層１
  6
CONTINUOUS
 62
    7
 10
69.528194427490234
 20
218.74763488769531
 11
69.946840286254883
 21
218.98934555053711
  0
LINE
  8
_0-1_作画層１
  6
CONTINUOUS
 62
    7
 10
69.501388549804688
 20
218.8476505279541
 11
69.88780403137207
 21
219.07072734832764
  0
LINE
  8
_0-1_作画層１
  6
CONTINUOUS
 62
    7
 10
69.474599838256836
 20
218.9476318359375
 11
69.829397201538086
 21
219.15249252319336
  0
LINE
  8
_0-1_作画層１
  6
CONTINUOUS
 62
    7
 10
69.447811126708984
 20
219.04764747619629
 11
69.77161979675293
 21
219.23459148406982
  0
LINE
  8
_0-1_作画層１
  6
CONTINUOUS
 62
    7
 10
69.421022415161133
 20
219.14762878417969
 11
69.714472770690918
 21
219.3170747756958
  0
LINE
  8
_0-1_作画層１
  6
CONTINUOUS
 62
    7
 10
69.39421558380127
 20
219.24764442443848
 11
69.657938957214355
 21
219.3999080657959
  0
LINE
  8
_0-1_作画層１
  6
CONTINUOUS
 62
    7
 10
69.367426872253418
 20
219.34764289855957
 11
69.602033615112305
 21
219.48309135437012
  0
LINE
  8
_0-1_作画層１
  6
CONTINUOUS
 62
    7
 10
69.340620994567871
 20
219.44764137268066
 11
69.546741485595703
 21
219.56664180755615
  0
LINE
  8
_0-1_作画層１
  6
CONTINUOUS
 62
    7
 10
69.31383228302002
 20
219.54763984680176
 11
69.492079734802246
 21
219.65054273605347
  0
LINE
  8
_0-1_作画層１
  6
CONTINUOUS
 62
    7
 10
69.287043571472168
 20
219.64763784408569
 11
69.438047409057617
 21
219.73482847213745
  0
LINE
  8
_0-1_作画層１
  6
CONTINUOUS
 62
    7
 10
69.260237693786621
 20
219.74765396118164
 11
69.384627342224121
 21
219.8194637298584
  0
LINE
  8
_0-1_作画層１
  6
CONTINUOUS
 62
    7
 10
69.23344898223877
 20
219.84763479232788
 11
69.331819534301758
 21
219.90443181991577
  0
LINE
  8
_0-1_作画層１
  6
CONTINUOUS
 62
    7
 10
69.206660270690918
 20
219.94765090942383
 11
69.279659271240234
 21
219.98978471755981
  0
LINE
  8
_0-1_作画層１
  6
CONTINUOUS
 62
    7
 10
69.179853439331055
 20
220.04764890670776
 11
69.228094100952148
 21
220.07548761367798
  0
LINE
  8
_0-1_作画層１
  6
CONTINUOUS
 62
    7
 10
69.153064727783203
 20
220.14764738082886
 11
69.177141189575195
 21
220.16154050827026
  0
LINE
  8
_0-1_作画層１
  6
CONTINUOUS
 62
    7
 10
69.126276016235352
 20
220.24764585494995
 11
69.126818656921387
 21
220.24796104431152
  0
LINE
  8
_0-1_作画層１
  6
CONTINUOUS
 62
    7
 10
70.051790237426758
 20
230.2505464553833
 11
70.166451454162598
 21
230.31675720214844
  0
LINE
  8
_0-1_作画層１
  6
CONTINUOUS
 62
    7
 10
69.915187835693359
 20
230.28715133666992
 11
70.205594062805176
 21
230.45481276512146
  0
LINE
  8
_0-1_作画層１
  6
CONTINUOUS
 62
    7
 10
69.778584480285645
 20
230.32375621795654
 11
70.246993064880371
 21
230.59419798851013
  0
LINE
  8
_0-1_作画層１
  6
CONTINUOUS
 62
    7
 10
69.64198112487793
 20
230.36036109924316
 11
70.290737152099609
 21
230.73491311073303
  0
LINE
  8
_0-1_作画層１
  6
CONTINUOUS
 62
    7
 10
69.505377769470215
 20
230.39696574211121
 11
70.336965560913086
 21
230.87709808349609
  0
LINE
  8
_0-1_作画層１
  6
CONTINUOUS
 62
    7
 10
69.3687744140625
 20
230.43355321884155
 11
70.38576602935791
 21
231.02071785926819
  0
LINE
  8
_0-1_作画層１
  6
CONTINUOUS
 62
    7
 10
69.232171058654785
 20
230.47017550468445
 11
70.437261581420898
 21
231.16591238975525
  0
LINE
  8
_0-1_作画層１
  6
CONTINUOUS
 62
    7
 10
69.095550537109375
 20
230.50678038597107
 11
70.491556167602539
 21
231.31275177001953
  0
LINE
  8
_0-1_作画層１
  6
CONTINUOUS
 62
    7
 10
68.958965301513672
 20
230.54338526725769
 11
70.548825263977051
 21
231.46127080917358
  0
LINE
  8
_0-1_作画層１
  6
CONTINUOUS
 62
    7
 10
68.822361946105957
 20
230.57997250556946
 11
70.609209060668945
 21
231.61160945892334
  0
LINE
  8
_0-1_作画層１
  6
CONTINUOUS
 62
    7
 10
68.685758590698242
 20
230.61657738685608
 11
70.672900199890137
 21
231.76385545730591
  0
LINE
  8
_0-1_作画層１
  6
CONTINUOUS
 62
    7
 10
68.549155235290527
 20
230.6531822681427
 11
70.740056037902832
 21
231.91809606552124
  0
LINE
  8
_0-1_作画層１
  6
CONTINUOUS
 62
    7
 10
68.412551879882813
 20
230.68978691101074
 11
70.810920715332031
 21
232.0744891166687
  0
LINE
  8
_0-1_作画層１
  6
CONTINUOUS
 62
    7
 10
68.275948524475098
 20
230.72637438774109
 11
70.885723114013672
 21
232.23313903808594
  0
LINE
  8
_0-1_作画層１
  6
CONTINUOUS
 62
    7
 10
68.139363288879395
 20
230.76297926902771
 11
70.964724540710449
 21
232.39420413970947
  0
LINE
  8
_0-1_作画層１
  6
CONTINUOUS
 62
    7
 10
68.002742767333984
 20
230.79958391189575
 11
71.048239707946777
 21
232.55791091918945
  0
LINE
  8
_0-1_作画層１
  6
CONTINUOUS
 62
    7
 10
67.86613941192627
 20
230.83618879318237
 11
71.136585235595703
 21
232.7243824005127
  0
LINE
  8
_0-1_作画層１
  6
CONTINUOUS
 62
    7
 10
67.72955322265625
 20
230.87279367446899
 11
71.230196952819824
 21
232.89388084411621
  0
LINE
  8
_0-1_作画層１
  6
CONTINUOUS
 62
    7
 10
67.59293270111084
 20
230.90939855575562
 11
71.329530715942383
 21
233.06672143936157
  0
LINE
  8
_0-1_作画層１
  6
CONTINUOUS
 62
    7
 10
67.45634651184082
 20
230.94600343704224
 11
71.435092926025391
 21
233.2431492805481
  0
LINE
  8
_0-1_作画層１
  6
CONTINUOUS
 62
    7
 10
67.31972599029541
 20
230.98260807991028
 11
71.547549247741699
 21
233.42353105545044
  0
LINE
  8
_0-1_作画層１
  6
CONTINUOUS
 62
    7
 10
67.183122634887695
 20
231.01919555664062
 11
71.667652130126953
 21
233.60835742950439
  0
LINE
  8
_0-1_作画層１
  6
CONTINUOUS
 62
    7
 10
67.046520233154297
 20
231.05581784248352
 11
71.796294212341309
 21
233.79808330535889
  0
LINE
  8
_0-1_作画層１
  6
CONTINUOUS
 62
    7
 10
66.909934043884277
 20
231.09242272377014
 11
71.934629440307617
 21
233.99342584609985
  0
LINE
  8
_0-1_作画層１
  6
CONTINUOUS
 62
    7
 10
66.773313522338867
 20
231.12900996208191
 11
72.084041595458984
 21
234.19515466690063
  0
LINE
  8
_0-1_作画層１
  6
CONTINUOUS
 62
    7
 10
66.636727333068848
 20
231.16561484336853
 11
72.246365547180176
 21
234.4043550491333
  0
LINE
  8
_0-1_作画層１
  6
CONTINUOUS
 62
    7
 10
66.500106811523438
 20
231.20221972465515
 11
72.424036026000977
 21
234.62240934371948
  0
LINE
  8
_0-1_作画層１
  6
CONTINUOUS
 62
    7
 10
66.363521575927734
 20
231.23882460594177
 11
72.62025260925293
 21
234.85115480422974
  0
LINE
  8
_0-1_作画層１
  6
CONTINUOUS
 62
    7
 10
66.500106811523438
 20
231.20221972465515
 11
72.866303443908691
 21
234.87775087356567
  0
LINE
  8
_0-1_作画層１
  6
CONTINUOUS
 62
    7
 10
66.363521575927734
 20
231.23882460594177
 11
72.827266693115234
 21
234.97068023681641
  0
LINE
  8
_0-1_作画層１
  6
CONTINUOUS
 62
    7
 10
66.22691822052002
 20
231.27541160583496
 11
72.788228988647461
 21
235.06359195709229
  0
LINE
  8
_0-1_作画層１
  6
CONTINUOUS
 62
    7
 10
66.090314865112305
 20
231.31201648712158
 11
72.749175071716309
 21
235.15652132034302
  0
LINE
  8
_0-1_作画層１
  6
CONTINUOUS
 62
    7
 10
65.95371150970459
 20
231.3486213684082
 11
72.71012020111084
 21
235.24945068359375
  0
LINE
  8
_0-1_作画層１
  6
CONTINUOUS
 62
    7
 10
65.817108154296875
 20
231.38524389266968
 11
72.671083450317383
 21
235.34236240386963
  0
LINE
  8
_0-1_作画層１
  6
CONTINUOUS
 62
    7
 10
65.680487632751465
 20
231.42183113098145
 11
72.632011413574219
 21
235.43530941009521
  0
LINE
  8
_0-1_作画層１
  6
CONTINUOUS
 62
    7
 10
65.543901443481445
 20
231.45843601226807
 11
72.592974662780762
 21
235.52822113037109
  0
LINE
  8
_0-1_作画層１
  6
CONTINUOUS
 62
    7
 10
65.407299041748047
 20
231.49504089355469
 11
72.553936958312988
 21
235.62115097045898
  0
LINE
  8
_0-1_作画層１
  6
CONTINUOUS
 62
    7
 10
65.270695686340332
 20
231.53164577484131
 11
72.514883041381836
 21
235.71406269073486
  0
LINE
  8
_0-1_作画層１
  6
CONTINUOUS
 62
    7
 10
65.134092330932617
 20
231.56823301315308
 11
72.475828170776367
 21
235.80699253082275
  0
LINE
  8
_0-1_作画層１
  6
CONTINUOUS
 62
    7
 10
64.997489929199219
 20
231.6048378944397
 11
72.436774253845215
 21
235.89992141723633
  0
LINE
  8
_0-1_作画層１
  6
CONTINUOUS
 62
    7
 10
64.860885620117188
 20
231.64145994186401
 11
72.397719383239746
 21
235.99285125732422
  0
LINE
  8
_0-1_作画層１
  6
CONTINUOUS
 62
    7
 10
64.724283218383789
 20
231.67804765701294
 11
72.358682632446289
 21
236.0857629776001
  0
LINE
  8
_0-1_作画層１
  6
CONTINUOUS
 62
    7
 10
64.587678909301758
 20
231.71465253829956
 11
72.319645881652832
 21
236.17869186401367
  0
LINE
  8
_0-1_作画層１
  6
CONTINUOUS
 62
    7
 10
64.451076507568359
 20
231.75125694274902
 11
72.280573844909668
 21
236.27162170410156
  0
LINE
  8
_0-1_作画層１
  6
CONTINUOUS
 62
    7
 10
64.354856491088867
 20
231.8111686706543
 11
72.241536140441895
 21
236.36455059051514
  0
LINE
  8
_0-1_作画層１
  6
CONTINUOUS
 62
    7
 10
64.392511367797852
 20
231.94838428497314
 11
72.202482223510742
 21
236.45748043060303
  0
LINE
  8
_0-1_作画層１
  6
CONTINUOUS
 62
    7
 10
64.431583404541016
 20
232.08640480041504
 11
72.163445472717285
 21
236.55039215087891
  0
LINE
  8
_0-1_作画層１
  6
CONTINUOUS
 62
    7
 10
64.472143173217773
 20
232.22530031204224
 11
72.124390602111816
 21
236.6433219909668
  0
LINE
  8
_0-1_作画層１
  6
CONTINUOUS
 62
    7
 10
64.514225006103516
 20
232.36507034301758
 11
72.085353851318359
 21
236.73625087738037
  0
LINE
  8
_0-1_作画層１
  6
CONTINUOUS
 62
    7
 10
64.557863235473633
 20
232.50573301315308
 11
72.046298980712891
 21
236.82916259765625
  0
LINE
  8
_0-1_作画層１
  6
CONTINUOUS
 62
    7
 10
64.603130340576172
 20
232.64732313156128
 11
72.007244110107422
 21
236.92209243774414
  0
LINE
  8
_0-1_作画層１
  6
CONTINUOUS
 62
    7
 10
64.650005340576172
 20
232.78985786437988
 11
71.96819019317627
 21
237.01502132415771
  0
LINE
  8
_0-1_作画層１
  6
CONTINUOUS
 62
    7
 10
64.698596954345703
 20
232.93339014053345
 11
71.929135322570801
 21
237.10795116424561
  0
LINE
  8
_0-1_作画層１
  6
CONTINUOUS
 62
    7
 10
64.748918533325195
 20
233.07793760299683
 11
71.890081405639648
 21
237.20088005065918
  0
LINE
  8
_0-1_作画層１
  6
CONTINUOUS
 62
    7
 10
64.801078796386719
 20
233.22348165512085
 11
71.851043701171875
 21
237.29379272460937
  0
LINE
  8
_0-1_作画層１
  6
CONTINUOUS
 62
    7
 10
64.855075836181641
 20
233.3701286315918
 11
71.812006950378418
 21
237.38672161102295
  0
LINE
  8
_0-1_作画層１
  6
CONTINUOUS
 62
    7
 10
64.910982131958008
 20
233.51789522171021
 11
71.772953033447266
 21
237.47965145111084
  0
LINE
  8
_0-1_作画層１
  6
CONTINUOUS
 62
    7
 10
64.968879699707031
 20
233.66679906845093
 11
71.733898162841797
 21
237.57256317138672
  0
LINE
  8
_0-1_作画層１
  6
CONTINUOUS
 62
    7
 10
65.028844833374023
 20
233.81689310073853
 11
71.694843292236328
 21
237.6655101776123
  0
LINE
  8
_0-1_作画層１
  6
CONTINUOUS
 62
    7
 10
65.090925216674805
 20
233.96819448471069
 11
71.655789375305176
 21
237.75842189788818
  0
LINE
  8
_0-1_作画層１
  6
CONTINUOUS
 62
    7
 10
65.15521240234375
 20
234.12077283859253
 11
71.616752624511719
 21
237.85135078430176
  0
LINE
  8
_0-1_作画層１
  6
CONTINUOUS
 62
    7
 10
65.221773147583008
 20
234.27468109130859
 11
71.57769775390625
 21
237.94428062438965
  0
LINE
  8
_0-1_作画層１
  6
CONTINUOUS
 62
    7
 10
65.29074764251709
 20
234.42997169494629
 11
71.538661003112793
 21
238.03719234466553
  0
LINE
  8
_0-1_作画層１
  6
CONTINUOUS
 62
    7
 10
65.36217212677002
 20
234.58667945861816
 11
71.499606132507324
 21
238.13012218475342
  0
LINE
  8
_0-1_作画層１
  6
CONTINUOUS
 62
    7
 10
65.436186790466309
 20
234.74489212036133
 11
71.460552215576172
 21
238.22305107116699
  0
LINE
  8
_0-1_作画層１
  6
CONTINUOUS
 62
    7
 10
65.512896537780762
 20
234.90464448928833
 11
71.421497344970703
 21
238.31596279144287
  0
LINE
  8
_0-1_作画層１
  6
CONTINUOUS
 62
    7
 10
65.592422485351563
 20
235.06600666046143
 11
71.382460594177246
 21
238.40890979766846
  0
LINE
  8
_0-1_作画層１
  6
CONTINUOUS
 62
    7
 10
65.674888610839844
 20
235.22911882400513
 11
71.343405723571777
 21
238.50182151794434
  0
LINE
  8
_0-1_作画層１
  6
CONTINUOUS
 62
    7
 10
65.760468482971191
 20
235.39398097991943
 11
71.30436897277832
 21
238.59475135803223
  0
LINE
  8
_0-1_作画層１
  6
CONTINUOUS
 62
    7
 10
65.84930419921875
 20
235.56074905395508
 11
71.265314102172852
 21
238.6876802444458
  0
LINE
  8
_0-1_作画層１
  6
CONTINUOUS
 62
    7
 10
65.941568374633789
 20
235.72947788238525
 11
71.226260185241699
 21
238.780592918396
  0
LINE
  8
_0-1_作画層１
  6
CONTINUOUS
 62
    7
 10
66.037437438964844
 20
235.90028858184814
 11
71.18720531463623
 21
238.87352180480957
  0
LINE
  8
_0-1_作画層１
  6
CONTINUOUS
 62
    7
 10
66.137138366699219
 20
236.07333946228027
 11
71.148168563842773
 21
238.96645164489746
  0
LINE
  8
_0-1_作画層１
  6
CONTINUOUS
 62
    7
 10
66.240898132324219
 20
236.24870014190674
 11
71.109131813049316
 21
239.05938053131104
  0
LINE
  8
_0-1_作画層１
  6
CONTINUOUS
 62
    7
 10
66.348980903625488
 20
236.42657947540283
 11
71.070076942443848
 21
239.15229225158691
  0
LINE
  8
_0-1_作画層１
  6
CONTINUOUS
 62
    7
 10
66.461682319641113
 20
236.6071195602417
 11
71.031022071838379
 21
239.2452392578125
  0
LINE
  8
_0-1_作画層１
  6
CONTINUOUS
 62
    7
 10
66.579336166381836
 20
236.79051113128662
 11
70.991968154907227
 21
239.33815097808838
  0
LINE
  8
_0-1_作画層１
  6
CONTINUOUS
 62
    7
 10
66.702273368835449
 20
236.97698211669922
 11
70.952913284301758
 21
239.43108081817627
  0
LINE
  8
_0-1_作画層１
  6
CONTINUOUS
 62
    7
 10
66.830985069274902
 20
237.16676044464111
 11
70.913876533508301
 21
239.52400970458984
  0
LINE
  8
_0-1_作画層１
  6
CONTINUOUS
 62
    7
 10
66.965890884399414
 20
237.36010837554932
 11
70.874821662902832
 21
239.61693954467773
  0
LINE
  8
_0-1_作画層１
  6
CONTINUOUS
 62
    7
 10
67.107585906982422
 20
237.55737495422363
 11
70.83576774597168
 21
239.70985126495361
  0
LINE
  8
_0-1_作画層１
  6
CONTINUOUS
 62
    7
 10
67.256734848022461
 20
237.75896453857422
 11
70.796730041503906
 21
239.8027811050415
  0
LINE
  8
_0-1_作画層１
  6
CONTINUOUS
 62
    7
 10
67.41407299041748
 20
237.96527767181396
 11
70.757676124572754
 21
239.89570999145508
  0
LINE
  8
_0-1_作画層１
  6
CONTINUOUS
 62
    7
 10
67.580561637878418
 20
238.17687511444092
 11
70.718621253967285
 21
239.98863983154297
  0
LINE
  8
_0-1_作画層１
  6
CONTINUOUS
 62
    7
 10
67.757304191589355
 20
238.39438724517822
 11
70.679567337036133
 21
240.08156871795654
  0
LINE
  8
_0-1_作画層１
  6
CONTINUOUS
 62
    7
 10
67.945682525634766
 20
238.6185998916626
 11
70.640529632568359
 21
240.17448043823242
  0
LINE
  8
_0-1_作画層１
  6
CONTINUOUS
 62
    7
 10
68.147464752197266
 20
238.85058307647705
 11
70.601475715637207
 21
240.26741027832031
  0
LINE
  8
_0-1_作画層１
  6
CONTINUOUS
 62
    7
 10
68.364818572998047
 20
239.0915412902832
 11
70.56243896484375
 21
240.36033916473389
  0
LINE
  8
_0-1_作画層１
  6
CONTINUOUS
 62
    7
 10
68.600703239440918
 20
239.34319019317627
 11
70.523384094238281
 21
240.45325183868408
  0
LINE
  8
_0-1_作画層１
  6
CONTINUOUS
 62
    7
 10
68.859193801879883
 20
239.6078929901123
 11
70.484329223632813
 21
240.54618072509766
  0
LINE
  8
_0-1_作画層１
  6
CONTINUOUS
 62
    7
 10
69.146013259887695
 20
239.88897323608398
 11
70.44527530670166
 21
240.63909244537354
  0
LINE
  8
_0-1_作画層１
  6
CONTINUOUS
 62
    7
 10
69.470067977905273
 20
240.19152355194092
 11
70.406237602233887
 21
240.73202228546143
  0
LINE
  8
_0-1_作画層１
  6
CONTINUOUS
 62
    7
 10
69.846212387084961
 20
240.52416896820068
 11
70.36720085144043
 21
240.824951171875
  0
LINE
  8
_0-1_作画層１
  6
CONTINUOUS
 62
    7
 10
70.303194999694824
 20
240.90348052978516
 11
70.328146934509277
 21
240.91788101196289
  0
LINE
  8
_0-1_作画層１
  6
CONTINUOUS
 62
    7
 10
92.392006874084473
 20
237.91617965698242
 11
95.295967102050781
 21
237.68977928161621
  0
LINE
  8
_0-1_作画層１
  6
CONTINUOUS
 62
    7
 10
95.155829429626465
 20
237.70071506500244
 11
95.247342109680176
 21
237.7535400390625
  0
LINE
  8
_0-1_作画層１
  6
CONTINUOUS
 62
    7
 10
94.979629516601563
 20
237.71443271636963
 11
95.186642646789551
 21
237.83394145965576
  0
LINE
  8
_0-1_作画層１
  6
CONTINUOUS
 62
    7
 10
94.803412437438965
 20
237.72816848754883
 11
95.125418663024902
 21
237.9140796661377
  0
LINE
  8
_0-1_作画層１
  6
CONTINUOUS
 62
    7
 10
94.627211570739746
 20
237.74192142486572
 11
95.063687324523926
 21
237.99392127990723
  0
LINE
  8
_0-1_作画層１
  6
CONTINUOUS
 62
    7
 10
94.450976371765137
 20
237.75565719604492
 11
95.001448631286621
 21
238.07346439361572
  0
LINE
  8
_0-1_作画層１
  6
CONTINUOUS
 62
    7
 10
94.274776458740234
 20
237.76939296722412
 11
94.938702583312988
 21
238.15271091461182
  0
LINE
  8
_0-1_作画層１
  6
CONTINUOUS
 62
    7
 10
94.098593711853027
 20
237.78312873840332
 11
94.875466346740723
 21
238.23165988922119
  0
LINE
  8
_0-1_作画層１
  6
CONTINUOUS
 62
    7
 10
93.92237663269043
 20
237.7968635559082
 11
94.811688423156738
 21
238.31031131744385
  0
LINE
  8
_0-1_作画層１
  6
CONTINUOUS
 62
    7
 10
93.746175765991211
 20
237.8105993270874
 11
94.747402191162109
 21
238.38866519927979
  0
LINE
  8
_0-1_作画層１
  6
CONTINUOUS
 62
    7
 10
93.569975852966309
 20
237.8243350982666
 11
94.682608604431152
 21
238.466721534729
  0
LINE
  8
_0-1_作画層１
  6
CONTINUOUS
 62
    7
 10
93.393758773803711
 20
237.8380708694458
 11
94.617290496826172
 21
238.54448127746582
  0
LINE
  8
_0-1_作画層１
  6
CONTINUOUS
 62
    7
 10
93.217557907104492
 20
237.8518238067627
 11
94.551465034484863
 21
238.6219425201416
  0
LINE
  8
_0-1_作画層１
  6
CONTINUOUS
 62
    7
 10
93.041340827941895
 20
237.86554145812988
 11
94.485114097595215
 21
238.69908905029297
  0
LINE
  8
_0-1_作画層１
  6
CONTINUOUS
 62
    7
 10
92.86512279510498
 20
237.87929439544678
 11
94.418221473693848
 21
238.77597332000732
  0
LINE
  8
_0-1_作画層１
  6
CONTINUOUS
 62
    7
 10
92.688940048217773
 20
237.89301300048828
 11
94.350820541381836
 21
238.85250759124756
  0
LINE
  8
_0-1_作画層１
  6
CONTINUOUS
 62
    7
 10
92.512722969055176
 20
237.90676593780518
 11
94.282895088195801
 21
238.92876148223877
  0
LINE
  8
_0-1_作画層１
  6
CONTINUOUS
 62
    7
 10
92.341194152832031
 20
237.92321395874023
 11
94.214445114135742
 21
239.00470066070557
  0
LINE
  8
_0-1_作画層１
  6
CONTINUOUS
 62
    7
 10
92.179867744445801
 20
237.94552326202393
 11
94.145469665527344
 21
239.08036041259766
  0
LINE
  8
_0-1_作画層１
  6
CONTINUOUS
 62
    7
 10
92.018505096435547
 20
237.96783256530762
 11
94.075934410095215
 21
239.15568733215332
  0
LINE
  8
_0-1_作画層１
  6
CONTINUOUS
 62
    7
 10
91.857160568237305
 20
237.990159034729
 11
94.005874633789063
 21
239.23069858551025
  0
LINE
  8
_0-1_作画層１
  6
CONTINUOUS
 62
    7
 10
91.697443008422852
 20
238.01339530944824
 11
93.93528938293457
 21
239.30541324615479
  0
LINE
  8
_0-1_作画層１
  6
CONTINUOUS
 62
    7
 10
91.622518539428711
 20
238.08562564849854
 11
93.864162445068359
 21
239.37984752655029
  0
LINE
  8
_0-1_作画層１
  6
CONTINUOUS
 62
    7
 10
91.54694652557373
 20
238.157470703125
 11
93.792491912841797
 21
239.453932762146
  0
LINE
  8
_0-1_作画層１
  6
CONTINUOUS
 62
    7
 10
91.47072696685791
 20
238.22893047332764
 11
93.720279693603516
 21
239.52770233154297
  0
LINE
  8
_0-1_作画層１
  6
CONTINUOUS
 62
    7
 10
91.393843650817871
 20
238.30000495910645
 11
93.647524833679199
 21
239.60117435455322
  0
LINE
  8
_0-1_作画層１
  6
CONTINUOUS
 62
    7
 10
91.316293716430664
 20
238.37069511413574
 11
93.574210166931152
 21
239.67431354522705
  0
LINE
  8
_0-1_作画層１
  6
CONTINUOUS
 62
    7
 10
91.238062858581543
 20
238.44099998474121
 11
93.500353813171387
 21
239.74715614318848
  0
LINE
  8
_0-1_作画層１
  6
CONTINUOUS
 62
    7
 10
91.15916633605957
 20
238.51092052459717
 11
93.425936698913574
 21
239.81964874267578
  0
LINE
  8
_0-1_作画層１
  6
CONTINUOUS
 62
    7
 10
91.079587936401367
 20
238.5804557800293
 11
93.350976943969727
 21
239.89182567596436
  0
LINE
  8
_0-1_作画層１
  6
CONTINUOUS
 62
    7
 10
90.999343872070312
 20
238.6495885848999
 11
93.275457382202148
 21
239.96370506286621
  0
LINE
  8
_0-1_作画層１
  6
CONTINUOUS
 62
    7
 10
90.91838264465332
 20
238.71831893920898
 11
93.19937801361084
 21
240.03523540496826
  0
LINE
  8
_0-1_作画層１
  6
CONTINUOUS
 62
    7
 10
90.836756706237793
 20
238.78664684295654
 11
93.122721672058105
 21
240.10645008087158
  0
LINE
  8
_0-1_作画層１
  6
CONTINUOUS
 62
    7
 10
90.754396438598633
 20
238.85458946228027
 11
93.045487403869629
 21
240.17735004425049
  0
LINE
  8
_0-1_作画層１
  6
CONTINUOUS
 62
    7
 10
90.671352386474609
 20
238.92211246490479
 11
92.967693328857422
 21
240.24790000915527
  0
LINE
  8
_0-1_作画層１
  6
CONTINUOUS
 62
    7
 10
90.58760929107666
 20
238.98921585083008
 11
92.889339447021484
 21
240.31813526153564
  0
LINE
  8
_0-1_作画層１
  6
CONTINUOUS
 62
    7
 10
90.503113746643066
 20
239.05591583251953
 11
92.810373306274414
 21
240.38802051544189
  0
LINE
  8
_0-1_作画層１
  6
CONTINUOUS
 62
    7
 10
90.41791820526123
 20
239.12219715118408
 11
92.730864524841309
 21
240.45755577087402
  0
LINE
  8
_0-1_作画層１
  6
CONTINUOUS
 62
    7
 10
90.331988334655762
 20
239.1880578994751
 11
92.65074348449707
 21
240.52679347991943
  0
LINE
  8
_0-1_作画層１
  6
CONTINUOUS
 62
    7
 10
90.245340347290039
 20
239.25349807739258
 11
92.570027351379395
 21
240.59566402435303
  0
LINE
  8
_0-1_作画層１
  6
CONTINUOUS
 62
    7
 10
90.157939910888672
 20
239.31850147247314
 11
92.488751411437988
 21
240.6642017364502
  0
LINE
  8
_0-1_作画層１
  6
CONTINUOUS
 62
    7
 10
90.069769859313965
 20
239.38306713104248
 11
92.406845092773438
 21
240.73238945007324
  0
LINE
  8
_0-1_作画層１
  6
CONTINUOUS
 62
    7
 10
89.980865478515625
 20
239.4472131729126
 11
92.324361801147461
 21
240.80022716522217
  0
LINE
  8
_0-1_作画層１
  6
CONTINUOUS
 62
    7
 10
89.891190528869629
 20
239.51090431213379
 11
92.241249084472656
 21
240.86771583557129
  0
LINE
  8
_0-1_作画層１
  6
CONTINUOUS
 62
    7
 10
89.800727844238281
 20
239.57415771484375
 11
92.157540321350098
 21
240.93485355377197
  0
LINE
  8
_0-1_作画層１
  6
CONTINUOUS
 62
    7
 10
89.709513664245605
 20
239.63695621490479
 11
92.073220252990723
 21
241.00164127349854
  0
LINE
  8
_0-1_作画層１
  6
CONTINUOUS
 62
    7
 10
89.617493629455566
 20
239.69930076599121
 11
91.988286972045898
 21
241.06807994842529
  0
LINE
  8
_0-1_作画層１
  6
CONTINUOUS
 62
    7
 10
89.524669647216797
 20
239.76117134094238
 11
91.902706146240234
 21
241.13415050506592
  0
LINE
  8
_0-1_作画層１
  6
CONTINUOUS
 62
    7
 10
89.431075096130371
 20
239.82260513305664
 11
91.816531181335449
 21
241.19985389709473
  0
LINE
  8
_0-1_作画層１
  6
CONTINUOUS
 62
    7
 10
89.336623191833496
 20
239.88354969024658
 11
91.729708671569824
 21
241.2652063369751
  0
LINE
  8
_0-1_作画層１
  6
CONTINUOUS
 62
    7
 10
89.241366863250732
 20
239.94402122497559
 11
91.642238616943359
 21
241.33017539978027
  0
LINE
  8
_0-1_作画層１
  6
CONTINUOUS
 62
    7
 10
89.145270824432373
 20
240.00401973724365
 11
91.554155349731445
 21
241.39477634429932
  0
LINE
  8
_0-1_作画層１
  6
CONTINUOUS
 62
    7
 10
89.048334121704102
 20
240.06351184844971
 11
91.465373039245605
 21
241.45900917053223
  0
LINE
  8
_0-1_作画層１
  6
CONTINUOUS
 62
    7
 10
88.950522899627686
 20
240.12251281738281
 11
91.375995635986328
 21
241.52285766601562
  0
LINE
  8
_0-1_作画層１
  6
CONTINUOUS
 62
    7
 10
88.851871967315674
 20
240.1810245513916
 11
91.285918235778809
 21
241.58632183074951
  0
LINE
  8
_0-1_作画層１
  6
CONTINUOUS
 62
    7
 10
88.752346038818359
 20
240.23902893066406
 11
91.195176124572754
 21
241.64941787719727
  0
LINE
  8
_0-1_作画層１
  6
CONTINUOUS
 62
    7
 10
88.651910305023193
 20
240.2965087890625
 11
91.103804588317871
 21
241.7121114730835
  0
LINE
  8
_0-1_作画層１
  6
CONTINUOUS
 62
    7
 10
88.550599575042725
 20
240.35348033905029
 11
91.011714935302734
 21
241.7744197845459
  0
LINE
  8
_0-1_作画層１
  6
CONTINUOUS
 62
    7
 10
88.448343753814697
 20
240.40992736816406
 11
90.918942451477051
 21
241.83634376525879
  0
LINE
  8
_0-1_作画層１
  6
CONTINUOUS
 62
    7
 10
88.345178604125977
 20
240.46584987640381
 11
90.825506210327148
 21
241.89784717559814
  0
LINE
  8
_0-1_作画層１
  6
CONTINUOUS
 62
    7
 10
88.241068363189697
 20
240.52121162414551
 11
90.731351852416992
 21
241.95896625518799
  0
LINE
  8
_0-1_作画層１
  6
CONTINUOUS
 62
    7
 10
88.136013031005859
 20
240.57601451873779
 11
90.636514663696289
 21
242.01968288421631
  0
LINE
  8
_0-1_作画層１
  6
CONTINUOUS
 62
    7
 10
88.029995441436768
 20
240.63027381896973
 11
90.540943145751953
 21
242.07997894287109
  0
LINE
  8
_0-1_作画層１
  6
CONTINUOUS
 62
    7
 10
87.92296314239502
 20
240.68395614624023
 11
90.444672584533691
 21
242.13987350463867
  0
LINE
  8
_0-1_作画層１
  6
CONTINUOUS
 62
    7
 10
87.814968585968018
 20
240.73707866668701
 11
90.347665786743164
 21
242.19933032989502
  0
LINE
  8
_0-1_作画層１
  6
CONTINUOUS
 62
    7
 10
87.705941200256348
 20
240.78958892822266
 11
90.249924659729004
 21
242.25836658477783
  0
LINE
  8
_0-1_作画層１
  6
CONTINUOUS
 62
    7
 10
87.595899105072021
 20
240.84152126312256
 11
90.151466369628906
 21
242.31698322296143
  0
LINE
  8
_0-1_作画層１
  6
CONTINUOUS
 62
    7
 10
87.484789848327637
 20
240.89285945892334
 11
90.052237510681152
 21
242.3751802444458
  0
LINE
  8
_0-1_作画層１
  6
CONTINUOUS
 62
    7
 10
87.372630596160889
 20
240.94356727600098
 11
89.952239036560059
 21
242.43290424346924
  0
LINE
  8
_0-1_作画層１
  6
CONTINUOUS
 62
    7
 10
87.25935173034668
 20
240.99364471435547
 11
89.851506233215332
 21
242.49020862579346
  0
LINE
  8
_0-1_作画層１
  6
CONTINUOUS
 62
    7
 10
87.144988059997559
 20
241.04307556152344
 11
89.749967575073242
 21
242.54705810546875
  0
LINE
  8
_0-1_作画層１
  6
CONTINUOUS
 62
    7
 10
87.029504299163818
 20
241.09187602996826
 11
89.647677421569824
 21
242.60347080230713
  0
LINE
  8
_0-1_作画層１
  6
CONTINUOUS
 62
    7
 10
86.91286563873291
 20
241.13999462127686
 11
89.544564247131348
 21
242.65941047668457
  0
LINE
  8
_0-1_作画層１
  6
CONTINUOUS
 62
    7
 10
86.795037269592285
 20
241.1874475479126
 11
89.440664291381836
 21
242.71489429473877
  0
LINE
  8
_0-1_作画層１
  6
CONTINUOUS
 62
    7
 10
86.676036834716797
 20
241.23420143127441
 11
89.335941314697266
 21
242.76990699768066
  0
LINE
  8
_0-1_作画層１
  6
CONTINUOUS
 62
    7
 10
86.555810928344727
 20
241.28025436401367
 11
89.230396270751953
 21
242.82444667816162
  0
LINE
  8
_0-1_作画層１
  6
CONTINUOUS
 62
    7
 10
86.434325695037842
 20
241.325608253479
 11
89.12402868270874
 21
242.87849617004395
  0
LINE
  8
_0-1_作画層１
  6
CONTINUOUS
 62
    7
 10
86.311580657958984
 20
241.37020969390869
 11
89.016786098480225
 21
242.93205642700195
  0
LINE
  8
_0-1_作画層１
  6
CONTINUOUS
 62
    7
 10
86.187540531158447
 20
241.41405868530273
 11
88.908703804016113
 21
242.98512649536133
  0
LINE
  8
_0-1_作画層１
  6
CONTINUOUS
 62
    7
 10
86.06217098236084
 20
241.45715427398682
 11
88.799764156341553
 21
243.03768920898437
  0
LINE
  8
_0-1_作画層１
  6
CONTINUOUS
 62
    7
 10
85.935436248779297
 20
241.49944591522217
 11
88.689914703369141
 21
243.08974456787109
  0
LINE
  8
_0-1_作画層１
  6
CONTINUOUS
 62
    7
 10
85.80730152130127
 20
241.54093265533447
 11
88.579190731048584
 21
243.14129161834717
  0
LINE
  8
_0-1_作画層１
  6
CONTINUOUS
 62
    7
 10
85.677750110626221
 20
241.58161449432373
 11
88.467556476593018
 21
243.19231510162354
  0
LINE
  8
_0-1_作画層１
  6
CONTINUOUS
 62
    7
 10
85.546728610992432
 20
241.62143898010254
 11
88.354977130889893
 21
243.24277782440186
  0
LINE
  8
_0-1_作画層１
  6
CONTINUOUS
 62
    7
 10
85.414202213287354
 20
241.6603889465332
 11
88.241487979888916
 21
243.29273223876953
  0
LINE
  8
_0-1_作画層１
  6
CONTINUOUS
 62
    7
 10
85.280136108398437
 20
241.69846343994141
 11
88.12701940536499
 21
243.34211158752441
  0
LINE
  8
_0-1_作画層１
  6
CONTINUOUS
 62
    7
 10
85.144495248794556
 20
241.73561000823975
 11
88.011640548706055
 21
243.39094734191895
  0
LINE
  8
_0-1_作画層１
  6
CONTINUOUS
 62
    7
 10
85.007209777832031
 20
241.77183055877686
 11
87.895229339599609
 21
243.43922233581543
  0
LINE
  8
_0-1_作画層１
  6
CONTINUOUS
 62
    7
 10
84.868244409561157
 20
241.8070707321167
 11
87.777821063995361
 21
243.4869213104248
  0
LINE
  8
_0-1_作画層１
  6
CONTINUOUS
 62
    7
 10
84.727564096450806
 20
241.84131336212158
 11
87.659415245056152
 21
243.53402328491211
  0
LINE
  8
_0-1_作画層１
  6
CONTINUOUS
 62
    7
 10
84.585116863250732
 20
241.87454032897949
 11
87.539977073669434
 21
243.58051490783691
  0
LINE
  8
_0-1_作画層１
  6
CONTINUOUS
 62
    7
 10
84.440814733505249
 20
241.90670108795166
 11
87.41948938369751
 21
243.62642860412598
  0
LINE
  8
_0-1_作画層１
  6
CONTINUOUS
 62
    7
 10
84.294605255126953
 20
241.93775939941406
 11
87.297916412353516
 21
243.67171287536621
  0
LINE
  8
_0-1_作画層１
  6
CONTINUOUS
 62
    7
 10
84.146471261978149
 20
241.967698097229
 11
87.175258636474609
 21
243.71636581420898
  0
LINE
  8
_0-1_作画層１
  6
CONTINUOUS
 62
    7
 10
83.996272325515747
 20
241.99646377563477
 11
87.051481246948242
 21
243.76038932800293
  0
LINE
  8
_0-1_作画層１
  6
CONTINUOUS
 62
    7
 10
83.843991279602051
 20
242.02400493621826
 11
86.926583766937256
 21
243.80374908447266
  0
LINE
  8
_0-1_作画層１
  6
CONTINUOUS
 62
    7
 10
83.689523220062256
 20
242.05028629302979
 11
86.800531387329102
 21
243.84644317626953
  0
LINE
  8
_0-1_作画層１
  6
CONTINUOUS
 62
    7
 10
83.532797813415527
 20
242.07527256011963
 11
86.673306941986084
 21
243.88843727111816
  0
LINE
  8
_0-1_作画層１
  6
CONTINUOUS
 62
    7
 10
83.373727798461914
 20
242.0988941192627
 11
86.544875144958496
 21
243.92976570129395
  0
LINE
  8
_0-1_作画層１
  6
CONTINUOUS
 62
    7
 10
83.212173104286194
 20
242.12111568450928
 11
86.415200710296631
 21
243.97035980224609
  0
LINE
  8
_0-1_作画層１
  6
CONTINUOUS
 62
    7
 10
83.048098683357239
 20
242.14183330535889
 11
86.284284591674805
 21
244.01025390625
  0
LINE
  8
_0-1_作画層１
  6
CONTINUOUS
 62
    7
 10
82.881329774856567
 20
242.1610279083252
 11
86.152072906494141
 21
244.04939651489258
  0
LINE
  8
_0-1_作画層１
  6
CONTINUOUS
 62
    7
 10
82.711761236190796
 20
242.17861270904541
 11
86.018567085266113
 21
244.0877857208252
  0
LINE
  8
_0-1_作画層１
  6
CONTINUOUS
 62
    7
 10
82.53928804397583
 20
242.19448280334473
 11
85.88369607925415
 21
244.12538719177246
  0
LINE
  8
_0-1_作画層１
  6
CONTINUOUS
 62
    7
 10
82.363717794418335
 20
242.20860385894775
 11
85.747477531433105
 21
244.16220283508301
  0
LINE
  8
_0-1_作画層１
  6
CONTINUOUS
 62
    7
 10
82.184910535812378
 20
242.22083473205566
 11
85.609824657440186
 21
244.19821357727051
  0
LINE
  8
_0-1_作画層１
  6
CONTINUOUS
 62
    7
 10
82.002708733081818
 20
242.23110580444336
 11
85.470771789550781
 21
244.23338317871094
  0
LINE
  8
_0-1_作画層１
  6
CONTINUOUS
 62
    7
 10
81.816867470741272
 20
242.23927688598633
 11
85.330179214477539
 21
244.26769638061523
  0
LINE
  8
_0-1_作画層１
  6
CONTINUOUS
 62
    7
 10
81.62721174955368
 20
242.24524307250977
 11
85.188099145889282
 21
244.30113410949707
  0
LINE
  8
_0-1_作画層１
  6
CONTINUOUS
 62
    7
 10
81.433496594429016
 20
242.24888324737549
 11
85.044479370117188
 21
244.33367919921875
  0
LINE
  8
_0-1_作画層１
  6
CONTINUOUS
 62
    7
 10
81.235407060012221
 20
242.24998569488525
 11
84.89921498298645
 21
244.36528015136719
  0
LINE
  8
_0-1_作画層１
  6
CONTINUOUS
 62
    7
 10
81.032698169350624
 20
242.24841022491455
 11
84.75234055519104
 21
244.39595222473145
  0
LINE
  8
_0-1_作画層１
  6
CONTINUOUS
 62
    7
 10
80.825002491474152
 20
242.24398326873779
 11
84.603751659393311
 21
244.42562866210937
  0
LINE
  8
_0-1_作画層１
  6
CONTINUOUS
 62
    7
 10
80.611900091171265
 20
242.23642444610596
 11
84.453412771224976
 21
244.45430755615234
  0
LINE
  8
_0-1_作画層１
  6
CONTINUOUS
 62
    7
 10
80.392988443374634
 20
242.22550582885742
 11
84.301271915435791
 21
244.48193550109863
  0
LINE
  8
_0-1_作画層１
  6
CONTINUOUS
 62
    7
 10
80.167725205421448
 20
242.21089553833008
 11
84.147276163101196
 21
244.50849723815918
  0
LINE
  8
_0-1_作画層１
  6
CONTINUOUS
 62
    7
 10
79.935463070869446
 20
242.19229602813721
 11
83.991355657577515
 21
244.53395462036133
  0
LINE
  8
_0-1_作画層１
  6
CONTINUOUS
 62
    7
 10
79.695554375648499
 20
242.16923427581787
 11
83.833457946777344
 21
244.55825996398926
  0
LINE
  8
_0-1_作画層１
  6
CONTINUOUS
 62
    7
 10
79.44707202911377
 20
242.14123821258545
 11
83.673495531082153
 21
244.58137321472168
  0
LINE
  8
_0-1_作画層１
  6
CONTINUOUS
 62
    7
 10
79.189035892486572
 20
242.10774803161621
 11
83.511415719985962
 21
244.60326385498047
  0
LINE
  8
_0-1_作画層１
  6
CONTINUOUS
 62
    7
 10
78.920116424560547
 20
242.0679407119751
 11
83.347131490707397
 21
244.62389183044434
  0
LINE
  8
_0-1_作画層１
  6
CONTINUOUS
 62
    7
 10
78.638703584671021
 20
242.02095985412598
 11
83.180537462234497
 21
244.64319229125977
  0
LINE
  8
_0-1_作画層１
  6
CONTINUOUS
 62
    7
 10
78.342785358428955
 20
241.96556282043457
 11
83.011581301689148
 21
244.66110992431641
  0
LINE
  8
_0-1_作画層１
  6
CONTINUOUS
 62
    7
 10
78.029614448547363
 20
241.90022754669189
 11
82.84017550945282
 21
244.67759323120117
  0
LINE
  8
_0-1_作画層１
  6
CONTINUOUS
 62
    7
 10
77.695376634597778
 20
241.8227481842041
 11
82.666145086288452
 21
244.69260597229004
  0
LINE
  8
_0-1_作画層１
  6
CONTINUOUS
 62
    7
 10
77.334822654724121
 20
241.73002910614014
 11
82.489437580108643
 21
244.7060604095459
  0
LINE
  8
_0-1_作画層１
  6
CONTINUOUS
 62
    7
 10
76.939675807952881
 20
241.6173620223999
 11
82.309912919998169
 21
244.71787261962891
  0
LINE
  8
_0-1_作画層１
  6
CONTINUOUS
 62
    7
 10
76.496165752410889
 20
241.47676944732666
 11
82.127431154251099
 21
244.72800254821777
  0
LINE
  8
_0-1_作画層１
  6
CONTINUOUS
 62
    7
 10
76.397969722747803
 20
241.53554344177246
 11
81.941852331161499
 21
244.73631477355957
  0
LINE
  8
_0-1_作画層１
  6
CONTINUOUS
 62
    7
 10
76.337026119232178
 20
241.61582183837891
 11
81.753018975257874
 21
244.74277114868164
  0
LINE
  8
_0-1_作画層１
  6
CONTINUOUS
 62
    7
 10
76.276082038879395
 20
241.69611835479736
 11
81.560773640871048
 21
244.74723243713379
  0
LINE
  8
_0-1_作画層１
  6
CONTINUOUS
 62
    7
 10
76.215120792388916
 20
241.77639675140381
 11
81.364906281232834
 21
244.74961280822754
  0
LINE
  8
_0-1_作画層１
  6
CONTINUOUS
 62
    7
 10
76.154176712036133
 20
241.85667610168457
 11
81.16518946737051
 21
244.74980545043945
  0
LINE
  8
_0-1_作画層１
  6
CONTINUOUS
 62
    7
 10
76.09323263168335
 20
241.93695449829102
 11
80.961430728435516
 21
244.74761772155762
  0
LINE
  8
_0-1_作画層１
  6
CONTINUOUS
 62
    7
 10
76.032289028167725
 20
242.01723289489746
 11
80.753350108861923
 21
244.74294662475586
  0
LINE
  8
_0-1_作画層１
  6
CONTINUOUS
 62
    7
 10
75.971310138702393
 20
242.09751224517822
 11
80.540632605552673
 21
244.73561477661133
  0
LINE
  8
_0-1_作画層１
  6
CONTINUOUS
 62
    7
 10
75.910366058349609
 20
242.17779064178467
 11
80.322998344898224
 21
244.72543144226074
  0
LINE
  8
_0-1_作画層１
  6
CONTINUOUS
 62
    7
 10
75.849422454833984
 20
242.25806903839111
 11
80.100062251091003
 21
244.71218490600586
  0
LINE
  8
_0-1_作画層１
  6
CONTINUOUS
 62
    7
 10
75.788460731506348
 20
242.33836555480957
 11
79.871352076530457
 21
244.69559669494629
  0
LINE
  8
_0-1_作画層１
  6
CONTINUOUS
 62
    7
 10
75.727499485015869
 20
242.41862678527832
 11
79.636447787284851
 21
244.67543983459473
  0
LINE
  8
_0-1_作画層１
  6
CONTINUOUS
 62
    7
 10
75.666573047637939
 20
242.49892234802246
 11
79.394736886024475
 21
244.65138053894043
  0
LINE
  8
_0-1_作画層１
  6
CONTINUOUS
 62
    7
 10
75.605611801147461
 20
242.57918357849121
 11
79.145589590072632
 21
244.62300109863281
  0
LINE
  8
_0-1_作画層１
  6
CONTINUOUS
 62
    7
 10
75.544650077819824
 20
242.65948009490967
 11
78.888270854949951
 21
244.58989524841309
  0
LINE
  8
_0-1_作画層１
  6
CONTINUOUS
 62
    7
 10
75.483706474304199
 20
242.73975849151611
 11
78.621765851974487
 21
244.55150604248047
  0
LINE
  8
_0-1_作画層１
  6
CONTINUOUS
 62
    7
 10
75.422762393951416
 20
242.82003688812256
 11
78.345025062561035
 21
244.5072021484375
  0
LINE
  8
_0-1_作画層１
  6
CONTINUOUS
 62
    7
 10
75.361801147460938
 20
242.90031623840332
 11
78.056665658950806
 21
244.45617866516113
  0
LINE
  8
_0-1_作画層１
  6
CONTINUOUS
 62
    7
 10
75.300857067108154
 20
242.98059463500977
 11
77.754868268966675
 21
244.39742279052734
  0
LINE
  8
_0-1_作画層１
  6
CONTINUOUS
 62
    7
 10
75.239913463592529
 20
243.06087303161621
 11
77.437533140182495
 21
244.32965469360352
  0
LINE
  8
_0-1_作画層１
  6
CONTINUOUS
 62
    7
 10
75.178951740264893
 20
243.14115238189697
 11
77.101633071899414
 21
244.25119590759277
  0
LINE
  8
_0-1_作画層１
  6
CONTINUOUS
 62
    7
 10
75.117990493774414
 20
243.22143077850342
 11
76.743143558502197
 21
244.15970039367676
  0
LINE
  8
_0-1_作画層１
  6
CONTINUOUS
 62
    7
 10
75.057064056396484
 20
243.30171012878418
 11
76.356325626373291
 21
244.05182838439941
  0
LINE
  8
_0-1_作画層１
  6
CONTINUOUS
 62
    7
 10
74.996102809906006
 20
243.38198852539062
 11
75.932272911071777
 21
243.92248725891113
  0
LINE
  8
_0-1_作画層１
  6
CONTINUOUS
 62
    7
 10
74.935141086578369
 20
243.46226692199707
 11
75.456130504608154
 21
243.7630500793457
  0
LINE
  8
_0-1_作画層１
  6
CONTINUOUS
 62
    7
 10
74.874197483062744
 20
243.54254531860352
 11
74.899131298065186
 21
243.55694580078125
  0
LINE
  8
_0-1_作画層１
  6
CONTINUOUS
 62
    7
 10
91.210469245910645
 20
232.99795627593994
 11
93.375543594360352
 21
234.247962474823
  0
LINE
  8
_0-1_作画層１
  6
CONTINUOUS
 62
    7
 10
91.160111427307129
 20
233.08435916900635
 11
93.325238227844238
 21
234.3343825340271
  0
LINE
  8
_0-1_作画層１
  6
CONTINUOUS
 62
    7
 10
91.109001159667969
 20
233.17030668258667
 11
93.274337768554688
 21
234.42045307159424
  0
LINE
  8
_0-1_作画層１
  6
CONTINUOUS
 62
    7
 10
91.057138442993164
 20
233.25585222244263
 11
93.222789764404297
 21
234.50619077682495
  0
LINE
  8
_0-1_作画層１
  6
CONTINUOUS
 62
    7
 10
91.004523277282715
 20
233.3409252166748
 11
93.170647621154785
 21
234.59154367446899
  0
LINE
  8
_0-1_作画層１
  6
CONTINUOUS
 62
    7
 10
90.951155662536621
 20
233.42557811737061
 11
93.117875099182129
 21
234.67654657363892
  0
LINE
  8
_0-1_作画層１
  6
CONTINUOUS
 62
    7
 10
90.897018432617188
 20
233.50981140136719
 11
93.06449031829834
 21
234.76118230819702
  0
LINE
  8
_0-1_作画層１
  6
CONTINUOUS
 62
    7
 10
90.842128753662109
 20
233.59358978271484
 11
93.010475158691406
 21
234.8454852104187
  0
LINE
  8
_0-1_作画層１
  6
CONTINUOUS
 62
    7
 10
90.786486625671387
 20
233.67693042755127
 11
92.95584774017334
 21
234.92940378189087
  0
LINE
  8
_0-1_作画層１
  6
CONTINUOUS
 62
    7
 10
90.73009204864502
 20
233.75983381271362
 11
92.900590896606445
 21
235.01298904418945
  0
LINE
  8
_0-1_作画層１
  6
CONTINUOUS
 62
    7
 10
90.672909736633301
 20
233.84229946136475
 11
92.844703674316406
 21
235.09618997573853
  0
LINE
  8
_0-1_作画層１
  6
CONTINUOUS
 62
    7
 10
90.614993095397949
 20
233.9243278503418
 11
92.78822135925293
 21
235.17904090881348
  0
LINE
  8
_0-1_作画層１
  6
CONTINUOUS
 62
    7
 10
90.556306838989258
 20
234.00591897964478
 11
92.73109245300293
 21
235.26152420043945
  0
LINE
  8
_0-1_作画層１
  6
CONTINUOUS
 62
    7
 10
90.49685001373291
 20
234.08705520629883
 11
92.67335033416748
 21
235.34365749359131
  0
LINE
  8
_0-1_作画層１
  6
CONTINUOUS
 62
    7
 10
90.436640739440918
 20
234.16777086257935
 11
92.614960670471191
 21
235.42542362213135
  0
LINE
  8
_0-1_作画層１
  6
CONTINUOUS
 62
    7
 10
90.375661849975586
 20
234.2480320930481
 11
92.55595874786377
 21
235.50683975219727
  0
LINE
  8
_0-1_作画層１
  6
CONTINUOUS
 62
    7
 10
90.313895225524902
 20
234.32783842086792
 11
92.49632740020752
 21
235.58787059783936
  0
LINE
  8
_0-1_作画層１
  6
CONTINUOUS
 62
    7
 10
90.251359939575195
 20
234.40720748901367
 11
92.436065673828125
 21
235.66855144500732
  0
LINE
  8
_0-1_作画層１
  6
CONTINUOUS
 62
    7
 10
90.188053131103516
 20
234.48612117767334
 11
92.375174522399902
 21
235.74886512756348
  0
LINE
  8
_0-1_作画層１
  6
CONTINUOUS
 62
    7
 10
90.123942375183105
 20
234.56457996368408
 11
92.313652992248535
 21
235.82879447937012
  0
LINE
  8
_0-1_作画層１
  6
CONTINUOUS
 62
    7
 10
90.059062004089355
 20
234.64260149002075
 11
92.251466751098633
 21
235.90837287902832
  0
LINE
  8
_0-1_作画層１
  6
CONTINUOUS
 62
    7
 10
89.993375778198242
 20
234.72015047073364
 11
92.188668251037598
 21
235.98758411407471
  0
LINE
  8
_0-1_作画層１
  6
CONTINUOUS
 62
    7
 10
89.926938056945801
 20
234.79724454879761
 11
92.125222206115723
 21
236.06644535064697
  0
LINE
  8
_0-1_作画層１
  6
CONTINUOUS
 62
    7
 10
89.859660148620605
 20
234.87388372421265
 11
92.061128616333008
 21
236.14490413665771
  0
LINE
  8
_0-1_作画層１
  6
CONTINUOUS
 62
    7
 10
89.791611671447754
 20
234.95006799697876
 11
91.996405601501465
 21
236.22299575805664
  0
LINE
  8
_0-1_作画層１
  6
CONTINUOUS
 62
    7
 10
89.722759246826172
 20
235.0257625579834
 11
91.931017875671387
 21
236.30072021484375
  0
LINE
  8
_0-1_作画層１
  6
CONTINUOUS
 62
    7
 10
89.653066635131836
 20
235.10101938247681
 11
91.864998817443848
 21
236.37807655334473
  0
LINE
  8
_0-1_作画層１
  6
CONTINUOUS
 62
    7
 10
89.582586288452148
 20
235.17578649520874
 11
91.798333168029785
 21
236.45504856109619
  0
LINE
  8
_0-1_作画層１
  6
CONTINUOUS
 62
    7
 10
89.511283874511719
 20
235.25008106231689
 11
91.730985641479492
 21
236.53163528442383
  0
LINE
  8
_0-1_作画層１
  6
CONTINUOUS
 62
    7
 10
89.43912410736084
 20
235.32392024993896
 11
91.662990570068359
 21
236.60785388946533
  0
LINE
  8
_0-1_作画層１
  6
CONTINUOUS
 62
    7
 10
89.366176605224609
 20
235.39725208282471
 11
91.59434700012207
 21
236.68368816375732
  0
LINE
  8
_0-1_作画層１
  6
CONTINUOUS
 62
    7
 10
89.292372703552246
 20
235.47011184692383
 11
91.525039672851563
 21
236.7591381072998
  0
LINE
  8
_0-1_作画層１
  6
CONTINUOUS
 62
    7
 10
89.217727661132813
 20
235.54249954223633
 11
91.455049514770508
 21
236.83420181274414
  0
LINE
  8
_0-1_作画層１
  6
CONTINUOUS
 62
    7
 10
89.142226219177246
 20
235.61436176300049
 11
91.384394645690918
 21
236.90888214111328
  0
LINE
  8
_0-1_作画層１
  6
CONTINUOUS
 62
    7
 10
89.065866947174072
 20
235.68576908111572
 11
91.313075065612793
 21
236.98317623138428
  0
LINE
  8
_0-1_作画層１
  6
CONTINUOUS
 62
    7
 10
88.988667488098145
 20
235.75665187835693
 11
91.241054534912109
 21
237.05706787109375
  0
LINE
  8
_0-1_作画層１
  6
CONTINUOUS
 62
    7
 10
88.910576343536377
 20
235.82704448699951
 11
91.168370246887207
 21
237.13057518005371
  0
LINE
  8
_0-1_作画層１
  6
CONTINUOUS
 62
    7
 10
88.831609725952148
 20
235.89692974090576
 11
91.095020294189453
 21
237.20368003845215
  0
LINE
  8
_0-1_作画層１
  6
CONTINUOUS
 62
    7
 10
88.751768589019775
 20
235.96628952026367
 11
91.020936012268066
 21
237.27639961242676
  0
LINE
  8
_0-1_作画層１
  6
CONTINUOUS
 62
    7
 10
88.671017646789551
 20
236.03512477874756
 11
90.946186065673828
 21
237.34869956970215
  0
LINE
  8
_0-1_作画層１
  6
CONTINUOUS
 62
    7
 10
88.589356422424316
 20
236.10345268249512
 11
90.870737075805664
 21
237.42061424255371
  0
LINE
  8
_0-1_作画層１
  6
CONTINUOUS
 62
    7
 10
88.506785869598389
 20
236.17125606536865
 11
90.794588088989258
 21
237.49210929870605
  0
LINE
  8
_0-1_作画層１
  6
CONTINUOUS
 62
    7
 10
88.423305034637451
 20
236.23853397369385
 11
90.717720985412598
 21
237.56321907043457
  0
LINE
  8
_0-1_作画層１
  6
CONTINUOUS
 62
    7
 10
88.338879585266113
 20
236.30525207519531
 11
90.640154838562012
 21
237.63389205932617
  0
LINE
  8
_0-1_作画層１
  6
CONTINUOUS
 62
    7
 10
88.25352668762207
 20
236.37144470214844
 11
90.561853408813477
 21
237.70416164398193
  0
LINE
  8
_0-1_作画層１
  6
CONTINUOUS
 62
    7
 10
88.16719388961792
 20
236.43707847595215
 11
90.482833862304688
 21
237.77401161193848
  0
LINE
  8
_0-1_作画層１
  6
CONTINUOUS
 62
    7
 10
88.079916000366211
 20
236.50215148925781
 11
90.403098106384277
 21
237.84342479705811
  0
LINE
  8
_0-1_作画層１
  6
CONTINUOUS
 62
    7
 10
87.991641044616699
 20
236.56666469573975
 11
90.322609901428223
 21
237.91243457794189
  0
LINE
  8
_0-1_作画層１
  6
CONTINUOUS
 62
    7
 10
87.90238618850708
 20
236.63060092926025
 11
90.241385459899902
 21
237.98102569580078
  0
LINE
  8
_0-1_作画層１
  6
CONTINUOUS
 62
    7
 10
87.8121337890625
 20
236.69395923614502
 11
90.159427642822266
 21
238.04916095733643
  0
LINE
  8
_0-1_作画層１
  6
CONTINUOUS
 62
    7
 10
87.720866680145264
 20
236.75674057006836
 11
90.076699256896973
 21
238.11687660217285
  0
LINE
  8
_0-1_作画層１
  6
CONTINUOUS
 62
    7
 10
87.628549575805664
 20
236.81890964508057
 11
89.993218421936035
 21
238.18415451049805
  0
LINE
  8
_0-1_作画層１
  6
CONTINUOUS
 62
    7
 10
87.535217761993408
 20
236.88048362731934
 11
89.908985137939453
 21
238.25099468231201
  0
LINE
  8
_0-1_作画層１
  6
CONTINUOUS
 62
    7
 10
87.440783500671387
 20
236.94144439697266
 11
89.823965072631836
 21
238.31737995147705
  0
LINE
  8
_0-1_作画層１
  6
CONTINUOUS
 62
    7
 10
87.34529972076416
 20
237.00179386138916
 11
89.738191604614258
 21
238.38331127166748
  0
LINE
  8
_0-1_作画層１
  6
CONTINUOUS
 62
    7
 10
87.248713493347168
 20
237.06149482727051
 11
89.651614189147949
 21
238.44880390167236
  0
LINE
  8
_0-1_作画層１
  6
CONTINUOUS
 62
    7
 10
87.15102481842041
 20
237.12056636810303
 11
89.564213752746582
 21
238.51382541656494
  0
LINE
  8
_0-1_作画層１
  6
CONTINUOUS
 62
    7
 10
87.05219841003418
 20
237.17897319793701
 11
89.476043701171875
 21
238.57839107513428
  0
LINE
  8
_0-1_作画層１
  6
CONTINUOUS
 62
    7
 10
86.952217578887939
 20
237.23671531677246
 11
89.387051582336426
 21
238.64246654510498
  0
LINE
  8
_0-1_作画層１
  6
CONTINUOUS
 62
    7
 10
86.851064205169678
 20
237.29379272460937
 11
89.297236442565918
 21
238.70608806610107
  0
LINE
  8
_0-1_作画層１
  6
CONTINUOUS
 62
    7
 10
86.748738765716553
 20
237.35018730163574
 11
89.206599235534668
 21
238.76921939849854
  0
LINE
  8
_0-1_作画層１
  6
CONTINUOUS
 62
    7
 10
86.645205974578857
 20
237.40586376190186
 11
89.115104675292969
 21
238.83187770843506
  0
LINE
  8
_0-1_作画層１
  6
CONTINUOUS
 62
    7
 10
86.540413379669189
 20
237.46085834503174
 11
89.022788047790527
 21
238.89404678344727
  0
LINE
  8
_0-1_作画層１
  6
CONTINUOUS
 62
    7
 10
86.434378147125244
 20
237.51510143280029
 11
88.929595947265625
 21
238.95570755004883
  0
LINE
  8
_0-1_作画層１
  6
CONTINUOUS
 62
    7
 10
86.327048301696777
 20
237.56860828399658
 11
88.835546970367432
 21
239.01687908172607
  0
LINE
  8
_0-1_作画層１
  6
CONTINUOUS
 62
    7
 10
86.218423843383789
 20
237.62134647369385
 11
88.740622520446777
 21
239.07754325866699
  0
LINE
  8
_0-1_作画層１
  6
CONTINUOUS
 62
    7
 10
86.108434200286865
 20
237.67331409454346
 11
88.64478874206543
 21
239.13768196105957
  0
LINE
  8
_0-1_作画層１
  6
CONTINUOUS
 62
    7
 10
85.997079849243164
 20
237.72451114654541
 11
88.548062324523926
 21
239.19731330871582
  0
LINE
  8
_0-1_作画層１
  6
CONTINUOUS
 62
    7
 10
85.884325981140137
 20
237.77486991882324
 11
88.45042610168457
 21
239.25642013549805
  0
LINE
  8
_0-1_作画層１
  6
CONTINUOUS
 62
    7
 10
85.770136833190918
 20
237.8244047164917
 11
88.35186243057251
 21
239.31496715545654
  0
LINE
  8
_0-1_作画層１
  6
CONTINUOUS
 62
    7
 10
85.654478549957275
 20
237.87310028076172
 11
88.252354145050049
 21
239.3729887008667
  0
LINE
  8
_0-1_作画層１
  6
CONTINUOUS
 62
    7
 10
85.537314891815186
 20
237.92093849182129
 11
88.151900768280029
 21
239.43046855926514
  0
LINE
  8
_0-1_作画層１
  6
CONTINUOUS
 62
    7
 10
85.418611526489258
 20
237.96786689758301
 11
88.050485134124756
 21
239.48738765716553
  0
LINE
  8
_0-1_作画層１
  6
CONTINUOUS
 62
    7
 10
85.298298358917236
 20
238.01388549804687
 11
87.948089599609375
 21
239.54372978210449
  0
LINE
  8
_0-1_作画層１
  6
CONTINUOUS
 62
    7
 10
85.176375865936279
 20
238.05895900726318
 11
87.844679355621338
 21
239.59949398040771
  0
LINE
  8
_0-1_作画層１
  6
CONTINUOUS
 62
    7
 10
85.052755832672119
 20
238.10305309295654
 11
87.74027156829834
 21
239.65469932556152
  0
LINE
  8
_0-1_作画層１
  6
CONTINUOUS
 62
    7
 10
84.927420854568481
 20
238.14616680145264
 11
87.634848594665527
 21
239.70929145812988
  0
LINE
  8
_0-1_作画層１
  6
CONTINUOUS
 62
    7
 10
84.800318956375122
 20
238.18824863433838
 11
87.528358936309814
 21
239.7632884979248
  0
LINE
  8
_0-1_作画層１
  6
CONTINUOUS
 62
    7
 10
84.671362161636353
 20
238.22926235198975
 11
87.42081880569458
 21
239.8166561126709
  0
LINE
  8
_0-1_作画層１
  6
CONTINUOUS
 62
    7
 10
84.540515661239624
 20
238.26919174194336
 11
87.312194347381592
 21
239.86942863464355
  0
LINE
  8
_0-1_作画層１
  6
CONTINUOUS
 62
    7
 10
84.407709360122681
 20
238.30798435211182
 11
87.202484607696533
 21
239.92153644561768
  0
LINE
  8
_0-1_作画層１
  6
CONTINUOUS
 62
    7
 10
84.272855758666992
 20
238.34560394287109
 11
87.091620445251465
 21
239.97301387786865
  0
LINE
  8
_0-1_作画層１
  6
CONTINUOUS
 62
    7
 10
84.13592004776001
 20
238.38199901580811
 11
86.979653835296631
 21
240.02384471893311
  0
LINE
  8
_0-1_作画層１
  6
CONTINUOUS
 62
    7
 10
83.996779918670654
 20
238.41715145111084
 11
86.866514682769775
 21
240.07399272918701
  0
LINE
  8
_0-1_作画層１
  6
CONTINUOUS
 62
    7
 10
83.855382204055786
 20
238.4509744644165
 11
86.752185821533203
 21
240.12345790863037
  0
LINE
  8
_0-1_作画層１
  6
CONTINUOUS
 62
    7
 10
83.711622476577759
 20
238.48344898223877
 11
86.636667251586914
 21
240.1722240447998
  0
LINE
  8
_0-1_作画層１
  6
CONTINUOUS
 62
    7
 10
83.565395593643188
 20
238.51449012756348
 11
86.519906044006348
 21
240.22028923034668
  0
LINE
  8
_0-1_作画層１
  6
CONTINUOUS
 62
    7
 10
83.416596651077271
 20
238.54406070709229
 11
86.401867866516113
 21
240.26760292053223
  0
LINE
  8
_0-1_作画層１
  6
CONTINUOUS
 62
    7
 10
83.265120506286621
 20
238.57205677032471
 11
86.282569885253906
 21
240.31419849395752
  0
LINE
  8
_0-1_作画層１
  6
CONTINUOUS
 62
    7
 10
83.110809803009033
 20
238.59844303131104
 11
86.161941528320312
 21
240.36002445220947
  0
LINE
  8
_0-1_作画層１
  6
CONTINUOUS
 62
    7
 10
82.953541994094849
 20
238.62311458587646
 11
86.039983749389648
 21
240.40508079528809
  0
LINE
  8
_0-1_作画層１
  6
CONTINUOUS
 62
    7
 10
82.79315972328186
 20
238.6460018157959
 11
85.916626453399658
 21
240.44933223724365
  0
LINE
  8
_0-1_作画層１
  6
CONTINUOUS
 62
    7
 10
82.629470348358154
 20
238.66696357727051
 11
85.791869163513184
 21
240.49277877807617
  0
LINE
  8
_0-1_作画層１
  6
CONTINUOUS
 62
    7
 10
82.46229887008667
 20
238.6859130859375
 11
85.665676593780518
 21
240.53538513183594
  0
LINE
  8
_0-1_作画層１
  6
CONTINUOUS
 62
    7
 10
82.291453003883362
 20
238.70274639129639
 11
85.538014888763428
 21
240.57715129852295
  0
LINE
  8
_0-1_作画層１
  6
CONTINUOUS
 62
    7
 10
82.11665266752243
 20
238.71730422973633
 11
85.408812999725342
 21
240.61804294586182
  0
LINE
  8
_0-1_作画層１
  6
CONTINUOUS
 62
    7
 10
81.937652945518494
 20
238.72942924499512
 11
85.278071403503418
 21
240.65800762176514
  0
LINE
  8
_0-1_作画層１
  6
CONTINUOUS
 62
    7
 10
81.754156351089478
 20
238.73894882202148
 11
85.145720243453979
 21
240.69706153869629
  0
LINE
  8
_0-1_作画層１
  6
CONTINUOUS
 62
    7
 10
81.5657779276371
 20
238.74566745758057
 11
85.011688947677612
 21
240.7351713180542
  0
LINE
  8
_0-1_作画層１
  6
CONTINUOUS
 62
    7
 10
81.372185252606869
 20
238.74934196472168
 11
84.876013278961182
 21
240.77228355407715
  0
LINE
  8
_0-1_作画層１
  6
CONTINUOUS
 62
    7
 10
81.172835893929005
 20
238.7497444152832
 11
84.738535165786743
 21
240.80838108062744
  0
LINE
  8
_0-1_作画層１
  6
CONTINUOUS
 62
    7
 10
80.967274904251099
 20
238.74652481079102
 11
84.599289655685425
 21
240.84346389770508
  0
LINE
  8
_0-1_作画層１
  6
CONTINUOUS
 62
    7
 10
80.75481989979744
 20
238.739333152771
 11
84.458172082901001
 21
240.87746143341064
  0
LINE
  8
_0-1_作画層１
  6
CONTINUOUS
 62
    7
 10
80.534735977649689
 20
238.72773265838623
 11
84.315112352371216
 21
240.91035652160645
  0
LINE
  8
_0-1_作画層１
  6
CONTINUOUS
 62
    7
 10
80.306078255176544
 20
238.71119689941406
 11
84.170092821121216
 21
240.94207954406738
  0
LINE
  8
_0-1_作画層１
  6
CONTINUOUS
 62
    7
 10
80.067761898040771
 20
238.68908023834229
 11
84.023008584976196
 21
240.97263050079346
  0
LINE
  8
_0-1_作画層１
  6
CONTINUOUS
 62
    7
 10
79.818352103233337
 20
238.66054153442383
 11
83.873754739761353
 21
241.00193881988525
  0
LINE
  8
_0-1_作画層１
  6
CONTINUOUS
 62
    7
 10
79.556011557579041
 20
238.62454986572266
 11
83.722331047058105
 21
241.02997016906738
  0
LINE
  8
_0-1_作画層１
  6
CONTINUOUS
 62
    7
 10
79.278378248214722
 20
238.57972049713135
 11
83.568562746047974
 21
241.05667114257812
  0
LINE
  8
_0-1_作画層１
  6
CONTINUOUS
 62
    7
 10
78.982145071029663
 20
238.52416610717773
 11
83.412414789199829
 21
241.08199024200439
  0
LINE
  8
_0-1_作画層１
  6
CONTINUOUS
 62
    7
 10
78.714135408401489
 20
238.48490142822266
 11
83.253782272338867
 21
241.10585689544678
  0
LINE
  8
_0-1_作画層１
  6
CONTINUOUS
 62
    7
 10
78.653191566467285
 20
238.56518077850342
 11
83.092507481575012
 21
241.12823581695557
  0
LINE
  8
_0-1_作画層１
  6
CONTINUOUS
 62
    7
 10
78.592230081558228
 20
238.64545917510986
 11
82.928503036499023
 21
241.14902305603027
  0
LINE
  8
_0-1_作画層１
  6
CONTINUOUS
 62
    7
 10
78.531268835067749
 20
238.72573757171631
 11
82.761646628379822
 21
241.16814804077148
  0
LINE
  8
_0-1_作画層１
  6
CONTINUOUS
 62
    7
 10
78.470307350158691
 20
238.80601596832275
 11
82.591780662536621
 21
241.1855583190918
  0
LINE
  8
_0-1_作画層１
  6
CONTINUOUS
 62
    7
 10
78.409380912780762
 20
238.88629531860352
 11
82.418765068054199
 21
241.20113086700439
  0
LINE
  8
_0-1_作画層１
  6
CONTINUOUS
 62
    7
 10
78.348419666290283
 20
238.96659088134766
 11
82.242407441139221
 21
241.21477890014648
  0
LINE
  8
_0-1_作画層１
  6
CONTINUOUS
 62
    7
 10
78.2874755859375
 20
239.04685211181641
 11
82.062532842159271
 21
241.22639751434326
  0
LINE
  8
_0-1_作画層１
  6
CONTINUOUS
 62
    7
 10
78.226514339447021
 20
239.12713146209717
 11
81.878931224346161
 21
241.23586368560791
  0
LINE
  8
_0-1_作画層１
  6
CONTINUOUS
 62
    7
 10
78.165570259094238
 20
239.20742702484131
 11
81.69135770201683
 21
241.24303722381592
  0
LINE
  8
_0-1_作画層１
  6
CONTINUOUS
 62
    7
 10
78.10460901260376
 20
239.28770637512207
 11
81.499567270278931
 21
241.24777889251709
  0
LINE
  8
_0-1_作画層１
  6
CONTINUOUS
 62
    7
 10
78.043665170669556
 20
239.36798477172852
 11
81.303244985640049
 21
241.24989604949951
  0
LINE
  8
_0-1_作画層１
  6
CONTINUOUS
 62
    7
 10
77.982721090316772
 20
239.44826316833496
 11
81.10207587480545
 21
241.24921417236328
  0
LINE
  8
_0-1_作画層１
  6
CONTINUOUS
 62
    7
 10
77.921759843826294
 20
239.52854156494141
 11
80.895657509565353
 21
241.24552249908447
  0
LINE
  8
_0-1_作画層１
  6
CONTINUOUS
 62
    7
 10
77.860815763473511
 20
239.60880279541016
 11
80.683569967746735
 21
241.23854064941406
  0
LINE
  8
_0-1_作画層１
  6
CONTINUOUS
 62
    7
 10
77.799871921539307
 20
239.68909931182861
 11
80.465288281440735
 21
241.22798919677734
  0
LINE
  8
_0-1_作画層１
  6
CONTINUOUS
 62
    7
 10
77.738910675048828
 20
239.76937770843506
 11
80.240270018577576
 21
241.21353626251221
  0
LINE
  8
_0-1_作画層１
  6
CONTINUOUS
 62
    7
 10
77.677949190139771
 20
239.84965705871582
 11
80.007780313491821
 21
241.19477939605713
  0
LINE
  8
_0-1_作画層１
  6
CONTINUOUS
 62
    7
 10
77.617005348205566
 20
239.92993545532227
 11
79.766979336738586
 21
241.17122745513916
  0
LINE
  8
_0-1_作画層１
  6
CONTINUOUS
 62
    7
 10
77.556061506271362
 20
240.01021385192871
 11
79.516904592514038
 21
241.14230442047119
  0
LINE
  8
_0-1_作画層１
  6
CONTINUOUS
 62
    7
 10
77.495100021362305
 20
240.09049224853516
 11
79.256296396255493
 21
241.10730934143066
  0
LINE
  8
_0-1_作画層１
  6
CONTINUOUS
 62
    7
 10
77.434156179428101
 20
240.17077159881592
 11
78.983544826507568
 21
241.06531524658203
  0
LINE
  8
_0-1_作画層１
  6
CONTINUOUS
 62
    7
 10
77.373212099075317
 20
240.25104999542236
 11
78.696760416030884
 21
241.01520252227783
  0
LINE
  8
_0-1_作画層１
  6
CONTINUOUS
 62
    7
 10
77.312250852584839
 20
240.33132839202881
 11
78.393213272094727
 21
240.95543098449707
  0
LINE
  8
_0-1_作画層１
  6
CONTINUOUS
 62
    7
 10
77.251307010650635
 20
240.41162490844727
 11
78.069334030151367
 21
240.88390064239502
  0
LINE
  8
_0-1_作画層１
  6
CONTINUOUS
 62
    7
 10
77.190345287322998
 20
240.49188613891602
 11
77.719908237457275
 21
240.79763793945312
  0
LINE
  8
_0-1_作画層１
  6
CONTINUOUS
 62
    7
 10
77.129401683807373
 20
240.57218170166016
 11
77.337009906768799
 21
240.69204044342041
  0
LINE
  8
_0-1_作画層１
  6
CONTINUOUS
 62
    7
 10
93.374983787536621
 20
234.24764728546143
 11
96.406622886657715
 21
235.99796009063721
  0
LINE
  8
_0-1_作画層１
  6
CONTINUOUS
 62
    7
 10
93.348176956176758
 20
234.34766340255737
 11
96.356388092041016
 21
236.08443260192871
  0
LINE
  8
_0-1_作画層１
  6
CONTINUOUS
 62
    7
 10
93.321406364440918
 20
234.44766139984131
 11
96.305644989013672
 21
236.17062568664551
  0
LINE
  8
_0-1_作画層１
  6
CONTINUOUS
 62
    7
 10
93.294599533081055
 20
234.5476598739624
 11
96.254412651062012
 21
236.25652122497559
  0
LINE
  8
_0-1_作画層１
  6
CONTINUOUS
 62
    7
 10
93.267793655395508
 20
234.6476583480835
 11
96.202689170837402
 21
236.34211921691895
  0
LINE
  8
_0-1_作画層１
  6
CONTINUOUS
 62
    7
 10
93.241022109985352
 20
234.74765682220459
 11
96.150494575500488
 21
236.42743682861328
  0
LINE
  8
_0-1_作画層１
  6
CONTINUOUS
 62
    7
 10
93.214216232299805
 20
234.84767246246338
 11
96.097774505615234
 21
236.51249217987061
  0
LINE
  8
_0-1_作画層１
  6
CONTINUOUS
 62
    7
 10
93.187410354614258
 20
234.94765329360962
 11
96.044564247131348
 21
236.59723281860352
  0
LINE
  8
_0-1_作画層１
  6
CONTINUOUS
 62
    7
 10
93.160638809204102
 20
235.04766941070557
 11
95.990864753723145
 21
236.68169403076172
  0
LINE
  8
_0-1_作画層１
  6
CONTINUOUS
 62
    7
 10
93.133832931518555
 20
235.14766788482666
 11
95.936656951904297
 21
236.76589202880859
  0
LINE
  8
_0-1_作画層１
  6
CONTINUOUS
 62
    7
 10
93.107026100158691
 20
235.24766635894775
 11
95.881959915161133
 21
236.84977531433105
  0
LINE
  8
_0-1_作画層１
  6
CONTINUOUS
 62
    7
 10
93.080255508422852
 20
235.34766483306885
 11
95.826772689819336
 21
236.93337821960449
  0
LINE
  8
_0-1_作画層１
  6
CONTINUOUS
 62
    7
 10
93.053448677062988
 20
235.44766330718994
 11
95.771078109741211
 21
237.01670169830322
  0
LINE
  8
_0-1_作画層１
  6
CONTINUOUS
 62
    7
 10
93.026642799377441
 20
235.54766178131104
 11
95.714893341064453
 21
237.09970951080322
  0
LINE
  8
_0-1_作画層１
  6
CONTINUOUS
 62
    7
 10
92.99985408782959
 20
235.64767742156982
 11
95.658201217651367
 21
237.18247318267822
  0
LINE
  8
_0-1_作画層１
  6
CONTINUOUS
 62
    7
 10
92.973065376281738
 20
235.74765777587891
 11
95.601001739501953
 21
237.2649040222168
  0
LINE
  8
_0-1_作画層１
  6
CONTINUOUS
 62
    7
 10
92.946259498596191
 20
235.84765625
 11
95.543330192565918
 21
237.34707260131836
  0
LINE
  8
_0-1_作画層１
  6
CONTINUOUS
 62
    7
 10
92.91947078704834
 20
235.94765472412109
 11
95.485116004943848
 21
237.4289436340332
  0
LINE
  8
_0-1_作画層１
  6
CONTINUOUS
 62
    7
 10
92.892682075500488
 20
236.04765319824219
 11
95.42642879486084
 21
237.51051712036133
  0
LINE
  8
_0-1_作画層１
  6
CONTINUOUS
 62
    7
 10
92.865875244140625
 20
236.14766883850098
 11
95.367252349853516
 21
237.59181022644043
  0
LINE
  8
_0-1_作画層１
  6
CONTINUOUS
 62
    7
 10
92.839086532592773
 20
236.24766731262207
 11
95.307550430297852
 21
237.67282390594482
  0
LINE
  8
_0-1_作画層１
  6
CONTINUOUS
 62
    7
 10
92.812297821044922
 20
236.34766578674316
 11
95.155829429626465
 21
237.70071506500244
  0
LINE
  8
_0-1_作画層１
  6
CONTINUOUS
 62
    7
 10
92.785491943359375
 20
236.44764709472656
 11
94.979629516601563
 21
237.71443271636963
  0
LINE
  8
_0-1_作画層１
  6
CONTINUOUS
 62
    7
 10
92.758703231811523
 20
236.54766273498535
 11
94.803412437438965
 21
237.72816848754883
  0
LINE
  8
_0-1_作画層１
  6
CONTINUOUS
 62
    7
 10
92.731914520263672
 20
236.64766120910645
 11
94.627211570739746
 21
237.74192142486572
  0
LINE
  8
_0-1_作画層１
  6
CONTINUOUS
 62
    7
 10
92.705107688903809
 20
236.74765968322754
 11
94.450976371765137
 21
237.75565719604492
  0
LINE
  8
_0-1_作画層１
  6
CONTINUOUS
 62
    7
 10
92.678318977355957
 20
236.84767532348633
 11
94.274776458740234
 21
237.76939296722412
  0
LINE
  8
_0-1_作画層１
  6
CONTINUOUS
 62
    7
 10
92.651530265808105
 20
236.94765663146973
 11
94.098593711853027
 21
237.78312873840332
  0
LINE
  8
_0-1_作画層１
  6
CONTINUOUS
 62
    7
 10
92.624724388122559
 20
237.04767227172852
 11
93.92237663269043
 21
237.7968635559082
  0
LINE
  8
_0-1_作画層１
  6
CONTINUOUS
 62
    7
 10
92.597935676574707
 20
237.1476526260376
 11
93.746175765991211
 21
237.8105993270874
  0
LINE
  8
_0-1_作画層１
  6
CONTINUOUS
 62
    7
 10
92.571146965026855
 20
237.24765110015869
 11
93.569975852966309
 21
237.8243350982666
  0
LINE
  8
_0-1_作画層１
  6
CONTINUOUS
 62
    7
 10
92.544341087341309
 20
237.3476676940918
 11
93.393758773803711
 21
237.8380708694458
  0
LINE
  8
_0-1_作画層１
  6
CONTINUOUS
 62
    7
 10
92.517552375793457
 20
237.44766521453857
 11
93.217557907104492
 21
237.8518238067627
  0
LINE
  8
_0-1_作画層１
  6
CONTINUOUS
 62
    7
 10
92.490763664245605
 20
237.54766368865967
 11
93.041340827941895
 21
237.86554145812988
  0
LINE
  8
_0-1_作画層１
  6
CONTINUOUS
 62
    7
 10
92.463956832885742
 20
237.64766216278076
 11
92.86512279510498
 21
237.87929439544678
  0
LINE
  8
_0-1_作画層１
  6
CONTINUOUS
 62
    7
 10
92.437168121337891
 20
237.74766063690186
 11
92.688940048217773
 21
237.89301300048828
  0
LINE
  8
_0-1_作画層１
  6
CONTINUOUS
 62
    7
 10
92.410379409790039
 20
237.84765911102295
 11
92.512722969055176
 21
237.90676593780518
  0
LINE
  8
_0-1_作画層１
  6
CONTINUOUS
 62
    7
 10
92.358149528503418
 20
224.27358269691467
 11
98.125020980834961
 21
222.72835826873779
  0
LINE
  8
_0-1_作画層１
  6
CONTINUOUS
 62
    7
 10
96.940245628356934
 20
223.04581594467163
 11
98.427221298217773
 21
223.90431475639343
  0
LINE
  8
_0-1_作画層１
  6
CONTINUOUS
 62
    7
 10
91.868813514709473
 20
231.66483688354492
 11
97.093733787536621
 21
234.68144607543945
  0
LINE
  8
_0-1_作画層１
  6
CONTINUOUS
 62
    7
 10
98.033018112182617
 20
222.75301218032837
 11
98.185508728027344
 21
222.84104251861572
  0
LINE
  8
_0-1_作画層１
  6
CONTINUOUS
 62
    7
 10
97.896415710449219
 20
222.78961706161499
 11
98.220190048217773
 21
222.97654294967651
  0
LINE
  8
_0-1_作画層１
  6
CONTINUOUS
 62
    7
 10
97.759794235229492
 20
222.82622194290161
 11
98.253557205200195
 21
223.11127424240112
  0
LINE
  8
_0-1_作画層１
  6
CONTINUOUS
 62
    7
 10
97.623208999633789
 20
222.86280918121338
 11
98.285612106323242
 21
223.24525260925293
  0
LINE
  8
_0-1_作画層１
  6
CONTINUOUS
 62
    7
 10
97.486606597900391
 20
222.8994140625
 11
98.316373825073242
 21
223.37849640846252
  0
LINE
  8
_0-1_作画層１
  6
CONTINUOUS
 62
    7
 10
97.350002288818359
 20
222.93601894378662
 11
98.345909118652344
 21
223.51100516319275
  0
LINE
  8
_0-1_作画層１
  6
CONTINUOUS
 62
    7
 10
97.213381767272949
 20
222.97262382507324
 11
98.374202728271484
 21
223.64281415939331
  0
LINE
  8
_0-1_作画層１
  6
CONTINUOUS
 62
    7
 10
97.076778411865234
 20
223.00922870635986
 11
98.401288986206055
 21
223.77392315864563
  0
LINE
  8
_0-1_作画層１
  6
CONTINUOUS
 62
    7
 10
96.94017505645752
 20
223.04583358764648
 11
98.427221298217773
 21
223.90436720848083
  0
LINE
  8
_0-1_作画層１
  6
CONTINUOUS
 62
    7
 10
96.803589820861816
 20
223.08243846893311
 11
98.451997756958008
 21
224.03412890434265
  0
LINE
  8
_0-1_作画層１
  6
CONTINUOUS
 62
    7
 10
96.666986465454102
 20
223.11904287338257
 11
98.475618362426758
 21
224.16326069831848
  0
LINE
  8
_0-1_作画層１
  6
CONTINUOUS
 62
    7
 10
96.530383110046387
 20
223.15563058853149
 11
98.498138427734375
 21
224.2917275428772
  0
LINE
  8
_0-1_作画層１
  6
CONTINUOUS
 62
    7
 10
96.393762588500977
 20
223.19223546981812
 11
98.519590377807617
 21
224.4195818901062
  0
LINE
  8
_0-1_作画層１
  6
CONTINUOUS
 62
    7
 10
96.257176399230957
 20
223.22883987426758
 11
98.539957046508789
 21
224.5468065738678
  0
LINE
  8
_0-1_作画層１
  6
CONTINUOUS
 62
    7
 10
96.120573997497559
 20
223.26544499397278
 11
98.559274673461914
 21
224.67343616485596
  0
LINE
  8
_0-1_作画層１
  6
CONTINUOUS
 62
    7
 10
95.983970642089844
 20
223.30204963684082
 11
98.577577590942383
 21
224.79947090148926
  0
LINE
  8
_0-1_作画層１
  6
CONTINUOUS
 62
    7
 10
95.847367286682129
 20
223.33865451812744
 11
98.594846725463867
 21
224.9249107837677
  0
LINE
  8
_0-1_作画層１
  6
CONTINUOUS
 62
    7
 10
95.710763931274414
 20
223.37524199485779
 11
98.611137390136719
 21
225.04979062080383
  0
LINE
  8
_0-1_作画層１
  6
CONTINUOUS
 62
    7
 10
95.574143409729004
 20
223.41184663772583
 11
98.626430511474609
 21
225.17409300804138
  0
LINE
  8
_0-1_作画層１
  6
CONTINUOUS
 62
    7
 10
95.437557220458984
 20
223.44845151901245
 11
98.640777587890625
 21
225.2978355884552
  0
LINE
  8
_0-1_作画層１
  6
CONTINUOUS
 62
    7
 10
95.30095386505127
 20
223.48505640029907
 11
98.654163360595703
 21
225.42103564739227
  0
LINE
  8
_0-1_作画層１
  6
CONTINUOUS
 62
    7
 10
95.164351463317871
 20
223.52166128158569
 11
98.666622161865234
 21
225.54371082782745
  0
LINE
  8
_0-1_作画層１
  6
CONTINUOUS
 62
    7
 10
95.027729988098145
 20
223.55826616287231
 11
98.678152084350586
 21
225.66582608222961
  0
LINE
  8
_0-1_作画層１
  6
CONTINUOUS
 62
    7
 10
94.891144752502441
 20
223.59487080574036
 11
98.688774108886719
 21
225.78743398189545
  0
LINE
  8
_0-1_作画層１
  6
CONTINUOUS
 62
    7
 10
94.754524230957031
 20
223.63147568702698
 11
98.698501586914063
 21
225.90853428840637
  0
LINE
  8
_0-1_作画層１
  6
CONTINUOUS
 62
    7
 10
94.617938041687012
 20
223.6680805683136
 11
98.707355499267578
 21
226.02910983562469
  0
LINE
  8
_0-1_作画層１
  6
CONTINUOUS
 62
    7
 10
94.481334686279297
 20
223.70468544960022
 11
98.715333938598633
 21
226.14919543266296
  0
LINE
  8
_0-1_作画層１
  6
CONTINUOUS
 62
    7
 10
94.344731330871582
 20
223.74127268791199
 11
98.72247314453125
 21
226.26877349615097
  0
LINE
  8
_0-1_作画層１
  6
CONTINUOUS
 62
    7
 10
94.208128929138184
 20
223.77787756919861
 11
98.728738784790039
 21
226.38786166906357
  0
LINE
  8
_0-1_作画層１
  6
CONTINUOUS
 62
    7
 10
94.071525573730469
 20
223.81448245048523
 11
98.734197616577148
 21
226.50647747516632
  0
LINE
  8
_0-1_作画層１
  6
CONTINUOUS
 62
    7
 10
93.934939384460449
 20
223.85108733177185
 11
98.73881721496582
 21
226.62462079524994
  0
LINE
  8
_0-1_作画層１
  6
CONTINUOUS
 62
    7
 10
93.798318862915039
 20
223.88767457008362
 11
98.742631912231445
 21
226.74229168891907
  0
LINE
  8
_0-1_作画層１
  6
CONTINUOUS
 62
    7
 10
93.661715507507324
 20
223.92429685592651
 11
98.745639801025391
 21
226.85950762033463
  0
LINE
  8
_0-1_作画層１
  6
CONTINUOUS
 62
    7
 10
93.525112152099609
 20
223.96088433265686
 11
98.747861862182617
 21
226.97625112533569
  0
LINE
  8
_0-1_作画層１
  6
CONTINUOUS
 62
    7
 10
93.388526916503906
 20
223.9974889755249
 11
98.74928092956543
 21
227.09253972768784
  0
LINE
  8
_0-1_作画層１
  6
CONTINUOUS
 62
    7
 10
93.251906394958496
 20
224.03409385681152
 11
98.749944686889648
 21
227.20839087292552
  0
LINE
  8
_0-1_作画層１
  6
CONTINUOUS
 62
    7
 10
93.115320205688477
 20
224.07069873809814
 11
98.749839782714844
 21
227.3238045796752
  0
LINE
  8
_0-1_作画層１
  6
CONTINUOUS
 62
    7
 10
92.978699684143066
 20
224.10730361938477
 11
98.748964309692383
 21
227.43876335024834
  0
LINE
  8
_0-1_作画層１
  6
CONTINUOUS
 62
    7
 10
92.842113494873047
 20
224.14390850067139
 11
98.747354507446289
 21
227.55330219864845
  0
LINE
  8
_0-1_作画層１
  6
CONTINUOUS
 62
    7
 10
92.705510139465332
 20
224.18051314353943
 11
98.745010375976563
 21
227.66742107272148
  0
LINE
  8
_0-1_作画層１
  6
CONTINUOUS
 62
    7
 10
92.568907737731934
 20
224.21711802482605
 11
98.741931915283203
 21
227.78112006187439
  0
LINE
  8
_0-1_作画層１
  6
CONTINUOUS
 62
    7
 10
92.432304382324219
 20
224.2537055015564
 11
98.738134384155273
 21
227.89438152313232
  0
LINE
  8
_0-1_作画層１
  6
CONTINUOUS
 62
    7
 10
92.374650001525879
 20
224.33589124679565
 11
98.733602523803711
 21
228.00724059343338
  0
LINE
  8
_0-1_作画層１
  6
CONTINUOUS
 62
    7
 10
92.409259796142578
 20
224.47135710716248
 11
98.728370666503906
 21
228.11969727277756
  0
LINE
  8
_0-1_作画層１
  6
CONTINUOUS
 62
    7
 10
92.441840171813965
 20
224.60563325881958
 11
98.722438812255859
 21
228.23173391819
  0
LINE
  8
_0-1_作画層１
  6
CONTINUOUS
 62
    7
 10
92.472460746765137
 20
224.73878955841064
 11
98.715824127197266
 21
228.34338569641113
  0
LINE
  8
_0-1_作画層１
  6
CONTINUOUS
 62
    7
 10
92.501209259033203
 20
224.87084341049194
 11
98.708494186401367
 21
228.45461750030518
  0
LINE
  8
_0-1_作画層１
  6
CONTINUOUS
 62
    7
 10
92.528102874755859
 20
225.00184726715088
 11
98.700496673583984
 21
228.56546437740326
  0
LINE
  8
_0-1_作画層１
  6
CONTINUOUS
 62
    7
 10
92.553247451782227
 20
225.13183641433716
 11
98.691801071166992
 21
228.67592620849609
  0
LINE
  8
_0-1_作画層１
  6
CONTINUOUS
 62
    7
 10
92.576641082763672
 20
225.26081073284149
 11
98.682456970214844
 21
228.78600323200226
  0
LINE
  8
_0-1_作画層１
  6
CONTINUOUS
 62
    7
 10
92.598390579223633
 20
225.38882267475128
 11
98.672449111938477
 21
228.89567768573761
  0
LINE
  8
_0-1_作画層１
  6
CONTINUOUS
 62
    7
 10
92.618494987487793
 20
225.51590728759766
 11
98.661775588989258
 21
229.00500226020813
  0
LINE
  8
_0-1_作画層１
  6
CONTINUOUS
 62
    7
 10
92.637042999267578
 20
225.64208197593689
 11
98.650453567504883
 21
229.11390686035156
  0
LINE
  8
_0-1_作画層１
  6
CONTINUOUS
 62
    7
 10
92.65401554107666
 20
225.76736426353455
 11
98.638484954833984
 21
229.22247910499573
  0
LINE
  8
_0-1_作画層１
  6
CONTINUOUS
 62
    7
 10
92.66951847076416
 20
225.89177167415619
 11
98.625869750976563
 21
229.33066630363464
  0
LINE
  8
_0-1_作画層１
  6
CONTINUOUS
 62
    7
 10
92.683533668518066
 20
226.01532173156738
 11
98.612625122070313
 21
229.43848609924316
  0
LINE
  8
_0-1_作画層１
  6
CONTINUOUS
 62
    7
 10
92.696114540100098
 20
226.13806688785553
 11
98.598731994628906
 21
229.54593849182129
  0
LINE
  8
_0-1_作画層１
  6
CONTINUOUS
 62
    7
 10
92.70731258392334
 20
226.25998973846436
 11
98.584207534790039
 21
229.65304088592529
  0
LINE
  8
_0-1_作画層１
  6
CONTINUOUS
 62
    7
 10
92.717128753662109
 20
226.38114261627197
 11
98.569089889526367
 21
229.75977563858032
  0
LINE
  8
_0-1_作画層１
  6
CONTINUOUS
 62
    7
 10
92.725615501403809
 20
226.50150817632675
 11
98.553359985351563
 21
229.86616063117981
  0
LINE
  8
_0-1_作画層１
  6
CONTINUOUS
 62
    7
 10
92.732789039611816
 20
226.62112128734589
 11
98.536981582641602
 21
229.97216081619263
  0
LINE
  8
_0-1_作画層１
  6
CONTINUOUS
 62
    7
 10
92.738668441772461
 20
226.73998200893402
 11
98.520009994506836
 21
230.07784581184387
  0
LINE
  8
_0-1_作画層１
  6
CONTINUOUS
 62
    7
 10
92.743322372436523
 20
226.85814282298088
 11
98.502424240112305
 21
230.18316340446472
  0
LINE
  8
_0-1_作画層１
  6
CONTINUOUS
 62
    7
 10
92.74671745300293
 20
226.97556874155998
 11
98.484262466430664
 21
230.28813123703003
  0
LINE
  8
_0-1_作画層１
  6
CONTINUOUS
 62
    7
 10
92.748922348022461
 20
227.09231226146221
 11
98.465488433837891
 21
230.39276647567749
  0
LINE
  8
_0-1_作画層１
  6
CONTINUOUS
 62
    7
 10
92.749918937683105
 20
227.20835587754846
 11
98.446117401123047
 21
230.49705171585083
  0
LINE
  8
_0-1_作画層１
  6
CONTINUOUS
 62
    7
 10
92.749761581420898
 20
227.32373458892107
 11
98.426170349121094
 21
230.6010046005249
  0
LINE
  8
_0-1_作画層１
  6
CONTINUOUS
 62
    7
 10
92.748449325561523
 20
227.43844839930534
 11
98.405628204345703
 21
230.70460748672485
  0
LINE
  8
_0-1_作画層１
  6
CONTINUOUS
 62
    7
 10
92.746017456054688
 20
227.55251479148865
 11
98.384490966796875
 21
230.80789542198181
  0
LINE
  8
_0-1_作画層１
  6
CONTINUOUS
 62
    7
 10
92.742483139038086
 20
227.66593378782272
 11
98.362812042236328
 21
230.91083335876465
  0
LINE
  8
_0-1_作画層１
  6
CONTINUOUS
 62
    7
 10
92.737846374511719
 20
227.77874034643173
 11
98.340538024902344
 21
231.01343870162964
  0
LINE
  8
_0-1_作画層１
  6
CONTINUOUS
 62
    7
 10
92.732124328613281
 20
227.89089953899384
 11
98.317703247070313
 21
231.11572933197021
  0
LINE
  8
_0-1_作画層１
  6
CONTINUOUS
 62
    7
 10
92.725370407104492
 20
228.00246381759644
 11
98.294273376464844
 21
231.21766996383667
  0
LINE
  8
_0-1_作画層１
  6
CONTINUOUS
 62
    7
 10
92.717531204223633
 20
228.11341565847397
 11
98.270301818847656
 21
231.31929540634155
  0
LINE
  8
_0-1_作画層１
  6
CONTINUOUS
 62
    7
 10
92.708695411682129
 20
228.22377252578735
 11
98.245754241943359
 21
231.42060613632202
  0
LINE
  8
_0-1_作画層１
  6
CONTINUOUS
 62
    7
 10
92.698843955993652
 20
228.3335520029068
 11
98.220680236816406
 21
231.52158451080322
  0
LINE
  8
_0-1_作画層１
  6
CONTINUOUS
 62
    7
 10
92.68797779083252
 20
228.44275414943695
 11
98.195011138916016
 21
231.62224769592285
  0
LINE
  8
_0-1_作画層１
  6
CONTINUOUS
 62
    7
 10
92.676132202148438
 20
228.55139636993408
 11
98.168817520141602
 21
231.72257852554321
  0
LINE
  8
_0-1_作画層１
  6
CONTINUOUS
 62
    7
 10
92.663289070129395
 20
228.65944361686707
 11
98.142045974731445
 21
231.82259464263916
  0
LINE
  8
_0-1_作画層１
  6
CONTINUOUS
 62
    7
 10
92.649500846862793
 20
228.76696586608887
 11
98.11473274230957
 21
231.92229557037354
  0
LINE
  8
_0-1_作画層１
  6
CONTINUOUS
 62
    7
 10
92.634768486022949
 20
228.87391078472137
 11
98.086893081665039
 21
232.02168130874634
  0
LINE
  8
_0-1_作画層１
  6
CONTINUOUS
 62
    7
 10
92.61909008026123
 20
228.98033082485199
 11
98.058494567871094
 21
232.12076997756958
  0
LINE
  8
_0-1_作画層１
  6
CONTINUOUS
 62
    7
 10
92.60246753692627
 20
229.0861908197403
 11
98.02955436706543
 21
232.21954345703125
  0
LINE
  8
_0-1_作画層１
  6
CONTINUOUS
 62
    7
 10
92.584918022155762
 20
229.19152593612671
 11
98.000087738037109
 21
232.31798458099365
  0
LINE
  8
_0-1_作画層１
  6
CONTINUOUS
 62
    7
 10
92.566457748413086
 20
229.2963535785675
 11
97.97007942199707
 21
232.41612815856934
  0
LINE
  8
_0-1_作画層１
  6
CONTINUOUS
 62
    7
 10
92.54710578918457
 20
229.40063905715942
 11
97.939546585083008
 21
232.51395702362061
  0
LINE
  8
_0-1_作画層１
  6
CONTINUOUS
 62
    7
 10
92.526861190795898
 20
229.50441670417786
 11
97.908452987670898
 21
232.61148834228516
  0
LINE
  8
_0-1_作画層１
  6
CONTINUOUS
 62
    7
 10
92.50572395324707
 20
229.60768723487854
 11
97.876853942871094
 21
232.70872211456299
  0
LINE
  8
_0-1_作画層１
  6
CONTINUOUS
 62
    7
 10
92.483694076538086
 20
229.71045017242432
 11
97.844728469848633
 21
232.80564069747925
  0
LINE
  8
_0-1_作画層１
  6
CONTINUOUS
 62
    7
 10
92.460824966430664
 20
229.81272339820862
 11
97.81205940246582
 21
232.90224456787109
  0
LINE
  8
_0-1_作画層１
  6
CONTINUOUS
 62
    7
 10
92.437063217163086
 20
229.91447138786316
 11
97.778884887695313
 21
232.99856853485107
  0
LINE
  8
_0-1_作画層１
  6
CONTINUOUS
 62
    7
 10
92.412479400634766
 20
230.01572966575623
 11
97.745183944702148
 21
233.09456014633179
  0
LINE
  8
_0-1_作画層１
  6
CONTINUOUS
 62
    7
 10
92.387020111083984
 20
230.11651539802551
 11
97.710958480834961
 21
233.19027137756348
  0
LINE
  8
_0-1_作画層１
  6
CONTINUOUS
 62
    7
 10
92.360721588134766
 20
230.21679377555847
 11
97.67620849609375
 21
233.28568553924561
  0
LINE
  8
_0-1_作画層１
  6
CONTINUOUS
 62
    7
 10
92.333582878112793
 20
230.31658220291138
 11
97.640951156616211
 21
233.38080215454102
  0
LINE
  8
_0-1_作画層１
  6
CONTINUOUS
 62
    7
 10
92.305639266967773
 20
230.41593313217163
 11
97.605169296264648
 21
233.47562122344971
  0
LINE
  8
_0-1_作画層１
  6
CONTINUOUS
 62
    7
 10
92.276838302612305
 20
230.51477670669556
 11
97.568880081176758
 21
233.57014274597168
  0
LINE
  8
_0-1_作画層１
  6
CONTINUOUS
 62
    7
 10
92.247232437133789
 20
230.6131477355957
 11
97.532081604003906
 21
233.66434955596924
  0
LINE
  8
_0-1_作画層１
  6
CONTINUOUS
 62
    7
 10
92.216821670532227
 20
230.71104645729065
 11
97.494760513305664
 21
233.75827646255493
  0
LINE
  8
_0-1_作画層１
  6
CONTINUOUS
 62
    7
 10
92.185588836669922
 20
230.80849027633667
 11
97.456930160522461
 21
233.85190582275391
  0
LINE
  8
_0-1_作画層１
  6
CONTINUOUS
 62
    7
 10
92.15355110168457
 20
230.90547895431519
 11
97.41859245300293
 21
233.94525480270386
  0
LINE
  8
_0-1_作画層１
  6
CONTINUOUS
 62
    7
 10
92.120725631713867
 20
231.0019953250885
 11
97.37974739074707
 21
234.03828954696655
  0
LINE
  8
_0-1_作画層１
  6
CONTINUOUS
 62
    7
 10
92.087095260620117
 20
231.09803938865662
 11
97.340396881103516
 21
234.13104391098022
  0
LINE
  8
_0-1_作画層１
  6
CONTINUOUS
 62
    7
 10
92.05265998840332
 20
231.19362831115723
 11
97.300554275512695
 21
234.22350072860718
  0
LINE
  8
_0-1_作画層１
  6
CONTINUOUS
 62
    7
 10
92.017455101013184
 20
231.28877973556519
 11
97.260204315185547
 21
234.31567764282227
  0
LINE
  8
_0-1_作画層１
  6
CONTINUOUS
 62
    7
 10
91.981462478637695
 20
231.38345909118652
 11
97.219330787658691
 21
234.40753984451294
  0
LINE
  8
_0-1_作画層１
  6
CONTINUOUS
 62
    7
 10
91.944700241088867
 20
231.47770071029663
 11
97.177967071533203
 21
234.49913930892944
  0
LINE
  8
_0-1_作画層１
  6
CONTINUOUS
 62
    7
 10
91.907151222229004
 20
231.57148742675781
 11
97.13609504699707
 21
234.59042406082153
  0
LINE
  8
_0-1_作画層１
  6
CONTINUOUS
 62
    7
 10
91.868831634521484
 20
231.66483688354492
 11
97.093733787536621
 21
234.68144607543945
  0
LINE
  8
_0-1_作画層１
  6
CONTINUOUS
 62
    7
 10
91.829707145690918
 20
231.75773143768311
 11
97.050847053527832
 21
234.77215337753296
  0
LINE
  8
_0-1_作画層１
  6
CONTINUOUS
 62
    7
 10
91.789847373962402
 20
231.85017061233521
 11
97.007488250732422
 21
234.86258029937744
  0
LINE
  8
_0-1_作画層１
  6
CONTINUOUS
 62
    7
 10
91.749217987060547
 20
231.94219017028809
 11
96.963622093200684
 21
234.95272779464722
  0
LINE
  8
_0-1_作画層１
  6
CONTINUOUS
 62
    7
 10
91.707818984985352
 20
232.03375482559204
 11
96.919248580932617
 21
235.04259490966797
  0
LINE
  8
_0-1_作画層１
  6
CONTINUOUS
 62
    7
 10
91.6656494140625
 20
232.12488174438477
 11
96.874402046203613
 21
235.13214731216431
  0
LINE
  8
_0-1_作画層１
  6
CONTINUOUS
 62
    7
 10
91.622711181640625
 20
232.21555423736572
 11
96.829030990600586
 21
235.22141981124878
  0
LINE
  8
_0-1_作画層１
  6
CONTINUOUS
 62
    7
 10
91.579019546508789
 20
232.30580615997314
 11
96.783169746398926
 21
235.31042957305908
  0
LINE
  8
_0-1_作画層１
  6
CONTINUOUS
 62
    7
 10
91.53459358215332
 20
232.39562129974365
 11
96.736819267272949
 21
235.39912509918213
  0
LINE
  8
_0-1_作画層１
  6
CONTINUOUS
 62
    7
 10
91.4893798828125
 20
232.48498106002808
 11
96.689960479736328
 21
235.48755741119385
  0
LINE
  8
_0-1_作画層１
  6
CONTINUOUS
 62
    7
 10
91.443413734436035
 20
232.57392120361328
 11
96.642612457275391
 21
235.57569217681885
  0
LINE
  8
_0-1_作画層１
  6
CONTINUOUS
 62
    7
 10
91.396713256835938
 20
232.66242361068726
 11
96.59477424621582
 21
235.66353034973145
  0
LINE
  8
_0-1_作画層１
  6
CONTINUOUS
 62
    7
 10
91.349242210388184
 20
232.75048875808716
 11
96.546445846557617
 21
235.75110530853271
  0
LINE
  8
_0-1_作画層１
  6
CONTINUOUS
 62
    7
 10
91.30100154876709
 20
232.83811616897583
 11
96.497610092163086
 21
235.83838272094727
  0
LINE
  8
_0-1_作画層１
  6
CONTINUOUS
 62
    7
 10
91.252042770385742
 20
232.92530632019043
 11
96.448285102844238
 21
235.92538070678711
  0
LINE
  8
_0-1_作画層１
  6
CONTINUOUS
 62
    7
 10
43.268321990966797
 20
236.18483352661133
 11
43.889484405517578
 21
238.50304698944092
  0
LINE
  8
_0-1_作画層１
  6
CONTINUOUS
 62
    7
 10
43.268321990966797
 20
236.18483352661133
 11
52.039291381835938
 21
234.14523410797119
  0
LINE
  8
_0-1_作画層１
  6
CONTINUOUS
 62
    7
 10
52.505163192749023
 20
235.8839111328125
 11
43.889484405517578
 21
238.50304698944092
  0
LINE
  8
_0-1_作画層１
  6
CONTINUOUS
 62
    7
 10
52.168720245361328
 20
234.62823629379272
 11
52.039291381835938
 21
234.14523410797119
  0
LINE
  8
_0-1_作画層１
  6
CONTINUOUS
 62
    7
 10
53.617586135864258
 20
234.23996591567993
 11
52.168720245361328
 21
234.62823629379272
  0
LINE
  8
_0-1_作画層１
  6
CONTINUOUS
 62
    7
 10
52.505163192749023
 20
235.8839111328125
 11
52.375749588012695
 21
235.40090942382812
  0
LINE
  8
_0-1_作画層１
  6
CONTINUOUS
 62
    7
 10
53.824651718139648
 20
235.01270914077759
 11
52.375749588012695
 21
235.40090942382812
  0
LINE
  8
_0-1_作画層１
  6
CONTINUOUS
 62
    7
 10
41.789501190185547
 20
237.58124160766602
 11
43.327602386474609
 21
236.40610790252686
  0
LINE
  8
_0-1_作画層１
  6
CONTINUOUS
 62
    7
 10
41.927730560302734
 20
238.03362274169922
 11
43.8297119140625
 21
238.2799711227417
  0
LINE
  8
_0-1_作画層１
  6
CONTINUOUS
 62
    7
 10
51.064748764038086
 20
234.37184476852417
 11
51.547872543334961
 21
236.17493057250977
  0
LINE
  8
_0-1_作画層１
  6
CONTINUOUS
 62
    7
 10
81.25
 20
231.21788001060486
 11
81.25
 21
223.4276819229126
  0
LINE
  8
_0-1_作画層１
  6
CONTINUOUS
 62
    7
 10
108.24998474121094
 20
172.24999618530273
 11
54.250015258789063
 21
172.24999618530273
  0
LINE
  8
_0-1_作画層１
  6
CONTINUOUS
 62
    7
 10
111.2499885559082
 20
150.25
 11
111.2499885559082
 21
169.24999237060547
  0
LINE
  8
_0-1_作画層１
  6
CONTINUOUS
 62
    7
 10
54.250015258789063
 20
147.25
 11
108.24998474121094
 21
147.25
  0
LINE
  8
_0-1_作画層１
  6
CONTINUOUS
 62
    7
 10
51.250011444091797
 20
150.25
 11
51.250011444091797
 21
169.24999237060547
  0
ARC
  8
_0-1_作画層１
  6
CONTINUOUS
 62
    7
 10
44.250019073486271
 20
263.24999618530279
 40
4.9999999999999432
 50
89.999999999999417
 51
180.0000000000006
  0
ARC
  8
_0-1_作画層１
  6
CONTINUOUS
 62
    7
 10
118.24998092651371
 20
263.24999618530279
 40
4.9999999999999574
 50
359.99999999999932
 51
90.000000000000483
  0
ARC
  8
_0-1_作画層１
  6
CONTINUOUS
 62
    7
 10
118.24998092651367
 20
189.25
 40
5
 50
270
 51
0
  0
ARC
  8
_0-1_作画層１
  6
CONTINUOUS
 62
    7
 10
44.250019073486328
 20
189.24999999999997
 40
5
 50
179.99999999999966
 51
270
  0
ARC
  8
_0-1_作画層１
  6
CONTINUOUS
 62
    7
 10
42.25
 20
272.25000762939453
 40
8
 50
90.000000000000099
 51
180
  0
ARC
  8
_0-1_作画層１
  6
CONTINUOUS
 62
    7
 10
120.24999999999999
 20
272.25000762939453
 40
8.0000000000000142
 50
0
 51
89.999999999999901
  0
ARC
  8
_0-1_作画層１
  6
CONTINUOUS
 62
    7
 10
120.24999999999996
 20
143.25000000000003
 40
8.0000000000000284
 50
270.00000000000034
 51
359.99999999999977
  0
ARC
  8
_0-1_作画層１
  6
CONTINUOUS
 62
    7
 10
42.25
 20
143.25
 40
8.0000000000000142
 50
180
 51
269.99999999999989
  0
ARC
  8
_0-1_作画層１
  6
CONTINUOUS
 62
    7
 10
81.250000000027285
 20
227.24999999999247
 40
29.999996185331046
 50
164.22578430175818
 51
165.77421569824108
  0
ARC
  8
_0-1_作画層１
  6
CONTINUOUS
 62
    7
 10
81.250000000001478
 20
227.24999999999955
 40
29.999996185304269
 50
167.97578430175759
 51
169.52421569824182
  0
ARC
  8
_0-1_作画層１
  6
CONTINUOUS
 62
    7
 10
81.250000000018389
 20
227.24999999999781
 40
29.999996185321251
 50
171.72578430175872
 51
173.2742156982421
  0
ARC
  8
_0-1_作画層１
  6
CONTINUOUS
 62
    7
 10
81.249999999962427
 20
227.2500000000027
 40
29.999996185265051
 50
175.47578430175727
 51
177.02421569824358
  0
ARC
  8
_0-1_作画層１
  6
CONTINUOUS
 62
    7
 10
81.249999999975898
 20
227.25000000000003
 40
29.999996185278633
 50
179.22578430175722
 51
180.77421569824281
  0
ARC
  8
_0-1_作画層１
  6
CONTINUOUS
 62
    7
 10
81.249999999962427
 20
227.2499999999973
 40
29.999996185265054
 50
182.97578430175642
 51
184.52421569824273
  0
ARC
  8
_0-1_作画層１
  6
CONTINUOUS
 62
    7
 10
81.250000000018389
 20
227.25000000000222
 40
29.999996185321255
 50
186.7257843017579
 51
188.27421569824133
  0
ARC
  8
_0-1_作画層１
  6
CONTINUOUS
 62
    7
 10
81.250000000011227
 20
227.25000000000247
 40
29.999996185314224
 50
190.47578430175855
 51
192.0242156982423
  0
ARC
  8
_0-1_作画層１
  6
CONTINUOUS
 62
    7
 10
81.249999999990933
 20
227.24999999999753
 40
29.999996185293337
 50
194.22578430175744
 51
195.77421569824233
  0
ARC
  8
_0-1_作画層１
  6
CONTINUOUS
 62
    7
 10
81.25000000005906
 20
227.25000000002024
 40
29.999996185365148
 50
197.97578430175977
 51
199.52421569824088
  0
ARC
  8
_0-1_作画層１
  6
CONTINUOUS
 62
    7
 10
81.249999999970697
 20
227.24999999998775
 40
29.999996185270977
 50
201.72578430175676
 51
203.27421569824281
  0
ARC
  8
_0-1_作画層１
  6
CONTINUOUS
 62
    7
 10
81.250000000041894
 20
227.25000000002046
 40
29.999996185349364
 50
205.47578430175867
 51
207.0242156982406
  0
ARC
  8
_0-1_作画層１
  6
CONTINUOUS
 62
    7
 10
81.250000000004661
 20
227.25000000000313
 40
29.999996185308319
 50
209.22578430175872
 51
210.77421569824276
  0
ARC
  8
_0-1_作画層１
  6
CONTINUOUS
 62
    7
 10
81.250000000007304
 20
227.25000000000503
 40
29.999996185311606
 50
212.97578430175827
 51
214.52421569824216
  0
ARC
  8
_0-1_作画層１
  6
CONTINUOUS
 62
    7
 10
81.250000000048601
 20
227.25000000003703
 40
29.999996185363834
 50
216.72578430175898
 51
218.2742156982402
  0
ARC
  8
_0-1_作画層１
  6
CONTINUOUS
 62
    7
 10
81.250000000004604
 20
227.25000000000378
 40
29.999996185308689
 50
220.47578430175759
 51
222.02421569824168
  0
ARC
  8
_0-1_作画層１
  6
CONTINUOUS
 62
    7
 10
81.250000000058918
 20
227.25000000005889
 40
29.999996185386031
 50
224.22578430175992
 51
225.77421569824
  0
ARC
  8
_0-1_作画層１
  6
CONTINUOUS
 62
    7
 10
81.249999999896573
 20
227.24999999988245
 40
29.999996185146173
 50
227.97578430175426
 51
229.52421569824662
  0
ARC
  8
_0-1_作画層１
  6
CONTINUOUS
 62
    7
 10
81.250000000015973
 20
227.25000000002134
 40
29.99999618532939
 50
231.72578430175912
 51
233.27421569824207
  0
ARC
  8
_0-1_作画層１
  6
CONTINUOUS
 62
    7
 10
81.249999999921329
 20
227.24999999988231
 40
29.999996185161173
 50
235.47578430175417
 51
237.02421569824588
  0
ARC
  8
_0-1_作画層１
  6
CONTINUOUS
 62
    7
 10
81.249999999925677
 20
227.24999999987222
 40
29.99999618515492
 50
239.22578430175497
 51
240.77421569824696
  0
ARC
  8
_0-1_作画層１
  6
CONTINUOUS
 62
    7
 10
81.249999999951655
 20
227.24999999990109
 40
29.999996185192646
 50
242.97578430175426
 51
244.52421569824435
  0
ARC
  8
_0-1_作画層１
  6
CONTINUOUS
 62
    7
 10
81.2500000000027
 20
227.25000000000648
 40
29.999996185309747
 50
246.72578430175798
 51
248.27421569824196
  0
ARC
  8
_0-1_作画層１
  6
CONTINUOUS
 62
    7
 10
81.250000000019327
 20
227.25000000005861
 40
29.999996185364441
 50
250.47578430176046
 51
252.02421569824159
  0
ARC
  8
_0-1_作画層１
  6
CONTINUOUS
 62
    7
 10
81.249999999968651
 20
227.24999999988216
 40
29.999996185180809
 50
254.22578430175429
 51
255.77421569824492
  0
ARC
  8
_0-1_作画層１
  6
CONTINUOUS
 62
    7
 10
81.249999999951882
 20
227.24999999975751
 40
29.999996185055526
 50
257.9757843017511
 51
259.52421569824833
  0
ARC
  8
_0-1_作画層１
  6
CONTINUOUS
 62
    7
 10
81.249999999969873
 20
227.24999999976882
 40
29.999996185069612
 50
261.72578430175122
 51
263.27421569824764
  0
ARC
  8
_0-1_作画層１
  6
CONTINUOUS
 62
    7
 10
81.249999999994174
 20
227.24999999991752
 40
29.999996185220059
 50
265.47578430175651
 51
267.02421569824514
  0
ARC
  8
_0-1_作画層１
  6
CONTINUOUS
 62
    7
 10
81.25
 20
227.24999999997485
 40
29.999996185277581
 50
269.22578430175713
 51
270.77421569824276
  0
ARC
  8
_0-1_作画層１
  6
CONTINUOUS
 62
    7
 10
81.250000000005826
 20
227.24999999991752
 40
29.999996185220059
 50
272.97578430175486
 51
274.52421569824349
  0
ARC
  8
_0-1_作画層１
  6
CONTINUOUS
 62
    7
 10
81.250000000031491
 20
227.2499999997577
 40
29.999996185058414
 50
276.7257843017523
 51
278.27421569824924
  0
ARC
  8
_0-1_作画層１
  6
CONTINUOUS
 62
    7
 10
81.250000000045247
 20
227.24999999977129
 40
29.999996185069602
 50
280.47578430175224
 51
282.02421569824867
  0
ARC
  8
_0-1_作画層１
  6
CONTINUOUS
 62
    7
 10
81.250000000041751
 20
227.2499999998432
 40
29.999996185140478
 50
284.22578430175406
 51
285.77421569824685
  0
ARC
  8
_0-1_作画層１
  6
CONTINUOUS
 62
    7
 10
81.250000000026859
 20
227.24999999991931
 40
29.999996185217707
 50
287.97578430175651
 51
289.52421569824531
  0
ARC
  8
_0-1_作画層１
  6
CONTINUOUS
 62
    7
 10
81.249999999986073
 20
227.25000000003308
 40
29.999996185338617
 50
291.72578430175918
 51
293.27421569824162
  0
ARC
  8
_0-1_作画層１
  6
CONTINUOUS
 62
    7
 10
81.249999999995623
 20
227.25000000000983
 40
29.999996185313496
 50
295.4757843017573
 51
297.02421569824111
  0
ARC
  8
_0-1_作画層１
  6
CONTINUOUS
 62
    7
 10
81.249999999976524
 20
227.25000000003953
 40
29.999996185348714
 50
299.22578430176009
 51
300.77421569824207
  0
ARC
  8
_0-1_作画層１
  6
CONTINUOUS
 62
    7
 10
81.249999999946738
 20
227.25000000007992
 40
29.999996185398782
 50
302.97578430175997
 51
304.5242156982394
  0
ARC
  8
_0-1_作画層１
  6
CONTINUOUS
 62
    7
 10
81.249999999983743
 20
227.25000000002223
 40
29.999996185330268
 50
306.72578430175724
 51
308.2742156982402
  0
ARC
  8
_0-1_作画層１
  6
CONTINUOUS
 62
    7
 10
81.25000000006969
 20
227.24999999992093
 40
29.999996185197343
 50
310.47578430175463
 51
312.0242156982444
  0
ARC
  8
_0-1_作画層１
  6
CONTINUOUS
 62
    7
 10
81.249999999901831
 20
227.25000000009868
 40
29.999996185441912
 50
314.22578430176071
 51
315.77421569823792
  0
ARC
  8
_0-1_作画層１
  6
CONTINUOUS
 62
    7
 10
81.250000000074181
 20
227.2499999999356
 40
29.999996185204516
 50
317.97578430175435
 51
319.52421569824372
  0
ARC
  8
_0-1_作画層１
  6
CONTINUOUS
 62
    7
 10
81.250000000028308
 20
227.24999999997883
 40
29.999996185267399
 50
321.72578430175605
 51
323.27421569824224
  0
ARC
  8
_0-1_作画層１
  6
CONTINUOUS
 62
    7
 10
81.249999999992696
 20
227.25000000000506
 40
29.99999618531162
 50
325.4757843017577
 51
327.02421569824162
  0
ARC
  8
_0-1_作画層１
  6
CONTINUOUS
 62
    7
 10
81.249999999926445
 20
227.25000000004175
 40
29.9999961853873
 50
329.22578430176111
 51
330.77421569824111
  0
ARC
  8
_0-1_作画層１
  6
CONTINUOUS
 62
    7
 10
81.250000000084441
 20
227.24999999995867
 40
29.99999618520873
 50
332.97578430175486
 51
334.52421569824406
  0
ARC
  8
_0-1_作画層１
  6
CONTINUOUS
 62
    7
 10
81.250000000019952
 20
227.2499999999915
 40
29.999996185281034
 50
336.72578430175764
 51
338.27421569824315
  0
ARC
  8
_0-1_作画層１
  6
CONTINUOUS
 62
    7
 10
81.249999999986301
 20
227.25000000000443
 40
29.999996185317137
 50
340.47578430175855
 51
342.02421569824219
  0
ARC
  8
_0-1_作画層１
  6
CONTINUOUS
 62
    7
 10
81.249999999972715
 20
227.25000000000753
 40
29.999996185331046
 50
344.22578430175815
 51
345.77421569824111
  0
ARC
  8
_0-1_作画層１
  6
CONTINUOUS
 62
    7
 10
81.250000000004178
 20
227.24999999999886
 40
29.999996185298411
 50
347.97578430175827
 51
349.52421569824281
  0
ARC
  8
_0-1_作画層１
  6
CONTINUOUS
 62
    7
 10
81.249999999981611
 20
227.25000000000219
 40
29.999996185321251
 50
351.72578430175872
 51
353.27421569824213
  0
ARC
  8
_0-1_作画層１
  6
CONTINUOUS
 62
    7
 10
81.250000000088619
 20
227.2499999999938
 40
29.999996185213909
 50
355.47578430175628
 51
357.0242156982452
  0
ARC
  8
_0-1_作画層１
  6
CONTINUOUS
 62
    7
 10
81.250000000024102
 20
227.24999999999997
 40
29.999996185278633
 50
359.22578430175713
 51
0.7742156982427793
  0
ARC
  8
_0-1_作画層１
  6
CONTINUOUS
 62
    7
 10
81.250000000076341
 20
227.25000000000549
 40
29.999996185226191
 50
2.975784301754913
 51
4.5242156982432542
  0
ARC
  8
_0-1_作画層１
  6
CONTINUOUS
 62
    7
 10
81.249999999981611
 20
227.24999999999778
 40
29.999996185321255
 50
6.7257843017579244
 51
8.2742156982413473
  0
ARC
  8
_0-1_作画層１
  6
CONTINUOUS
 62
    7
 10
81.249999999956913
 20
227.24999999999142
 40
29.999996185346667
 50
10.475784301758956
 51
12.024215698241104
  0
ARC
  8
_0-1_作画層１
  6
CONTINUOUS
 62
    7
 10
81.249999999972687
 20
227.24999999999247
 40
29.99999618533106
 50
14.225784301758932
 51
15.774215698241843
  0
ARC
  8
_0-1_作画層１
  6
CONTINUOUS
 62
    7
 10
81.24999999994094
 20
227.24999999997976
 40
29.999996185365148
 50
17.975784301759791
 51
19.524215698240905
  0
ARC
  8
_0-1_作画層１
  6
CONTINUOUS
 62
    7
 10
81.250000000029303
 20
227.25000000001225
 40
29.999996185270977
 50
21.725784301756772
 51
23.27421569824282
  0
ARC
  8
_0-1_作画層１
  6
CONTINUOUS
 62
    7
 10
81.250000000084412
 20
227.2500000000413
 40
29.999996185208754
 50
25.475784301755994
 51
27.024215698245175
  0
ARC
  8
_0-1_作画層１
  6
CONTINUOUS
 62
    7
 10
81.25000000005366
 20
227.25000000003052
 40
29.999996185241002
 50
29.225784301756999
 51
30.774215698244518
  0
ARC
  8
_0-1_作画層１
  6
CONTINUOUS
 62
    7
 10
81.249999999992696
 20
227.24999999999497
 40
29.999996185311606
 50
32.975784301758281
 51
34.52421569824218
  0
ARC
  8
_0-1_作画層１
  6
CONTINUOUS
 62
    7
 10
81.250000000003752
 20
227.25000000000313
 40
29.999996185297856
 50
36.725784301757301
 51
38.274215698241939
  0
ARC
  8
_0-1_作画層１
  6
CONTINUOUS
 62
    7
 10
81.249999999995396
 20
227.24999999999622
 40
29.999996185308689
 50
40.475784301757606
 51
42.024215698241669
  0
ARC
  8
_0-1_作画層１
  6
CONTINUOUS
 62
    7
 10
81.249999999941082
 20
227.24999999994111
 40
29.999996185386031
 50
44.225784301759937
 51
45.774215698239992
  0
ARC
  8
_0-1_作画層１
  6
CONTINUOUS
 62
    7
 10
81.249999999956913
 20
227.24999999995117
 40
29.999996185367856
 50
47.975784301759113
 51
49.524215698240141
  0
ARC
  8
_0-1_作画層１
  6
CONTINUOUS
 62
    7
 10
81.249999999955264
 20
227.24999999994117
 40
29.999996185376638
 50
51.725784301760349
 51
53.274215698240894
  0
ARC
  8
_0-1_作画層１
  6
CONTINUOUS
 62
    7
 10
81.250000000066848
 20
227.25000000010024
 40
29.999996185182258
 50
55.475784301754466
 51
57.024215698245044
  0
ARC
  8
_0-1_作画層１
  6
CONTINUOUS
 62
    7
 10
81.249999999995737
 20
227.24999999999324
 40
29.999996185310728
 50
59.225784301757415
 51
60.77421569824142
  0
ARC
  8
_0-1_作画層１
  6
CONTINUOUS
 62
    7
 10
81.250000000040671
 20
227.25000000008311
 40
29.999996185210211
 50
62.975784301754871
 51
64.524215698244049
  0
ARC
  8
_0-1_作画層１
  6
CONTINUOUS
 62
    7
 10
81.249999999974136
 20
227.24999999993653
 40
29.999996185371256
 50
66.725784301760328
 51
68.274215698241136
  0
ARC
  8
_0-1_作画層１
  6
CONTINUOUS
 62
    7
 10
81.249999999923915
 20
227.24999999977683
 40
29.999996185538503
 50
70.475784301763298
 51
72.024215698235494
  0
ARC
  8
_0-1_作画層１
  6
CONTINUOUS
 62
    7
 10
81.249999999958618
 20
227.24999999984587
 40
29.999996185462308
 50
74.225784301761763
 51
75.774215698237924
  0
ARC
  8
_0-1_作画層１
  6
CONTINUOUS
 62
    7
 10
81.250000000045048
 20
227.25000000022658
 40
29.99999618507173
 50
77.975784301751787
 51
79.524215698248128
  0
ARC
  8
_0-1_作画層１
  6
CONTINUOUS
 62
    7
 10
81.250000000030127
 20
227.25000000023118
 40
29.999996185069612
 50
81.725784301751219
 51
83.274215698247644
  0
ARC
  8
_0-1_作画層１
  6
CONTINUOUS
 62
    7
 10
81.250000000005457
 20
227.25000000007634
 40
29.999996185226209
 50
85.475784301756718
 51
87.024215698245058
  0
ARC
  8
_0-1_作画層１
  6
CONTINUOUS
 62
    7
 10
81.25
 20
227.2500000000241
 40
29.999996185278633
 50
89.225784301757187
 51
90.774215698242827
  0
ARC
  8
_0-1_作画層１
  6
CONTINUOUS
 62
    7
 10
81.249999999994543
 20
227.25000000007634
 40
29.999996185226209
 50
92.975784301754928
 51
94.524215698243268
  0
ARC
  8
_0-1_作画層１
  6
CONTINUOUS
 62
    7
 10
81.249999999969873
 20
227.25000000023118
 40
29.999996185069616
 50
96.725784301752398
 51
98.274215698248824
  0
ARC
  8
_0-1_作画層１
  6
CONTINUOUS
 62
    7
 10
81.249999999980616
 20
227.25000000009297
 40
29.999996185207781
 50
100.47578430175365
 51
102.02421569824294
  0
ARC
  8
_0-1_作画層１
  6
CONTINUOUS
 62
    7
 10
81.249999999968651
 20
227.25000000011789
 40
29.999996185180756
 50
104.2257843017551
 51
105.77421569824578
  0
ARC
  8
_0-1_作画層１
  6
CONTINUOUS
 62
    7
 10
81.249999999981355
 20
227.25000000005596
 40
29.999996185243759
 50
107.97578430175689
 51
109.52421569824432
  0
ARC
  8
_0-1_作画層１
  6
CONTINUOUS
 62
    7
 10
81.250000000020066
 20
227.24999999995072
 40
29.99999618535594
 50
111.72578430175862
 51
113.27421569824023
  0
ARC
  8
_0-1_作画層１
  6
CONTINUOUS
 62
    7
 10
81.250000000012164
 20
227.24999999997416
 40
29.999996185331277
 50
115.47578430175753
 51
117.02421569824043
  0
ARC
  8
_0-1_作画層１
  6
CONTINUOUS
 62
    7
 10
81.249999999980247
 20
227.25000000001327
 40
29.999996185278938
 50
145.47578430175736
 51
147.02421569824293
  0
ARC
  8
_0-1_作画層１
  6
CONTINUOUS
 62
    7
 10
81.250000000132133
 20
227.24999999992389
 40
29.99999618545521
 50
149.22578430176202
 51
150.77421569823852
  0
ARC
  8
_0-1_作画層１
  6
CONTINUOUS
 62
    7
 10
81.249999999915559
 20
227.25000000004133
 40
29.99999618520873
 50
152.97578430175489
 51
154.52421569824403
  0
ARC
  8
_0-1_作画層１
  6
CONTINUOUS
 62
    7
 10
81.250000000023789
 20
227.24999999998985
 40
29.999996185328598
 50
156.72578430175795
 51
158.27421569824105
  0
ARC
  8
_0-1_作画層１
  6
CONTINUOUS
 62
    7
 10
81.249999999964302
 20
227.25000000001194
 40
29.999996185265115
 50
160.47578430175651
 51
162.02421569824278
  0
CIRCLE
  8
_0-1_作画層１
  6
CONTINUOUS
 62
    7
 10
81.25
 20
227.25
 40
8.5
  0
CIRCLE
  8
_0-1_作画層１
  6
CONTINUOUS
 62
    7
 10
81.25
 20
227.25
 40
6.9999995231628418
  0
ARC
  8
_0-1_作画層１
  6
CONTINUOUS
 62
    7
 10
81.25
 20
227.25
 40
20.500000000000018
 50
126.25959777832033
 51
113.74040222167963
  0
ARC
  8
_0-1_作画層１
  6
CONTINUOUS
 62
    7
 10
81.250000000000085
 20
227.24999999999994
 40
17.500000000000099
 50
128.62396240234384
 51
164.99999999999983
  0
ARC
  8
_0-1_作画層１
  6
CONTINUOUS
 62
    7
 10
81.250000000000114
 20
227.24999999999991
 40
11.500000000000147
 50
137.32049560546889
 51
164.99999999999972
  0
ARC
  8
_0-1_作画層１
  6
CONTINUOUS
 62
    7
 10
81.25
 20
227.24999999999997
 40
13.999999046325668
 50
209.99999999999994
 51
300.00000000000006
  0
ARC
  8
_0-1_作画層１
  6
CONTINUOUS
 62
    7
 10
81.25
 20
227.24999999999994
 40
14.999998092651323
 50
226.41824340820295
 51
300.00000000000006
  0
ARC
  8
_0-1_作画層１
  6
CONTINUOUS
 62
    7
 10
81.25
 20
227.25000000000006
 40
14.999998092651317
 50
45.845993041992031
 51
108.64886474609381
  0
ARC
  8
_0-1_作画層１
  6
CONTINUOUS
 62
    7
 10
81.25
 20
227.25
 40
13.9999990463257
 50
29.999923706054645
 51
107.26919555664058
  0
ARC
  8
_0-1_作画層１
  6
CONTINUOUS
 62
    7
 10
81.25
 20
227.24999999999997
 40
13.999999046325664
 50
209.36732482910142
 51
300.00000000000006
  0
ARC
  8
_0-1_作画層１
  6
CONTINUOUS
 62
    7
 10
81.25
 20
227.25
 40
13.9999990463257
 50
29.999923706054645
 51
107.26919555664058
  0
ARC
  8
_0-1_作画層１
  6
CONTINUOUS
 62
    7
 10
81.249999999999943
 20
227.24999999999997
 40
11.500000000000052
 50
345.00000000000017
 51
29.988250732421879
  0
ARC
  8
_0-1_作画層１
  6
CONTINUOUS
 62
    7
 10
81.249999999999858
 20
227.25
 40
17.500000000000135
 50
345.00000000000017
 51
29.992324829101335
  0
ARC
  8
_0-1_作画層１
  6
CONTINUOUS
 62
    7
 10
53.721118927001953
 20
234.62632894515991
 40
0.4000000059604612
 50
254.9999999999992
 51
75.000000000001208
  0
ARC
  8
_0-1_作画層１
  6
CONTINUOUS
 62
    7
 10
41.93682861328125
 20
237.78393363952637
 40
0.2500000000000098
 50
92.088562011721024
 51
233.98876953124793
  0
ARC
  8
_0-1_作画層１
  6
CONTINUOUS
 62
    7
 10
81.249999999999602
 20
227.2500000000002
 40
28.999999999999577
 50
135.8465881347654
 51
164.20970153808616
  0
ARC
  8
_0-1_作画層１
  6
CONTINUOUS
 62
    7
 10
54.250015258789034
 20
169.2499923706055
 40
2.9999999999999716
 50
89.999999999999332
 51
180.00000000000051
  0
ARC
  8
_0-1_作画層１
  6
CONTINUOUS
 62
    7
 10
108.24998474121098
 20
169.2499923706055
 40
2.9999999999999574
 50
359.99999999999943
 51
90.000000000000796
  0
ARC
  8
_0-1_作画層１
  6
CONTINUOUS
 62
    7
 10
108.24998474121098
 20
150.24999999999997
 40
2.9999999999999716
 50
269.9999999999992
 51
0.000000000000547
  0
ARC
  8
_0-1_作画層１
  6
CONTINUOUS
 62
    7
 10
54.250015258789034
 20
150.24999999999997
 40
2.9999999999999645
 50
179.99999999999946
 51
270.00000000000074
  0
LINE
  8
_0-1_作画層１
  6
CENTER
 62
    7
 10
81.25
 20
130.25
 11
81.25
 21
285.25
  0
LINE
  8
_0-1_作画層１
  6
CONTINUOUS
 62
    7
 10
51.322844447764169
 20
249.01270215115764
 11
56.986949333839419
 21
244.89380938158769
  0
LINE
  8
_0-1_作画層１
  6
CONTINUOUS
 62
    7
 10
56.501544800803629
 20
254.75934040687071
 11
61.185509445404392
 21
249.55282170280299
  0
LINE
  8
_0-1_作画層１
  6
CONTINUOUS
 62
    7
 10
69.830217939422823
 20
262.44713656047378
 11
71.991550624452515
 21
255.78560499241084
  0
LINE
  8
_0-1_作画層１
  6
CONTINUOUS
 62
    7
 10
58.947180971220803
 20
247.31449060379592
 11
53.740663129887736
 21
251.99847096002395
  0
LINE
  8
_0-1_作画層１
  6
CONTINUOUS
 62
    7
 10
63.606193244231605
 20
251.51305015832492
 11
59.487304585174456
 21
257.17717023331807
  0
LINE
  8
_0-1_作画層１
  6
CONTINUOUS
 62
    7
 10
75.000252054920821
 20
256.5917819916117
 11
73.541265215184467
 21
263.4415161040518
  0
LINE
  8
_0-1_作画層１
  6
CONTINUOUS
 62
    7
 10
81.237323547811826
 20
257.2499893187956
 11
81.23435887199102
 21
264.25338072727379
  0
LINE
  8
_0-1_作画層１
  6
CONTINUOUS
 62
    7
 10
45.955969129313189
 20
243.88642087196462
 11
47.045541335505447
 21
246.02482888073851
  0
LINE
  8
_0-1_作画層１
  6
CONTINUOUS
 62
    7
 10
50.186134776258825
 20
250.8609167948087
 11
51.696497240334452
 21
252.72606065832338
  0
LINE
  8
_0-1_作画層１
  6
CONTINUOUS
 62
    7
 10
55.77394039444539
 20
256.80350235597064
 11
57.639083029201061
 21
258.31386633743728
  0
LINE
  8
_0-1_作画層１
  6
CONTINUOUS
 62
    7
 10
62.475172065091868
 20
261.45445805073848
 11
64.613579187441388
 21
262.54403199663648
  0
LINE
  8
_0-1_作画層１
  6
CONTINUOUS
 62
    7
 10
69.996953808113716
 20
264.6105147974892
 11
72.315166765594626
 21
265.23167909802692
  0
LINE
  8
_0-1_作画層１
  6
CONTINUOUS
 62
    7
 10
78.010547667827609
 20
266.13373777194931
 11
80.407249430178013
 21
266.25934456651629
  0
LINE
  8
_0-1_作画層１
  6
CONTINUOUS
 62
    7
 10
45.955969129313189
 20
243.88642087196462
 11
54.111215231381095
 21
240.0678045179973
  0
LINE
  8
_0-1_作画層１
  6
CONTINUOUS
 62
    7
 10
50.186134776258825
 20
250.8609167948087
 11
57.369234201652603
 21
245.43017536393683
  0
LINE
  8
_0-1_作画層１
  6
CONTINUOUS
 62
    7
 10
55.77394039444539
 20
256.80350235597064
 11
61.670957229940029
 21
249.99798530831197
  0
LINE
  8
_0-1_作画層１
  6
CONTINUOUS
 62
    7
 10
62.475172065091868
 20
261.45445805073848
 11
66.828378377949974
 21
253.5715991377696
  0
LINE
  8
_0-1_作画層１
  6
CONTINUOUS
 62
    7
 10
69.996953808113716
 20
264.6105147974892
 11
72.616093593461954
 21
255.99483277986073
  0
LINE
  8
_0-1_作画層１
  6
CONTINUOUS
 62
    7
 10
78.010547667827609
 20
266.13373777194931
 11
78.781151949019147
 21
257.16177929646079
  0
LINE
  8
_0-1_作画層１
  6
CONTINUOUS
 62
    7
 10
54.928397905496013
 20
241.67162708238556
 11
47.045541335505447
 21
246.02482888073851
  0
LINE
  8
_0-1_作画層１
  6
CONTINUOUS
 62
    7
 10
58.502012934832948
 20
246.82904872581372
 11
51.696497240334452
 21
252.72606065832338
  0
LINE
  8
_0-1_作画層１
  6
CONTINUOUS
 62
    7
 10
63.069824155870435
 20
251.13077198922437
 11
57.639083029201061
 21
258.31386633743728
  0
LINE
  8
_0-1_作画層１
  6
CONTINUOUS
 62
    7
 10
68.432196299459008
 20
254.38879092404804
 11
64.613579187441388
 21
262.54403199663648
  0
LINE
  8
_0-1_作画層１
  6
CONTINUOUS
 62
    7
 10
74.354767971407426
 20
256.46071446912356
 11
72.315166765594626
 21
265.23167909802692
  0
LINE
  8
_0-1_作画層１
  6
CONTINUOUS
 62
    7
 10
80.578694369999539
 20
257.25598962333891
 11
80.407249430178013
 21
266.25934456651629
  0
LINE
  8
_0-1_作画層１
  6
CONTINUOUS
 62
    7
 10
54.338237564826983
 20
240.51334217335165
 11
54.111215231381095
 21
240.0678045179973
  0
LINE
  8
_0-1_作画層１
  6
CONTINUOUS
 62
    7
 10
57.68392803967339
 20
245.8187763553581
 11
57.369234201652603
 21
245.43017536393683
  0
LINE
  8
_0-1_作画層１
  6
CONTINUOUS
 62
    7
 10
62.059568941745653
 20
250.31266590776062
 11
61.670957229940029
 21
249.99798530831197
  0
LINE
  8
_0-1_作画層１
  6
CONTINUOUS
 62
    7
 10
67.273923766968608
 20
253.79860629304471
 11
66.828378377949974
 21
253.5715991377696
  0
LINE
  8
_0-1_作画層１
  6
CONTINUOUS
 62
    7
 10
73.099100188229528
 20
256.12424518897558
 11
72.616093593461954
 21
255.99483277986073
  0
LINE
  8
_0-1_作画層１
  6
CONTINUOUS
 62
    7
 10
79.280510043621518
 20
257.18794101614742
 11
78.781151949019147
 21
257.16177929646079
  0
LINE
  8
_0-1_作画層１
  6
CONTINUOUS
 62
    7
 10
55.674716308599614
 20
239.83232027750196
 11
54.338237564826983
 21
240.51334217335165
  0
LINE
  8
_0-1_作画層１
  6
CONTINUOUS
 62
    7
 10
58.849609102476251
 20
244.87476686652582
 11
57.68392803967339
 21
245.8187763553581
  0
LINE
  8
_0-1_作画層１
  6
CONTINUOUS
 62
    7
 10
63.003506467575988
 20
249.14692657046777
 11
62.059568941745653
 21
250.31266590776062
  0
LINE
  8
_0-1_作画層１
  6
CONTINUOUS
 62
    7
 10
67.95486315643285
 20
252.46208551016895
 11
67.273923766968608
 21
253.79860629304471
  0
LINE
  8
_0-1_作画層１
  6
CONTINUOUS
 62
    7
 10
73.487281122498331
 20
254.67535533206686
 11
73.099100188229528
 21
256.12424518897558
  0
LINE
  8
_0-1_作画層１
  6
CONTINUOUS
 62
    7
 10
79.35896715316855
 20
255.69000552449756
 11
79.280510043621518
 21
257.18794101614742
  0
LINE
  8
_0-1_作画層１
  6
CONTINUOUS
 62
    7
 10
54.928397905496013
 20
241.67162708238556
 11
54.701390596538033
 21
241.22608672096771
  0
LINE
  8
_0-1_作画層１
  6
CONTINUOUS
 62
    7
 10
58.502012934832948
 20
246.82904872581372
 11
58.187333230356757
 21
246.44044196369623
  0
LINE
  8
_0-1_作画層１
  6
CONTINUOUS
 62
    7
 10
63.069824155870435
 20
251.13077198922437
 11
62.681225068962334
 21
250.81608280665387
  0
LINE
  8
_0-1_作画層１
  6
CONTINUOUS
 62
    7
 10
68.432196299459008
 20
254.38879092404804
 11
67.986661474922215
 21
254.16177274834916
  0
LINE
  8
_0-1_作画層１
  6
CONTINUOUS
 62
    7
 10
74.354767971407426
 20
256.46071446912356
 11
73.871769418987498
 21
256.33128908392837
  0
LINE
  8
_0-1_作画層１
  6
CONTINUOUS
 62
    7
 10
80.578694369999539
 20
257.25598962333891
 11
80.079341444121383
 21
257.22981353903236
  0
LINE
  8
_0-1_作画層１
  6
CONTINUOUS
 62
    7
 10
56.037919361594845
 20
240.54512585379351
 11
54.701390596538033
 21
241.22608672096771
  0
LINE
  8
_0-1_作画層１
  6
CONTINUOUS
 62
    7
 10
59.353075909933864
 20
245.49648176990664
 11
58.187333230356757
 21
246.44044196369623
  0
LINE
  8
_0-1_作画層１
  6
CONTINUOUS
 62
    7
 10
63.625233114108255
 20
249.65037887634105
 11
62.681225068962334
 21
250.81608280665387
  0
LINE
  8
_0-1_作画層１
  6
CONTINUOUS
 62
    7
 10
68.667677204210861
 20
252.82527193693582
 11
67.986661474922215
 21
254.16177274834916
  0
LINE
  8
_0-1_作画層１
  6
CONTINUOUS
 62
    7
 10
74.260029177172896
 20
254.88240289011577
 11
73.871769418987498
 21
256.33128908392837
  0
LINE
  8
_0-1_作画層１
  6
CONTINUOUS
 62
    7
 10
80.157876416693853
 20
255.73186524201739
 11
80.079341444121383
 21
257.22981353903236
  0
LINE
  8
_0-1_作画層１
  6
CONTINUOUS
 62
    7
 10
44.799793676317421
 20
245.5597782192005
 11
46.059959635580952
 21
244.09053478460791
  0
LINE
  8
_0-1_作画層１
  6
CONTINUOUS
 62
    7
 10
49.403135086289865
 20
252.73808966249209
 11
50.330290509160847
 21
251.03894948675003
  0
LINE
  8
_0-1_作画層１
  6
CONTINUOUS
 62
    7
 10
55.398337311204187
 20
258.80244928210902
 11
55.951961056717863
 21
256.94767294427652
  0
LINE
  8
_0-1_作画層１
  6
CONTINUOUS
 62
    7
 10
62.523381245659607
 20
263.48781546264792
 11
62.679277299555537
 21
261.5584655888926
  0
LINE
  8
_0-1_作画層１
  6
CONTINUOUS
 62
    7
 10
70.466868279966349
 20
266.58941521913795
 11
70.218223236617035
 21
264.66981365699081
  0
LINE
  8
_0-1_作画層１
  6
CONTINUOUS
 62
    7
 10
78.881629913645327
 20
267.97169375909357
 11
78.239310754576394
 21
266.14573630809065
  0
LINE
  8
_0-1_作画層１
  6
CONTINUOUS
 62
    7
 10
45.029057729519394
 20
245.97353423801056
 11
46.940694935772711
 21
245.81905515670789
  0
LINE
  8
_0-1_作画層１
  6
CONTINUOUS
 62
    7
 10
49.713413883320698
 20
253.09513744263538
 11
51.551159223101223
 21
252.54658237611332
  0
LINE
  8
_0-1_作画層１
  6
CONTINUOUS
 62
    7
 10
55.776070179750775
 20
259.08718412228791
 11
57.459605363229599
 21
258.16852755921275
  0
LINE
  8
_0-1_作画層１
  6
CONTINUOUS
 62
    7
 10
62.952059446803105
 20
263.68779308403725
 11
64.407805907964075
 21
262.43918472441874
  0
LINE
  8
_0-1_作画層１
  6
CONTINUOUS
 62
    7
 10
70.927756519290512
 20
266.6958956400839
 11
72.092091152334348
 21
265.17190566072492
  0
LINE
  8
_0-1_作画層１
  6
CONTINUOUS
 62
    7
 10
79.354585163504538
 20
267.9800232742511
 11
80.176620957869773
 21
266.24725735016489
  0
LINE
  8
_0-1_作画層１
  6
CONTINUOUS
 62
    7
 10
53.205083713562203
 20
240.49208199535823
 11
54.05253269733501
 21
242.15531896661602
  0
LINE
  8
_0-1_作画層１
  6
CONTINUOUS
 62
    7
 10
56.571116079242756
 20
246.0335766964358
 11
57.745852680389277
 21
247.48427339822538
  0
LINE
  8
_0-1_作画層１
  6
CONTINUOUS
 62
    7
 10
61.015734094684234
 20
250.75413896227792
 11
62.46641668672271
 21
251.92889298751598
  0
LINE
  8
_0-1_作画層１
  6
CONTINUOUS
 62
    7
 10
66.344686624968318
 20
254.44745757009647
 11
68.007913417479244
 21
255.29492653078483
  0
LINE
  8
_0-1_作画層１
  6
CONTINUOUS
 62
    7
 10
72.325072873370289
 20
256.95211677422071
 11
74.128152874473329
 21
257.43526221017009
  0
LINE
  8
_0-1_作画層１
  6
CONTINUOUS
 62
    7
 10
78.695521263757826
 20
258.15865094874221
 11
80.559651225267004
 21
258.25635708601249
  0
ARC
  8
_0-1_作画層１
  6
CONTINUOUS
 62
    7
 10
81.249999999928974
 20
227.25000000003652
 40
29.999996185222876
 50
152.22578430175633
 51
153.77421569824483
  0
ARC
  8
_0-1_作画層１
  6
CONTINUOUS
 62
    7
 10
81.249999999885404
 20
227.2500000000922
 40
29.99999618515567
 50
140.22578430175312
 51
141.77421569824511
  0
ARC
  8
_0-1_作画層１
  6
CONTINUOUS
 62
    7
 10
81.250000000031093
 20
227.24999999996231
 40
29.999996185351588
 50
128.22578430175997
 51
129.77421569824185
  0
ARC
  8
_0-1_作画層１
  6
CONTINUOUS
 62
    7
 10
81.24999999990348
 20
227.25000000019082
 40
29.999996185088907
 50
116.22578430175349
 51
117.77421569824898
  0
ARC
  8
_0-1_作画層１
  6
CONTINUOUS
 62
    7
 10
81.249999999968651
 20
227.25000000011789
 40
29.999996185180756
 50
104.2257843017551
 51
105.77421569824578
  0
ARC
  8
_0-1_作画層１
  6
CONTINUOUS
 62
    7
 10
81.249999999996021
 20
227.25000000007321
 40
29.99999618522941
 50
92.225784301755695
 51
93.774215698243879
  0
ARC
  8
_0-1_作画層１
  6
CONTINUOUS
 62
    7
 10
81.250000000160099
 20
227.24999999985002
 40
29.999996185522122
 50
136.47578430176071
 51
138.02421569823366
  0
ARC
  8
_0-1_作画層１
  6
CONTINUOUS
 62
    7
 10
81.24999999978246
 20
227.25000000030775
 40
29.999996184925887
 50
124.47578430174804
 51
126.02421569825185
  0
ARC
  8
_0-1_作画層１
  6
CONTINUOUS
 62
    7
 10
81.249999999954753
 20
227.25000000022874
 40
29.999996185069598
 50
100.47578430175224
 51
102.02421569824864
  0
ARC
  8
_0-1_作画層１
  6
CONTINUOUS
 62
    7
 10
81.24999999999838
 20
227.24999999991022
 40
29.999996185392529
 50
88.475784301759319
 51
90.024215698239018
  0
ARC
  8
_0-1_作画層１
  6
CONTINUOUS
 62
    7
 10
55.856316050576879
 20
240.18871467013952
 40
0.4000000059604463
 50
242.99999999999801
 51
63.000000000003539
  0
ARC
  8
_0-1_作画層１
  6
CONTINUOUS
 62
    7
 10
59.101339015156441
 20
245.18561647719264
 40
0.4000000059604516
 50
230.99999999999983
 51
50.999999999999829
  0
ARC
  8
_0-1_作画層１
  6
CONTINUOUS
 62
    7
 10
63.314364745840834
 20
249.39864577955586
 40
0.4000000059604729
 50
219.00000000000563
 51
38.999999999995438
  0
ARC
  8
_0-1_作画層１
  6
CONTINUOUS
 62
    7
 10
68.311263801858672
 20
252.64367298035833
 40
0.4000000059604558
 50
207.00000000000014
 51
27.000000000000153
  0
ARC
  8
_0-1_作画層１
  6
CONTINUOUS
 62
    7
 10
73.873647716679955
 20
254.7788748195569
 40
0.4000000059604768
 50
195.00000000000122
 51
14.999999999997261
  0
ARC
  8
_0-1_作画層１
  6
CONTINUOUS
 62
    7
 10
79.758413621947653
 20
255.71093273094334
 40
0.4000000059604458
 50
182.99999999999901
 51
2.9999999999990501
  0
ARC
  8
_0-1_作画層１
  6
CONTINUOUS
 62
    7
 10
44.986043684800165
 20
245.72740985021289
 40
0.2500000000000148
 50
80.088562011722274
 51
221.98876953124915
  0
ARC
  8
_0-1_作画層１
  6
CONTINUOUS
 62
    7
 10
49.620167661062226
 20
252.86333458599549
 40
0.2500000000000214
 50
68.088562011726481
 51
209.98876953123778
  0
ARC
  8
_0-1_作画層１
  6
CONTINUOUS
 62
    7
 10
55.636667087310769
 20
258.87983369395448
 40
0.2500000000000078
 50
56.088562011720242
 51
197.98876953124611
  0
ARC
  8
_0-1_作画層１
  6
CONTINUOUS
 62
    7
 10
62.772592068251441
 20
263.51395729270627
 40
0.2499999999999887
 50
44.088562011713108
 51
185.98876953125554
  0
ARC
  8
_0-1_作画層１
  6
CONTINUOUS
 62
    7
 10
70.716068440249956
 20
266.56317194399321
 40
0.2499999999999704
 50
32.088562011701534
 51
173.98876953126216
  0
ARC
  8
_0-1_作画層１
  6
CONTINUOUS
 62
    7
 10
79.119928168821247
 20
267.89421233579856
 40
0.2500000000000378
 50
20.088562011728222
 51
161.98876953123406
  0
LINE
  8
_0-1_作画層１
  6
CONTINUOUS
 62
    7
 10
44.246627190454547
 20
227.2656552071397
 11
51.250008726938887
 21
227.26267827802226
  0
LINE
  8
_0-1_作画層１
  6
CONTINUOUS
 62
    7
 10
51.413028711576544
 20
230.37324577228298
 11
44.44769272100325
 21
231.10235107885663
  0
LINE
  8
_0-1_作画層１
  6
CONTINUOUS
 62
    7
 10
42.240656437927271
 20
228.09275108205702
 11
42.366261282652715
 21
230.4894529465943
  0
LINE
  8
_0-1_作画層１
  6
CONTINUOUS
 62
    7
 10
42.240656437927271
 20
228.09275108205702
 11
51.244015667435946
 21
227.92130888042252
  0
LINE
  8
_0-1_作画層１
  6
CONTINUOUS
 62
    7
 10
51.338215781509348
 20
229.71885183663329
 11
42.366261282652715
 21
230.4894529465943
  0
LINE
  8
_0-1_作画層１
  6
CONTINUOUS
 62
    7
 10
51.270194398636193
 20
228.42066608348921
 11
51.244015667435946
 21
227.92130888042252
  0
LINE
  8
_0-1_作画層１
  6
CONTINUOUS
 62
    7
 10
52.768125044024544
 20
228.34211650176482
 11
51.270194398636193
 21
228.42066608348921
  0
LINE
  8
_0-1_作画層１
  6
CONTINUOUS
 62
    7
 10
51.338215781509348
 20
229.71885183663329
 11
51.312051876516989
 21
229.21949827246436
  0
LINE
  8
_0-1_作画層１
  6
CONTINUOUS
 62
    7
 10
52.810003396023745
 20
229.14102478869845
 11
51.312051876516989
 21
229.21949827246436
  0
LINE
  8
_0-1_作画層１
  6
CONTINUOUS
 62
    7
 10
40.503821854524176
 20
229.15118016307906
 11
42.252635884932545
 21
228.32151516922502
  0
LINE
  8
_0-1_作画層１
  6
CONTINUOUS
 62
    7
 10
40.544975254784333
 20
229.6224151860126
 11
42.354175044172138
 21
230.25882442303802
  0
LINE
  8
_0-1_作画層１
  6
CONTINUOUS
 62
    7
 10
50.243654138431225
 20
227.94034875090281
 11
50.341337885811782
 21
229.80447988581639
  0
ARC
  8
_0-1_作画層１
  6
CONTINUOUS
 62
    7
 10
81.250000000059515
 20
227.2499999999967
 40
29.99999618536232
 50
176.22578430175901
 51
177.7742156982404
  0
ARC
  8
_0-1_作画層１
  6
CONTINUOUS
 62
    7
 10
81.250000000019895
 20
227.24999999999724
 40
29.999996185322804
 50
172.47578430175764
 51
174.02421569824085
  0
ARC
  8
_0-1_作画層１
  6
CONTINUOUS
 62
    7
 10
52.789066004544509
 20
228.74156224972347
 40
0.4000000059604743
 50
267.00000000000119
 51
86.999999999999957
  0
ARC
  8
_0-1_作画層１
  6
CONTINUOUS
 62
    7
 10
40.605787776888178
 20
229.38007398137077
 40
0.2500000000000365
 50
104.08856201172293
 51
245.98876953124403
  0
ARC
  8
_0-1_作画層１
  6
CONTINUOUS
 62
    7
 10
81.25
 20
227.25
 40
28.999999999999982
 50
165.79029846191403
 51
135.84658813476562
  0
LINE
  8
_0-1_作画層１
  6
CONTINUOUS
 62
    7
 10
54.279178368707903
 20
252.57933206424201
 11
55.879194198528182
 21
254.1818119567105
  0
LINE
  8
_0-1_作画層１
  6
CONTINUOUS
 62
    7
 10
59.496855238321785
 20
248.04738962659724
 11
54.290337396988718
 21
252.73136998282527
  0
ARC
  8
_0-1_作画層１
  6
CONTINUOUS
 62
    7
 10
82.776872964329485
 20
228.96009771971973
 40
29.999996185522122
 50
136.47578430176071
 51
138.02421569823366
  0
LINE
  8
_0-1_作画層１
  6
CONTINUOUS
 62
    7
 10
60.474053935390202
 20
249.02458832366563
 11
55.760586319218248
 21
253.97516286644952
  0
ARC
  8
_0-1_作画層１
  6
CONTINUOUS
 62
    7
 10
82.105048859915101
 20
228.59364820848234
 40
29.999996185278924
 50
145.47578430175736
 51
147.02421569824293
  0
LINE
  8
_0-1_作画層１
  6
CONTINUOUS
 62
    7
 10
65.010099683444793
 20
252.47431840730511
 11
61.21896570074631
 21
258.3628221222412
  0
LINE
  8
_0-1_作画層１
  6
CONTINUOUS
 62
    7
 10
62.067010771372168
 20
258.89273364677558
 11
65.697649175610195
 21
252.90392306618708
  0
ARC
  8
_0-1_作画層１
  6
CONTINUOUS
 62
    7
 10
81.25000000009419
 20
227.24999999984908
 40
29.999996185480633
 50
121.22578430176222
 51
122.77421569823743
  0
ARC
  8
_0-1_作画層１
  6
CONTINUOUS
 62
    7
 10
81.250000000017081
 20
227.24999999998215
 40
37.000003814721936
 50
136.79769185345941
 51
139.24527428408098
  0
ARC
  8
_0-1_作画層１
  6
CONTINUOUS
 62
    7
 10
81.250000000021885
 20
227.2499999999774
 40
37.000003814728672
 50
142.75438050997948
 51
151.24561768872917
  0
ARC
  8
_0-1_作画層１
  6
CONTINUOUS
 62
    7
 10
81.250000000023135
 20
227.24999999997658
 40
37.000003814730142
 50
154.75438050996925
 51
163.24561768871911
  0
ARC
  8
_0-1_作画層１
  6
CONTINUOUS
 62
    7
 10
81.250000000022993
 20
227.24999999997652
 40
37.000003814730043
 50
166.75438050995962
 51
175.24561768871024
  0
ARC
  8
_0-1_作画層１
  6
CONTINUOUS
 62
    7
 10
81.249999999997357
 20
227.250000000005
 40
37.000003814691794
 50
130.75438050998875
 51
133.29047710886448
  0
ARC
  8
_0-1_作画層１
  6
CONTINUOUS
 62
    7
 10
81.250000000023249
 20
227.24999999997658
 40
37.000003814730249
 50
118.75438051000086
 51
127.24561768875023
  0
ARC
  8
_0-1_作画層１
  6
CONTINUOUS
 62
    7
 10
81.25000000004016
 20
227.24999999995819
 40
37.000003814755217
 50
130.75438050999162
 51
133.290477108863
  0
ARC
  8
_0-1_作画層１
  6
CONTINUOUS
 62
    7
 10
81.250000000023363
 20
227.24999999997641
 40
37.000003814730434
 50
178.75438050995112
 51
91.245617688778907
  0
ARC
  8
_0-1_作画層１
  6
CONTINUOUS
 62
    7
 10
81.250000000020805
 20
227.24999999999088
 40
37.000003814715789
 50
94.75438051001781
 51
103.24561768877169
  0
ARC
  8
_0-1_作画層１
  6
CONTINUOUS
 62
    7
 10
81.250000000027683
 20
227.24999999996507
 40
37.000003814742549
 50
106.75438051001224
 51
115.24561768875922
  0
LINE
  8
_0-1_作画層１
  6
CONTINUOUS
 62
    7
 10
163.7499885559082
 20
137.75
 11
163.7499885559082
 21
276.75
  0
LINE
  8
_0-1_作画層１
  6
CONTINUOUS
 62
    7
 10
223.75
 20
139.75000762939453
 11
223.75
 21
274.74999237060547
  0
ARC
  8
_0-1_作画層１
  6
CONTINUOUS
 62
    7
 10
166.74997711181635
 20
276.75000000000006
 40
2.9999999999999432
 50
89.99999999999892
 51
180.00000000000108
  0
ARC
  8
_0-1_作画層１
  6
CONTINUOUS
 62
    7
 10
166.74997711181635
 20
137.74999999999994
 40
2.9999999999999432
 50
179.99999999999892
 51
270.00000000000114
  0
ARC
  8
_0-1_作画層１
  6
CONTINUOUS
 62
    7
 10
220.75001335144046
 20
274.74999237060547
 40
2.9999999999999716
 50
0
 51
90.00000000000054
  0
ARC
  8
_0-1_作画層１
  6
CONTINUOUS
 62
    7
 10
220.75001335144046
 20
139.75000762939453
 40
3
 50
269.99999999999943
 51
0
  0
TEXT
  8
_0-7_注記層１
 62
    7
 10
88.125
 20
156.72499999999999
 40
2.2999999999999998
 41
1
 50
0
  1
JET
  0
TEXT
  8
_0-7_注記層１
 62
    7
 10
88.125
 20
154.42499999999998
 40
2.2999999999999998
 41
1
 50
0
  1
スナオ電気株式会社
  0
TEXT
  8
_0-7_注記層１
 62
    7
 10
88.125
 20
152.12499999999997
 40
2.2999999999999998
 41
1
 50
0
  1
AC100V  20A
  0
TEXT
  8
_0-7_注記層１
 62
    7
 10
88.125
 20
149.82499999999996
 40
2.2999999999999998
 41
1
 50
0
  1
50/60Hz
  0
LINE
  8
_0-1_作画層１
  6
CONTINUOUS
 62
    7
 10
82.973349570550454
 20
156.625
 11
85.625
 21
159.27665042944955
  0
LINE
  8
_0-1_作画層１
  6
CONTINUOUS
 62
    7
 10
85.625
 20
159.27665042944955
 11
88.276650429449546
 21
156.625
  0
LINE
  8
_0-1_作画層１
  6
CONTINUOUS
 62
    7
 10
88.276650429449546
 20
156.625
 11
85.625
 21
153.97334957055045
  0
LINE
  8
_0-1_作画層１
  6
CONTINUOUS
 62
    7
 10
85.625
 20
153.97334957055045
 11
82.973349570550454
 21
156.625
  0
TEXT
  8
_0-7_注記層１
 62
    7
 10
84.674999999999997
 20
156.30000000000001
 40
1.8999999999999999
 41
1
 50
0
  1
PS
  0
TEXT
  8
_0-7_注記層１
 62
    7
 10
85.150000000000006
 20
154.40000000000001
 40
1.8999999999999999
 41
1
 50
0
  1
E
  0
LINE
  8
_0-1_作画層１
  6
CONTINUOUS
 62
    7
 10
81.875
 20
160.375
 11
110
 21
160.375
  0
LINE
  8
_0-1_作画層１
  6
CONTINUOUS
 62
    7
 10
110
 20
160.375
 11
110
 21
149.125
  0
LINE
  8
_0-1_作画層１
  6
CONTINUOUS
 62
    7
 10
110
 20
149.125
 11
81.875
 21
149.125
  0
LINE
  8
_0-1_作画層１
  6
CONTINUOUS
 62
    7
 10
81.875
 20
149.125
 11
81.875
 21
160.375
  0
TEXT
  8
_0-7_注記層１
 62
    7
 10
81.875
 20
160.75
 40
3
 41
1
 50
0
  1
TM-301(AC100V)
  0
TEXT
  8
_0-7_注記層１
 62
    7
 10
56.25
 20
166.875
 40
4.5
 41
1
 50
0
  1
２４時間タイムスイッチ
  0
TEXT
  8
_0-7_注記層１
 62
    7
 10
55
 20
148.59999999999999
 40
2.2999999999999998
 41
1
 50
0
  1
電源
  0
TEXT
  8
_0-7_注記層１
 62
    7
 10
66.875
 20
148.59999999999999
 40
2.2999999999999998
 41
1
 50
0
  1
負荷
  0
CIRCLE
  8
_0-1_作画層１
  6
CONTINUOUS
 62
    7
 10
57.5
 20
159.125
 40
1.75
  0
LINE
  8
_0-1_作画層１
  6
CONTINUOUS
 62
    7
 10
53.75
 20
151
 11
61.25
 21
151
  0
LINE
  8
_0-1_作画層１
  6
CONTINUOUS
 62
    7
 10
61.25
 20
151
 11
61.25
 21
148.5
  0
LINE
  8
_0-1_作画層１
  6
CONTINUOUS
 62
    7
 10
61.25
 20
148.5
 11
53.75
 21
148.5
  0
LINE
  8
_0-1_作画層１
  6
CONTINUOUS
 62
    7
 10
53.75
 20
148.5
 11
53.75
 21
151
  0
CIRCLE
  8
_0-1_作画層１
  6
CONTINUOUS
 62
    7
 10
54.375
 20
154.75
 40
0.625
  0
LINE
  8
_0-1_作画層１
  6
DASHED
 62
    7
 10
54.375
 20
154.125
 11
54.375
 21
151
  0
LINE
  8
_0-1_作画層１
  6
CONTINUOUS
 62
    7
 10
54.375
 20
155.375
 11
54.375
 21
162.875
  0
CIRCLE
  8
_0-1_作画層１
  6
CONTINUOUS
 62
    7
 10
60.625
 20
154.75
 40
0.625
  0
LINE
  8
_0-1_作画層１
  6
DASHED
 62
    7
 10
60.625
 20
154.125
 11
60.625
 21
151
  0
LINE
  8
_0-1_作画層１
  6
CONTINUOUS
 62
    7
 10
60.625
 20
155.375
 11
60.625
 21
159.125
  0
LINE
  8
_0-1_作画層１
  6
CONTINUOUS
 62
    7
 10
55.75
 20
159.125
 11
54.375
 21
159.125
  0
LINE
  8
_0-1_作画層１
  6
CONTINUOUS
 62
    7
 10
65.625
 20
151
 11
73.125
 21
151
  0
LINE
  8
_0-1_作画層１
  6
CONTINUOUS
 62
    7
 10
73.125
 20
151
 11
73.125
 21
148.5
  0
LINE
  8
_0-1_作画層１
  6
CONTINUOUS
 62
    7
 10
73.125
 20
148.5
 11
65.625
 21
148.5
  0
LINE
  8
_0-1_作画層１
  6
CONTINUOUS
 62
    7
 10
65.625
 20
148.5
 11
65.625
 21
151
  0
CIRCLE
  8
_0-1_作画層１
  6
CONTINUOUS
 62
    7
 10
66.25
 20
154.75
 40
0.625
  0
LINE
  8
_0-1_作画層１
  6
DASHED
 62
    7
 10
66.25
 20
154.125
 11
66.25
 21
151
  0
CIRCLE
  8
_0-1_作画層１
  6
CONTINUOUS
 62
    7
 10
72.5
 20
154.75
 40
0.625
  0
LINE
  8
_0-1_作画層１
  6
DASHED
 62
    7
 10
72.5
 20
154.125
 11
72.5
 21
151
  0
LINE
  8
_0-1_作画層１
  6
CONTINUOUS
 62
    7
 10
66.25
 20
159.125
 11
66.25
 21
155.375
  0
CIRCLE
  8
_0-1_作画層１
  6
CONTINUOUS
 62
    7
 10
67.625
 20
162.875
 40
0.4375
  0
CIRCLE
  8
_0-1_作画層１
  6
CONTINUOUS
 62
    7
 10
71.125
 20
162.875
 40
0.4375
  0
LINE
  8
_0-1_作画層１
  6
CONTINUOUS
 62
    7
 10
68.042518117906383
 20
162.7442908908304
 11
71.5625
 21
163.75
  0
LINE
  8
_0-1_作画層１
  6
CONTINUOUS
 62
    7
 10
71.5625
 20
162.875
 11
72.4375
 21
162.875
  0
LINE
  8
_0-1_作画層１
  6
CONTINUOUS
 62
    7
 10
72.5
 20
162.875
 11
72.5
 21
155.375
  0
LINE
  8
_0-1_作画層１
  6
CONTINUOUS
 62
    7
 10
54.375
 20
162.875
 11
67.1875
 21
162.875
  0
LINE
  8
_0-1_作画層１
  6
CONTINUOUS
 62
    7
 10
66.25
 20
159.125
 11
59.25
 21
159.125
  0
CIRCLE
  8
_0-1_作画層１
  6
CONTINUOUS
 62
    7
 10
60.625
 20
159.125
 40
0.3499999999999999
  0
CIRCLE
  8
_0-1_作画層１
  6
CONTINUOUS
 62
    7
 10
54.375
 20
159.125
 40
0.3499999999999999
  0
LINE
  8
_0-1_作画層１
  6
CONTINUOUS
 62
    7
 10
54.714607522195763
 20
159.20965654651616
 11
54.459656546516158
 21
159.46460752219579
  0
LINE
  8
_0-1_作画層１
  6
CONTINUOUS
 62
    7
 10
54.719522316353221
 20
159.06332039612144
 11
54.313320396121412
 21
159.46952231635322
  0
LINE
  8
_0-1_作画層１
  6
CONTINUOUS
 62
    7
 10
54.208539853606055
 20
159.43288150263129
 11
54.68288150263129
 21
158.95853985360606
  0
LINE
  8
_0-1_作画層１
  6
CONTINUOUS
 62
    7
 10
54.127512626584746
 20
159.37248737341531
 11
54.622487373415311
 21
158.87751262658472
  0
LINE
  8
_0-1_作画層１
  6
CONTINUOUS
 62
    7
 10
54.067118497368739
 20
159.291460146394
 11
54.541460146394002
 21
158.81711849736874
  0
LINE
  8
_0-1_作画層１
  6
CONTINUOUS
 62
    7
 10
54.030477683646808
 20
159.18667960387864
 11
54.436679603878645
 21
158.78047768364681
  0
LINE
  8
_0-1_作画層１
  6
CONTINUOUS
 62
    7
 10
54.03539247780418
 20
159.04034345348396
 11
54.290343453483956
 21
158.78539247780418
  0
LINE
  8
_0-1_作画層１
  6
CONTINUOUS
 62
    7
 10
60.765010893523822
 20
159.44577554410313
 11
60.945775544103128
 21
159.26501089352382
  0
LINE
  8
_0-1_作画層１
  6
CONTINUOUS
 62
    7
 10
60.973763174809591
 20
159.09560190658004
 11
60.595601906580043
 21
159.47376317480959
  0
LINE
  8
_0-1_作画層１
  6
CONTINUOUS
 62
    7
 10
60.944913430228524
 20
158.98303029492382
 11
60.483030294923822
 21
159.44491343022852
  0
LINE
  8
_0-1_作画層１
  6
CONTINUOUS
 62
    7
 10
60.396448443412396
 20
159.39007392550263
 11
60.890073925502634
 21
158.8964484434124
  0
LINE
  8
_0-1_作画層１
  6
CONTINUOUS
 62
    7
 10
60.814416276167265
 20
158.83068473651045
 11
60.330684736510449
 21
159.31441627616729
  0
LINE
  8
_0-1_作画層１
  6
CONTINUOUS
 62
    7
 10
60.287173640647097
 20
159.21650601579333
 11
60.716506015793328
 21
158.7871736406471
  0
LINE
  8
_0-1_作画層１
  6
CONTINUOUS
 62
    7
 10
60.277297769818944
 20
159.08496053038419
 11
60.584960530384194
 21
158.77729776981894
  0
TEXT
  8
_0-7_注記層１
 62
    7
 10
56.925000000000011
 20
157.97499999999999
 40
2.2999999999999998
 41
1
 50
0
  1
M
  0
INSERT
  2
-002-_D2
  8
_0-9_寸法線層１
 10
6.25
 20
4.75
 41
1
 42
1
 50
0
  0
INSERT
  2
-003-_D3
  8
_0-9_寸法線層１
 10
6.25
 20
4.75
 41
1
 42
1
 50
0
  0
LINE
  8
_0-1_作画層１
  6
CENTER
 62
    7
 10
228.75
 20
207.25
 11
156.25
 21
207.25
  0
LINE
  8
_0-1_作画層１
  6
CENTER
 62
    7
 10
133.75
 20
207.25
 11
29.250007629394531
 21
207.25
  0
LINE
  8
_0-1_作画層１
  6
CONTINUOUS
 62
    7
 10
193.74997520446777
 20
134.75
 11
193.74997520446777
 21
279.75
  0
LINE
  8
_0-1_作画層１
  6
CONTINUOUS
 62
    7
 10
193.74997520446777
 20
279.75
 11
166.74997711181641
 21
279.75
  0
LINE
  8
_0-1_作画層１
  6
CONTINUOUS
 62
    7
 10
193.74997520446777
 20
277.75
 11
220.75001335144043
 21
277.75
  0
INSERT
  2
-004-_D4
  8
_0-9_寸法線層１
 10
6.25
 20
4.75
 41
1
 42
1
 50
0
  0
LINE
  8
_0-1_作画層１
  6
CONTINUOUS
 62
    7
 10
193.74997520446777
 20
134.75
 11
166.74997711181641
 21
134.75
  0
LINE
  8
_0-1_作画層１
  6
CONTINUOUS
 62
    7
 10
193.74997520446777
 20
136.75
 11
220.75001335144043
 21
136.75
  0
LINE
  8
_0-1_作画層１
  6
CONTINUOUS
 62
    7
 10
34.250007629394531
 20
74.75
 11
128.24999237060547
 21
74.75
  0
LINE
  8
_0-1_作画層１
  6
CONTINUOUS
 62
    7
 10
34.250007629394531
 20
74.75
 11
34.250007629394531
 21
101.75
  0
LINE
  8
_0-1_作画層１
  6
CONTINUOUS
 62
    7
 10
36.250007629394531
 20
74.75
 11
36.250007629394531
 21
47.749999761581421
  0
LINE
  8
_0-1_作画層１
  6
CONTINUOUS
 62
    7
 10
128.24999237060547
 20
74.75
 11
128.24999237060547
 21
101.75
  0
LINE
  8
_0-1_作画層１
  6
CONTINUOUS
 62
    7
 10
126.24999237060547
 20
74.75
 11
126.24999237060547
 21
47.749999761581421
  0
CIRCLE
  8
_0-1_作画層１
  6
CONTINUOUS
 62
    7
 10
209.75
 20
154.75
 40
5
  0
CIRCLE
  8
_0-1_作画層１
  6
CONTINUOUS
 62
    7
 10
209.75
 20
154.75
 40
4
  0
LINE
  8
_0-1_作画層１
  6
CONTINUOUS
 62
    7
 10
208.75
 20
158.25
 11
210.75
 21
158.25
  0
LINE
  8
_0-1_作画層１
  6
CONTINUOUS
 62
    7
 10
210.75
 20
151.25
 11
208.75
 21
151.25
  0
LINE
  8
_0-1_作画層１
  6
CONTINUOUS
 62
    7
 10
213.25
 20
155.75
 11
213.25
 21
153.75
  0
LINE
  8
_0-1_作画層１
  6
CONTINUOUS
 62
    7
 10
206.25
 20
153.75
 11
206.25
 21
155.75
  0
ARC
  8
_0-1_作画層１
  6
CONTINUOUS
 62
    7
 10
207.95000000000005
 20
156.54999999999995
 40
0.7999999999999545
 50
269.99999999999591
 51
0.0000000000041601
  0
LINE
  8
_0-1_作画層１
  6
CONTINUOUS
 62
    7
 10
206.25
 20
153.75
 11
207.94999999999999
 21
153.75
  0
ARC
  8
_0-1_作画層１
  6
CONTINUOUS
 62
    7
 10
207.95000000000005
 20
152.95000000000005
 40
0.7999999999999545
 50
359.99999999999596
 51
90.000000000004107
  0
LINE
  8
_0-1_作画層１
  6
CONTINUOUS
 62
    7
 10
213.25
 20
155.75
 11
211.55000000000001
 21
155.75
  0
ARC
  8
_0-1_作画層１
  6
CONTINUOUS
 62
    7
 10
211.54999999999995
 20
156.54999999999995
 40
0.7999999999999545
 50
179.99999999999591
 51
270.00000000000409
  0
LINE
  8
_0-1_作画層１
  6
CONTINUOUS
 62
    7
 10
207.95000010172527
 20
155.75
 11
206.25
 21
155.75
  0
LINE
  8
_0-1_作画層１
  6
CONTINUOUS
 62
    7
 10
213.25
 20
153.75
 11
211.55000000000001
 21
153.75
  0
LINE
  8
_0-1_作画層１
  6
CONTINUOUS
 62
    7
 10
210.75
 20
151.25
 11
210.75
 21
152.94999999999999
  0
ARC
  8
_0-1_作画層１
  6
CONTINUOUS
 62
    7
 10
211.54999999999995
 20
152.95000000000005
 40
0.7999999999999545
 50
89.999999999995921
 51
180.00000000000406
  0
LINE
  8
_0-1_作画層１
  6
CONTINUOUS
 62
    7
 10
208.75
 20
156.55000000000001
 11
208.75
 21
158.25
  0
LINE
  8
_0-1_作画層１
  6
CONTINUOUS
 62
    7
 10
208.75
 20
152.94999999999999
 11
208.75
 21
151.25
  0
LINE
  8
_0-1_作画層１
  6
CONTINUOUS
 62
    7
 10
210.75
 20
156.55000000000001
 11
210.75
 21
158.25
  0
CIRCLE
  8
_0-1_作画層１
  6
CONTINUOUS
 62
    7
 10
102.24999389648437
 20
60.25
 40
12
  0
CIRCLE
  8
_0-1_作画層１
  6
CONTINUOUS
 62
    7
 10
60.250006103515631
 20
60.25
 40
12
  0
CIRCLE
  8
_0-1_作画層１
  6
CONTINUOUS
 62
    7
 10
161.95887622149837
 20
65.132023615635148
 40
5
  0
LINE
  8
_0-1_作画層１
  6
CONTINUOUS
 62
    7
 10
160.70887622149837
 20
69.507023615635148
 11
163.20887622149837
 21
69.507023615635148
  0
LINE
  8
_0-1_作画層１
  6
CONTINUOUS
 62
    7
 10
163.20887622149837
 20
60.757023615635148
 11
160.70887622149837
 21
60.757023615635148
  0
LINE
  8
_0-1_作画層１
  6
CONTINUOUS
 62
    7
 10
166.33387622149837
 20
66.382023615635148
 11
166.33387622149837
 21
63.882023615635148
  0
LINE
  8
_0-1_作画層１
  6
CONTINUOUS
 62
    7
 10
157.58387622149837
 20
63.882023615635148
 11
157.58387622149837
 21
66.382023615635148
  0
ARC
  8
_0-1_作画層１
  6
CONTINUOUS
 62
    7
 10
159.7088762214984
 20
67.38202361563512
 40
0.9999999999999714
 50
269.99999999999835
 51
0.0000000000012086
  0
LINE
  8
_0-1_作画層１
  6
CONTINUOUS
 62
    7
 10
157.58387622149837
 20
63.882023615635148
 11
159.70887622149837
 21
63.882023615635148
  0
ARC
  8
_0-1_作画層１
  6
CONTINUOUS
 62
    7
 10
159.7088762214984
 20
62.882023615635177
 40
0.9999999999999785
 50
359.99999999999881
 51
90.00000000000162
  0
LINE
  8
_0-1_作画層１
  6
CONTINUOUS
 62
    7
 10
166.33387622149837
 20
66.382023615635148
 11
164.20887622149837
 21
66.382023615635148
  0
ARC
  8
_0-1_作画層１
  6
CONTINUOUS
 62
    7
 10
164.20887622149834
 20
67.38202361563512
 40
0.9999999999999785
 50
179.99999999999878
 51
270.00000000000159
  0
LINE
  8
_0-1_作画層１
  6
CONTINUOUS
 62
    7
 10
159.70887634865497
 20
66.382023615635148
 11
157.58387622149837
 21
66.382023615635148
  0
LINE
  8
_0-1_作画層１
  6
CONTINUOUS
 62
    7
 10
166.33387622149837
 20
63.882023615635148
 11
164.20887622149837
 21
63.882023615635148
  0
LINE
  8
_0-1_作画層１
  6
CONTINUOUS
 62
    7
 10
163.20887622149837
 20
60.757023615635148
 11
163.20887622149837
 21
62.882023615635148
  0
ARC
  8
_0-1_作画層１
  6
CONTINUOUS
 62
    7
 10
164.20887622149834
 20
62.882023615635177
 40
0.9999999999999785
 50
89.99999999999838
 51
180.00000000000122
  0
LINE
  8
_0-1_作画層１
  6
CONTINUOUS
 62
    7
 10
160.70887622149837
 20
67.382023615635134
 11
160.70887622149837
 21
69.507023615635148
  0
LINE
  8
_0-1_作画層１
  6
CONTINUOUS
 62
    7
 10
160.70887622149837
 20
62.882023615635163
 11
160.70887622149837
 21
60.757023615635148
  0
LINE
  8
_0-1_作画層１
  6
CONTINUOUS
 62
    7
 10
163.20887622149837
 20
67.382023615635134
 11
163.20887622149837
 21
69.507023615635148
  0
CIRCLE
  8
_0-1_作画層１
  6
CONTINUOUS
 62
    7
 10
179.45887622149837
 20
65.132023615635148
 40
5
  0
LINE
  8
_0-1_作画層１
  6
CONTINUOUS
 62
    7
 10
178.20887622149837
 20
69.507023615635148
 11
180.70887622149837
 21
69.507023615635148
  0
LINE
  8
_0-1_作画層１
  6
CONTINUOUS
 62
    7
 10
180.70887622149837
 20
60.757023615635148
 11
178.20887622149837
 21
60.757023615635148
  0
LINE
  8
_0-1_作画層１
  6
CONTINUOUS
 62
    7
 10
183.83387622149837
 20
66.382023615635148
 11
183.83387622149837
 21
63.882023615635148
  0
LINE
  8
_0-1_作画層１
  6
CONTINUOUS
 62
    7
 10
175.08387622149837
 20
63.882023615635148
 11
175.08387622149837
 21
66.382023615635148
  0
ARC
  8
_0-1_作画層１
  6
CONTINUOUS
 62
    7
 10
177.2088762214984
 20
67.38202361563512
 40
0.9999999999999714
 50
269.99999999999835
 51
0.0000000000012086
  0
LINE
  8
_0-1_作画層１
  6
CONTINUOUS
 62
    7
 10
175.08387622149837
 20
63.882023615635148
 11
177.20887622149837
 21
63.882023615635148
  0
ARC
  8
_0-1_作画層１
  6
CONTINUOUS
 62
    7
 10
177.2088762214984
 20
62.882023615635177
 40
0.9999999999999785
 50
359.99999999999881
 51
90.00000000000162
  0
LINE
  8
_0-1_作画層１
  6
CONTINUOUS
 62
    7
 10
183.83387622149837
 20
66.382023615635148
 11
181.70887622149837
 21
66.382023615635148
  0
ARC
  8
_0-1_作画層１
  6
CONTINUOUS
 62
    7
 10
181.70887622149834
 20
67.38202361563512
 40
0.9999999999999785
 50
179.99999999999878
 51
270.00000000000159
  0
LINE
  8
_0-1_作画層１
  6
CONTINUOUS
 62
    7
 10
177.20887634865497
 20
66.382023615635148
 11
175.08387622149837
 21
66.382023615635148
  0
LINE
  8
_0-1_作画層１
  6
CONTINUOUS
 62
    7
 10
183.83387622149837
 20
63.882023615635148
 11
181.70887622149837
 21
63.882023615635148
  0
LINE
  8
_0-1_作画層１
  6
CONTINUOUS
 62
    7
 10
180.70887622149837
 20
60.757023615635148
 11
180.70887622149837
 21
62.882023615635148
  0
ARC
  8
_0-1_作画層１
  6
CONTINUOUS
 62
    7
 10
181.70887622149834
 20
62.882023615635177
 40
0.9999999999999785
 50
89.99999999999838
 51
180.00000000000122
  0
LINE
  8
_0-1_作画層１
  6
CONTINUOUS
 62
    7
 10
178.20887622149837
 20
67.382023615635134
 11
178.20887622149837
 21
69.507023615635148
  0
LINE
  8
_0-1_作画層１
  6
CONTINUOUS
 62
    7
 10
178.20887622149837
 20
62.882023615635163
 11
178.20887622149837
 21
60.757023615635148
  0
LINE
  8
_0-1_作画層１
  6
CONTINUOUS
 62
    7
 10
180.70887622149837
 20
67.382023615635134
 11
180.70887622149837
 21
69.507023615635148
  0
CIRCLE
  8
_0-1_作画層１
  6
CONTINUOUS
 62
    7
 10
196.95887622149837
 20
65.132023615635148
 40
5
  0
LINE
  8
_0-1_作画層１
  6
CONTINUOUS
 62
    7
 10
195.70887622149837
 20
69.507023615635148
 11
198.20887622149837
 21
69.507023615635148
  0
LINE
  8
_0-1_作画層１
  6
CONTINUOUS
 62
    7
 10
198.20887622149837
 20
60.757023615635148
 11
195.70887622149837
 21
60.757023615635148
  0
LINE
  8
_0-1_作画層１
  6
CONTINUOUS
 62
    7
 10
201.33387622149837
 20
66.382023615635148
 11
201.33387622149837
 21
63.882023615635148
  0
LINE
  8
_0-1_作画層１
  6
CONTINUOUS
 62
    7
 10
192.58387622149837
 20
63.882023615635148
 11
192.58387622149837
 21
66.382023615635148
  0
ARC
  8
_0-1_作画層１
  6
CONTINUOUS
 62
    7
 10
194.7088762214984
 20
67.38202361563512
 40
0.9999999999999714
 50
269.99999999999835
 51
0.0000000000012086
  0
LINE
  8
_0-1_作画層１
  6
CONTINUOUS
 62
    7
 10
192.58387622149837
 20
63.882023615635148
 11
194.70887622149837
 21
63.882023615635148
  0
ARC
  8
_0-1_作画層１
  6
CONTINUOUS
 62
    7
 10
194.7088762214984
 20
62.882023615635177
 40
0.9999999999999785
 50
359.99999999999881
 51
90.00000000000162
  0
LINE
  8
_0-1_作画層１
  6
CONTINUOUS
 62
    7
 10
201.33387622149837
 20
66.382023615635148
 11
199.20887622149837
 21
66.382023615635148
  0
ARC
  8
_0-1_作画層１
  6
CONTINUOUS
 62
    7
 10
199.20887622149834
 20
67.38202361563512
 40
0.9999999999999785
 50
179.99999999999878
 51
270.00000000000159
  0
LINE
  8
_0-1_作画層１
  6
CONTINUOUS
 62
    7
 10
194.70887634865497
 20
66.382023615635148
 11
192.58387622149837
 21
66.382023615635148
  0
LINE
  8
_0-1_作画層１
  6
CONTINUOUS
 62
    7
 10
201.33387622149837
 20
63.882023615635148
 11
199.20887622149837
 21
63.882023615635148
  0
LINE
  8
_0-1_作画層１
  6
CONTINUOUS
 62
    7
 10
198.20887622149837
 20
60.757023615635148
 11
198.20887622149837
 21
62.882023615635148
  0
ARC
  8
_0-1_作画層１
  6
CONTINUOUS
 62
    7
 10
199.20887622149834
 20
62.882023615635177
 40
0.9999999999999785
 50
89.99999999999838
 51
180.00000000000122
  0
LINE
  8
_0-1_作画層１
  6
CONTINUOUS
 62
    7
 10
195.70887622149837
 20
67.382023615635134
 11
195.70887622149837
 21
69.507023615635148
  0
LINE
  8
_0-1_作画層１
  6
CONTINUOUS
 62
    7
 10
195.70887622149837
 20
62.882023615635163
 11
195.70887622149837
 21
60.757023615635148
  0
LINE
  8
_0-1_作画層１
  6
CONTINUOUS
 62
    7
 10
198.20887622149837
 20
67.382023615635134
 11
198.20887622149837
 21
69.507023615635148
  0
CIRCLE
  8
_0-1_作画層１
  6
CONTINUOUS
 62
    7
 10
214.45887622149837
 20
65.132023615635148
 40
5
  0
LINE
  8
_0-1_作画層１
  6
CONTINUOUS
 62
    7
 10
213.20887622149837
 20
69.507023615635148
 11
215.70887622149837
 21
69.507023615635148
  0
LINE
  8
_0-1_作画層１
  6
CONTINUOUS
 62
    7
 10
215.70887622149837
 20
60.757023615635148
 11
213.20887622149837
 21
60.757023615635148
  0
LINE
  8
_0-1_作画層１
  6
CONTINUOUS
 62
    7
 10
218.83387622149837
 20
66.382023615635148
 11
218.83387622149837
 21
63.882023615635148
  0
LINE
  8
_0-1_作画層１
  6
CONTINUOUS
 62
    7
 10
210.08387622149837
 20
63.882023615635148
 11
210.08387622149837
 21
66.382023615635148
  0
ARC
  8
_0-1_作画層１
  6
CONTINUOUS
 62
    7
 10
212.2088762214984
 20
67.38202361563512
 40
0.9999999999999714
 50
269.99999999999835
 51
0.0000000000012086
  0
LINE
  8
_0-1_作画層１
  6
CONTINUOUS
 62
    7
 10
210.08387622149837
 20
63.882023615635148
 11
212.20887622149837
 21
63.882023615635148
  0
ARC
  8
_0-1_作画層１
  6
CONTINUOUS
 62
    7
 10
212.2088762214984
 20
62.882023615635177
 40
0.9999999999999785
 50
359.99999999999881
 51
90.00000000000162
  0
LINE
  8
_0-1_作画層１
  6
CONTINUOUS
 62
    7
 10
218.83387622149837
 20
66.382023615635148
 11
216.70887622149837
 21
66.382023615635148
  0
ARC
  8
_0-1_作画層１
  6
CONTINUOUS
 62
    7
 10
216.70887622149834
 20
67.38202361563512
 40
0.9999999999999785
 50
179.99999999999878
 51
270.00000000000159
  0
LINE
  8
_0-1_作画層１
  6
CONTINUOUS
 62
    7
 10
212.20887634865497
 20
66.382023615635148
 11
210.08387622149837
 21
66.382023615635148
  0
LINE
  8
_0-1_作画層１
  6
CONTINUOUS
 62
    7
 10
218.83387622149837
 20
63.882023615635148
 11
216.70887622149837
 21
63.882023615635148
  0
LINE
  8
_0-1_作画層１
  6
CONTINUOUS
 62
    7
 10
215.70887622149837
 20
60.757023615635148
 11
215.70887622149837
 21
62.882023615635148
  0
ARC
  8
_0-1_作画層１
  6
CONTINUOUS
 62
    7
 10
216.70887622149834
 20
62.882023615635177
 40
0.9999999999999785
 50
89.99999999999838
 51
180.00000000000122
  0
LINE
  8
_0-1_作画層１
  6
CONTINUOUS
 62
    7
 10
213.20887622149837
 20
67.382023615635134
 11
213.20887622149837
 21
69.507023615635148
  0
LINE
  8
_0-1_作画層１
  6
CONTINUOUS
 62
    7
 10
213.20887622149837
 20
62.882023615635163
 11
213.20887622149837
 21
60.757023615635148
  0
LINE
  8
_0-1_作画層１
  6
CONTINUOUS
 62
    7
 10
215.70887622149837
 20
67.382023615635134
 11
215.70887622149837
 21
69.507023615635148
  0
LINE
  8
_0-1_作画層１
  6
CONTINUOUS
 62
    7
 10
154.45887622149837
 20
72.632023615635148
 11
221.95887622149837
 21
72.632023615635148
  0
LINE
  8
_0-1_作画層１
  6
CONTINUOUS
 62
    7
 10
221.95887622149837
 20
72.632023615635148
 11
221.95887622149837
 21
57.632023615635148
  0
LINE
  8
_0-1_作画層１
  6
CONTINUOUS
 62
    7
 10
221.95887622149837
 20
57.632023615635148
 11
154.45887622149837
 21
57.632023615635148
  0
LINE
  8
_0-1_作画層１
  6
CONTINUOUS
 62
    7
 10
154.45887622149837
 20
57.632023615635148
 11
154.45887622149837
 21
72.632023615635148
  0
LINE
  8
_0-1_作画層１
  6
CONTINUOUS
 62
    7
 10
214.45887622149837
 20
50.132023615635148
 11
226.95887622149837
 21
50.132023615635148
  0
CIRCLE
  8
_0-1_作画層１
  6
CONTINUOUS
 62
    7
 10
170.70887622149837
 20
42.632023615635148
 40
5
  0
ARC
  8
_0-1_作画層１
  6
CONTINUOUS
 62
    7
 10
169.14637622149837
 20
42.791998082464062
 40
1.5706680362308238
 50
185.84578235473452
 51
354.15421764526542
  0
ARC
  8
_0-1_作画層１
  6
CONTINUOUS
 62
    7
 10
172.27137622149837
 20
42.472049148806207
 40
1.5706680362308283
 50
5.8457823547360706
 51
174.15421764526394
  0
LINE
  8
_0-1_作画層１
  6
CONTINUOUS
 62
    7
 10
165.70887622149837
 20
42.632023615635148
 11
161.95887622149837
 21
42.632023615635148
  0
LINE
  8
_0-1_作画層１
  6
CONTINUOUS
 62
    7
 10
179.45887622149837
 20
42.632023615635148
 11
175.70887622149837
 21
42.632023615635148
  0
LINE
  8
_0-1_作画層１
  6
CONTINUOUS
 62
    7
 10
161.95887622149837
 20
57.632023615635148
 11
161.95887622149837
 21
42.632023615635148
  0
LINE
  8
_0-1_作画層１
  6
CONTINUOUS
 62
    7
 10
179.45887622149837
 20
57.632023615635148
 11
179.45887622149837
 21
42.632023615635148
  0
LINE
  8
_0-1_作画層１
  6
CONTINUOUS
 62
    7
 10
214.45887622149837
 20
57.632023615635148
 11
214.45887622149837
 21
50.132023615635148
  0
LINE
  8
_0-1_作画層１
  6
CONTINUOUS
 62
    7
 10
196.95887622149837
 20
57.632023615635148
 11
196.95887622149837
 21
42.632023615635148
  0
LINE
  8
_0-1_作画層１
  6
DASHED
 62
    7
 10
234.45887622149837
 20
97.632023615635148
 11
234.45887622149837
 21
65.132023615635148
  0
LINE
  8
_0-1_作画層１
  6
DASHED
 62
    7
 10
234.45887622149837
 20
65.132023615635148
 11
221.95887622149837
 21
65.132023615635148
  0
LINE
  8
_0-1_作画層１
  6
DASHED
 62
    7
 10
141.95887622149837
 20
97.632023615635148
 11
141.95887622149837
 21
65.132023615635148
  0
LINE
  8
_0-1_作画層１
  6
DASHED
 62
    7
 10
141.95887622149837
 20
65.132023615635148
 11
154.45887622149837
 21
65.132023615635148
  0
TEXT
  8
_0-7_注記層１
 62
    7
 10
165.95887622149837
 20
33.382023615635148
 40
3.5
 41
1
 50
0
  1
電源
  0
TEXT
  8
_0-7_注記層１
 62
    7
 10
164.20887622149837
 20
29.882023615635148
 40
3.5
 41
1
 50
0
  1
AC100V
  0
CIRCLE
  8
_0-1_作画層１
  6
CONTINUOUS
 62
    7
 10
170.70887622149837
 20
87.632023615635148
 40
5
  0
LINE
  8
_0-1_作画層１
  6
CONTINUOUS
 62
    7
 10
165.70887622149837
 20
87.632023615635148
 11
161.95887622149837
 21
87.632023615635148
  0
LINE
  8
_0-1_作画層１
  6
CONTINUOUS
 62
    7
 10
179.45887622149837
 20
87.632023615635148
 11
179.45887622149837
 21
72.632023615635148
  0
LINE
  8
_0-1_作画層１
  6
CONTINUOUS
 62
    7
 10
163.75
 20
112.25
 11
188.75
 21
112.25
  0
TEXT
  8
_0-7_注記層１
 62
    7
 10
166.25
 20
112.25
 40
5
 41
1
 50
0
  1
端子接続
  0
CIRCLE
  8
_0-1_作画層１
  6
CONTINUOUS
 62
    7
 10
161.95887622149837
 20
87.632023615635148
 40
0.75
  0
LINE
  8
_0-1_作画層１
  6
CONTINUOUS
 62
    7
 10
195.75001335144043
 20
136.75
 11
195.75001335144043
 21
136.25
  0
ARC
  8
_0-1_作画層１
  6
CONTINUOUS
 62
    7
 10
197.7500133514404
 20
136.24999999999997
 40
1.9999999999999716
 50
179.99999999999918
 51
270.0000000000008
  0
LINE
  8
_0-1_作画層１
  6
CONTINUOUS
 62
    7
 10
197.75001335144043
 20
134.25
 11
217.74741896208627
 21
134.25
  0
LINE
  8
_0-1_作画層１
  6
CONTINUOUS
 62
    7
 10
219.74741896208627
 20
136.75
 11
219.74741896208627
 21
136.25
  0
ARC
  8
_0-1_作画層１
  6
CONTINUOUS
 62
    7
 10
217.7474189620863
 20
136.24999999999997
 40
1.9999999999999716
 50
269.9999999999992
 51
0.0000000000007887
  0
LINE
  8
_0-1_作画層１
  6
CONTINUOUS
 62
    7
 10
162.19549304616555
 20
88.343720516207597
 11
162.67057312207081
 21
87.868640440302329
  0
LINE
  8
_0-1_作画層１
  6
CONTINUOUS
 62
    7
 10
162.70653335325639
 20
87.691258852879457
 11
162.01811145874268
 21
88.379680747393152
  0
LINE
  8
_0-1_作画層１
  6
CONTINUOUS
 62
    7
 10
162.70457308538587
 20
87.551797764512642
 11
161.87865037037585
 21
88.377720479522665
  0
LINE
  8
_0-1_作画層１
  6
CONTINUOUS
 62
    7
 10
162.68197912273175
 20
87.432970370929468
 11
161.75982297679269
 21
88.355126516868538
  0
LINE
  8
_0-1_作画層１
  6
CONTINUOUS
 62
    7
 10
162.64481032267085
 20
87.328717814753077
 11
161.6555704206163
 21
88.317957716807626
  0
LINE
  8
_0-1_作画層１
  6
CONTINUOUS
 62
    7
 10
161.56304499045478
 20
88.26906179073184
 11
162.59591439659508
 21
87.236192384591561
  0
LINE
  8
_0-1_作画層１
  6
CONTINUOUS
 62
    7
 10
162.53674695918428
 20
87.153938465765023
 11
161.48079107162826
 21
88.209894353321062
  0
LINE
  8
_0-1_作画層１
  6
CONTINUOUS
 62
    7
 10
162.46797966701212
 20
87.081284401699889
 11
161.40813700756311
 21
88.141127061148907
  0
LINE
  8
_0-1_作画層１
  6
CONTINUOUS
 62
    7
 10
162.38971967438218
 20
87.01812303809254
 11
161.34497564395576
 21
88.062867068518955
  0
LINE
  8
_0-1_作画層１
  6
CONTINUOUS
 62
    7
 10
162.30154135700565
 20
86.964879999231769
 11
161.29173260509498
 21
87.974688751142423
  0
LINE
  8
_0-1_作画層１
  6
CONTINUOUS
 62
    7
 10
162.20235503363517
 20
86.922644966364928
 11
161.24949757222814
 21
87.875502427771963
  0
LINE
  8
_0-1_作画層１
  6
CONTINUOUS
 62
    7
 10
161.22042804216986
 20
87.763150601592969
 11
162.09000320745619
 21
86.89357543630662
  0
LINE
  8
_0-1_作画層１
  6
CONTINUOUS
 62
    7
 10
161.96013261953229
 20
86.882024667993235
 11
161.20887727385644
 21
87.633280013669051
  0
LINE
  8
_0-1_作画層１
  6
CONTINUOUS
 62
    7
 10
161.80215524926234
 20
86.898580682025866
 11
161.22543328788908
 21
87.475302643399118
  0
LINE
  8
_0-1_作画層１
  6
CONTINUOUS
 62
    7
 10
161.56640415550393
 20
86.992910419546959
 11
161.31976302541017
 21
87.239551549640723
  0
LINE
  8
_0-1_作画層１
  6
CONTINUOUS
 62
    7
 10
181.96586786878524
 20
87.632023615635148
 11
179.45887622149837
 21
87.632023615635148
  0
CIRCLE
  8
_0-1_作画層１
  6
CONTINUOUS
 62
    7
 10
179.45887622149837
 20
87.632023615635148
 40
0.75
  0
LINE
  8
_0-1_作画層１
  6
CONTINUOUS
 62
    7
 10
180.17694358207135
 20
87.848539817522592
 11
179.67539242338583
 21
88.350090976208122
  0
LINE
  8
_0-1_作画層１
  6
CONTINUOUS
 62
    7
 10
180.20755593104684
 20
87.676506112309781
 11
179.50335871817299
 21
88.380703325183632
  0
LINE
  8
_0-1_作画層１
  6
CONTINUOUS
 62
    7
 10
180.20314653429594
 20
87.539494152823409
 11
179.36634675868663
 21
88.376293928432702
  0
LINE
  8
_0-1_作画層１
  6
CONTINUOUS
 62
    7
 10
180.17894832954951
 20
87.422271001332518
 11
179.24912360719574
 21
88.35209572368629
  0
LINE
  8
_0-1_作画層１
  6
CONTINUOUS
 62
    7
 10
180.14054610743202
 20
87.319251867212714
 11
179.14610447307595
 21
88.313693501568778
  0
LINE
  8
_0-1_作画層１
  6
CONTINUOUS
 62
    7
 10
180.09060455267019
 20
87.227772065737227
 11
179.05462467160046
 21
88.263751946806963
  0
LINE
  8
_0-1_作画層１
  6
CONTINUOUS
 62
    7
 10
178.97332223176485
 20
88.203633030405285
 11
180.03048563626851
 21
87.146469625901631
  0
LINE
  8
_0-1_作画層１
  6
CONTINUOUS
 62
    7
 10
179.96080033045007
 20
87.074733575482753
 11
178.90158618134598
 21
88.133947724586847
  0
LINE
  8
_0-1_作画層１
  6
CONTINUOUS
 62
    7
 10
179.8816051073976
 20
87.012507442297917
 11
178.83936004816115
 21
88.054752501534381
  0
LINE
  8
_0-1_作画層１
  6
CONTINUOUS
 62
    7
 10
179.79241862285289
 20
86.960272570605326
 11
178.78712517646855
 21
87.965566016989669
  0
LINE
  8
_0-1_作画層１
  6
CONTINUOUS
 62
    7
 10
179.69207154468094
 20
86.919198292539946
 11
178.74605089840318
 21
87.865218938817733
  0
LINE
  8
_0-1_作画層１
  6
CONTINUOUS
 62
    7
 10
179.57826193342848
 20
86.891586547555121
 11
178.71843915341836
 21
87.75140932756527
  0
LINE
  8
_0-1_作画層１
  6
CONTINUOUS
 62
    7
 10
179.44629802772116
 20
86.882129097025157
 11
178.70898170288839
 21
87.619445421857932
  0
LINE
  8
_0-1_作画層１
  6
CONTINUOUS
 62
    7
 10
179.28440689471657
 20
86.902598873792442
 11
178.72945147965567
 21
87.457554288853345
  0
LINE
  8
_0-1_作画層１
  6
CONTINUOUS
 62
    7
 10
179.0261012973892
 20
87.01948311488249
 11
178.84633572074571
 21
87.199248691525995
  0
CIRCLE
  8
_0-1_作画層１
  6
CONTINUOUS
 62
    7
 10
200.70887622149837
 20
102.63202361563515
 40
1.25
  0
CIRCLE
  8
_0-1_作画層１
  6
CONTINUOUS
 62
    7
 10
210.70887622149837
 20
102.63202361563515
 40
1.25
  0
LINE
  8
_0-1_作画層１
  6
CONTINUOUS
 62
    7
 10
211.95887622149837
 20
102.63202361563515
 11
214.45887622149837
 21
102.63202361563515
  0
LINE
  8
_0-1_作画層１
  6
CONTINUOUS
 62
    7
 10
201.45887622149837
 20
103.63202361563515
 11
209.45887622149837
 21
107.63202361563515
  0
LINE
  8
_0-1_作画層１
  6
CONTINUOUS
 62
    7
 10
161.95887622149837
 20
102.63202361563515
 11
199.45887622149837
 21
102.63202361563515
  0
LINE
  8
_0-1_作画層１
  6
CONTINUOUS
 62
    7
 10
214.45887622149837
 20
102.63202361563515
 11
214.45887622149837
 21
72.632023615635148
  0
LINE
  8
_0-1_作画層１
  6
CONTINUOUS
 62
    7
 10
161.95887622149837
 20
102.63202361563515
 11
161.95887622149837
 21
72.632023615635148
  0
LINE
  8
_0-1_作画層１
  6
CONTINUOUS
 62
    7
 10
196.95887622149837
 20
72.632023615635148
 11
196.95887622149837
 21
87.632023615635148
  0
TEXT
  8
_0-7_注記層１
 62
    7
 10
203.45887622149837
 20
108.38202361563515
 40
3.5
 41
1
 50
0
  1
接点
  0
LINE
  8
_0-1_作画層１
  6
CONTINUOUS
 62
    7
 10
196.95887622149837
 20
87.632023615635148
 11
175.70887622149837
 21
87.632023615635148
  0
TEXT
  8
_0-7_注記層１
 62
    7
 10
233.45887622149837
 20
45.132023615635148
 40
3.5
 41
1
 50
0
  1
負荷
  0
LINE
  8
_0-1_作画層１
  6
CONTINUOUS
 62
    7
 10
196.95887622149837
 20
42.632023615635148
 11
226.95887622149837
 21
42.632023615635148
  0
TEXT
  8
_0-7_注記層１
 62
    7
 10
168.49358974358975
 20
85.391025641025635
 40
5
 41
1
 50
0
  1
Ｍ
  0
LINE
  8
_0-d_0_1
  6
CONTINUOUS
 62
    7
 10
98.625064799075517
 20
227.25000170106301
 11
98.749559351687822
 21
227.37450538063655
  0
LINE
  8
_0-d_0_1
  6
CONTINUOUS
 62
    7
 10
98.483632990603837
 20
227.25000170106301
 11
98.748002955203447
 21
227.51437187427888
  0
ARC
  8
_0-d_0_1
  6
CONTINUOUS
 62
    7
 10
81.249999999999858
 20
227.24999999999986
 40
20.500000000000007
 50
141.2595977783198
 51
128.74040222167912
  0
TEXT
  8
_0-d_0_1
 62
    7
 10
74.223715986511593
 20
244.25284957456574
 40
5
 41
1
 50
14.999989403430712
  1
9
  0
TEXT
  8
_0-d_0_1
 62
    7
 10
77.843761870150956
 20
245.38529375428567
 40
5
 41
1
 50
0
  1
8
  0
TEXT
  8
_0-d_0_1
 62
    7
 10
82.737005307180667
 20
245.67420558504801
 40
5
 41
1
 50
-14.999979702261436
  1
7
  0
TEXT
  8
_0-d_0_1
 62
    7
 10
87.427637871616241
 20
244.66159164453424
 40
5
 41
1
 50
-29.999975896259983
  1
6
  0
TEXT
  8
_0-d_0_1
 62
    7
 10
91.665889548288334
 20
242.47591135466951
 40
5
 41
1
 50
-45.000009091158226
  1
5
  0
TEXT
  8
_0-d_0_1
 62
    7
 10
95.28393419231314
 20
239.32873549115823
 40
5
 41
1
 50
-59.999912760333956
  1
4
  0
TEXT
  8
_0-d_0_1
 62
    7
 10
97.943493406260004
 20
235.18026272118956
 40
5
 41
1
 50
-75.000243003075795
  1
3
  0
TEXT
  8
_0-d_0_1
 62
    7
 10
99.450208613162431
 20
230.61421087617288
 40
5
 41
1
 50
-90
  1
2
  0
TEXT
  8
_0-d_0_1
 62
    7
 10
99.635956165403996
 20
225.72452840616731
 40
5
 41
1
 50
-104.99975616503994
  1
1
  0
TEXT
  8
_0-d_0_1
 62
    7
 10
99.333127947938067
 20
222.21836986406521
 40
5
 41
1
 50
-120.00005854257884
  1
24
  0
TEXT
  8
_0-d_0_1
 62
    7
 10
97.393379160647797
 20
217.69173983062856
 40
5
 41
1
 50
-135.00000000000023
  1
23
  0
TEXT
  8
_0-d_0_1
 62
    7
 10
94.33627747487472
 20
213.74137392700007
 40
5
 41
1
 50
-150.00003053215451
  1
22
  0
TEXT
  8
_0-d_0_1
 62
    7
 10
90.461844413814276
 20
210.8417950840261
 40
5
 41
1
 50
-164.9999646800598
  1
21
  0
TEXT
  8
_0-d_0_1
 62
    7
 10
85.933866688495073
 20
208.90524652833352
 40
5
 41
1
 50
180
  1
20
  0
TEXT
  8
_0-d_0_1
 62
    7
 10
80.970166665597333
 20
208.39356918027724
 40
5
 41
1
 50
164.9999895175464
  1
19
  0
TEXT
  8
_0-d_0_1
 62
    7
 10
76.132121152820218
 20
209.16220600741642
 40
5
 41
1
 50
150.00003053215451
  1
18
  0
TEXT
  8
_0-d_0_1
 62
    7
 10
70.79244417925122
 20
211.8032970749812
 40
5
 41
1
 50
135.00001931871768
  1
17
  0
TEXT
  8
_0-d_0_1
 62
    7
 10
67.14556449653486
 20
215.11552106168401
 40
5
 41
1
 50
119.99999141718865
  1
16
  0
TEXT
  8
_0-d_0_1
 62
    7
 10
64.545376416693102
 20
219.11818441876306
 40
5
 41
1
 50
105.00004571869744
  1
15
  0
TEXT
  8
_0-d_0_1
 62
    7
 10
63.090473124270829
 20
223.80559876794229
 40
5
 41
1
 50
90
  1
14
  0
TEXT
  8
_0-d_0_1
 62
    7
 10
62.872935851553194
 20
228.63019249279219
 40
5
 41
1
 50
74.999957816881491
  1
13
  0
TEXT
  8
_0-d_0_1
 62
    7
 10
63.821014615475008
 20
233.26990495360704
 40
5
 41
1
 50
60.000042243336416
  1
12
  0
TEXT
  8
_0-d_0_1
 62
    7
 10
67.026986913737829
 20
238.86074574719476
 40
5
 41
1
 50
39.999957756663754
  1
11
  0
TEXT
  8
_0-7_注記層１
 62
    7
 10
163.95887622149837
 20
95.132023615635148
 40
3.5
 41
1
 50
0
  1
同期モーター
  0
INSERT
  2
-005-_D5
  8
_0-9_寸法線層１
 10
6.25
 20
4.75
 41
1
 42
1
 50
0
  0
TEXT
  8
_0-7_注記層１
 62
    7
 10
363.75
 20
28
 40
3.5
 41
1
 50
0
  1
２４時間タイムスイッチ
  0
TEXT
  8
_0-7_注記層１
 62
    7
 10
343.75
 20
27.25
 40
4
 41
1
 50
0
  1
平野
  0
TEXT
  8
_0-7_注記層１
 62
    7
 10
306.25
 20
253
 40
3.5
 41
1
 50
0
  1
AC85V～AC115V
  0
TEXT
  8
_0-7_注記層１
 62
    7
 10
306.25
 20
248
 40
3.5
 41
1
 50
0
  1
50Hz/60Hz共用(切換)
  0
TEXT
  8
_0-7_注記層１
 62
    7
 10
306.25
 20
233
 40
3.5
 41
1
 50
0
  1
35%RH～85％RH
  0
TEXT
  8
_0-7_注記層１
 62
    7
 10
306.25
 20
193
 40
3.5
 41
1
 50
0
  1
H145×W94×D60mm
  0
TEXT
  8
_0-7_注記層１
 62
    7
 10
306.25
 20
218
 40
3.5
 41
1
 50
0
  1
1日48回　ON-OFF動作
  0
TEXT
  8
_0-7_注記層１
 62
    7
 10
363.75
 20
17.25
 40
5
 41
1
 50
0
  1
TM-301-001-02
  0
TEXT
  8
_0-7_注記層１
 62
    7
 10
272.5
 20
28
 40
3.5
 41
1
 50
0
  1
2017.10.24
  0
ENDSEC
  0
EOF
